ISO-10303-21;
HEADER;
/****************************************************************
 * Generated by software with PDE/Lib inside                    *
 * PDElib Version v51a, created Tue 12/06/2005                  *
 * International Technegroup Inc. (www.iti-oh.com)              *
 ****************************************************************/
FILE_DESCRIPTION((''),'2;1');
FILE_NAME('U:\\Paletti Norm\\Paletti Artikel f. Palkat\\STEP\\SP050_extern.ipt.step','2007-09-10T15:08:14',(''),(''),'Autodesk Inventor 11','Autodesk Inventor 11','');
FILE_SCHEMA(('AUTOMOTIVE_DESIGN { 1 0 10303 214 1 1 1 1 }'));
ENDSEC;
DATA;
#5=APPLICATION_CONTEXT('automotive design');
#6=APPLICATION_PROTOCOL_DEFINITION('International Standard','automotive_design',2001,#5);
#7=PRODUCT_CONTEXT('',#5,'mechanical');
#8=PRODUCT('SP050_extern','SP050_extern',$,(#7));
#9=PRODUCT_RELATED_PRODUCT_CATEGORY('part',$,(#8));
#10=PRODUCT_DEFINITION_FORMATION('',$,#8);
#11=PRODUCT_DEFINITION_CONTEXT('part definition',#5,'design');
#12=PRODUCT_DEFINITION('',$,#10,#11);
#18=(NAMED_UNIT(*)PLANE_ANGLE_UNIT()SI_UNIT($,.RADIAN.));
#19=DIMENSIONAL_EXPONENTS(0.0,0.0,0.0,0.0,0.0,0.0,0.0);
#20=PLANE_ANGLE_MEASURE_WITH_UNIT(PLANE_ANGLE_MEASURE(0.017453292500000),#18);
#24=(CONVERSION_BASED_UNIT('DEGREE',#20)NAMED_UNIT(#19)PLANE_ANGLE_UNIT());
#28=(NAMED_UNIT(*)SI_UNIT($,.STERADIAN.)SOLID_ANGLE_UNIT());
#32=(LENGTH_UNIT()NAMED_UNIT(*)SI_UNIT(.MILLI.,.METRE.));
#34=UNCERTAINTY_MEASURE_WITH_UNIT(LENGTH_MEASURE(0.010000000000000),#32,'DISTANCE_ACCURACY_VALUE','');
#36=(GEOMETRIC_REPRESENTATION_CONTEXT(3)GLOBAL_UNCERTAINTY_ASSIGNED_CONTEXT((#34))GLOBAL_UNIT_ASSIGNED_CONTEXT((#24,#28,#32))REPRESENTATION_CONTEXT('None','None'));
#37=AXIS2_PLACEMENT_3D('',#38,#39,#40);
#38=CARTESIAN_POINT('',(0.0,0.0,0.0));
#39=DIRECTION('',(0.0,0.0,1.0));
#40=DIRECTION('',(1.0,0.0,0.0));
#41=SHAPE_REPRESENTATION('',(#37),#36);
#42=PRODUCT_DEFINITION_SHAPE('','',#12);
#43=SHAPE_DEFINITION_REPRESENTATION(#42,#41);
#44=CARTESIAN_POINT('',(-5.487198795180735,43.298719879518082,-0.500000000000000));
#45=DIRECTION('',(0.0,0.0,1.0));
#46=DIRECTION('',(1.0,0.0,0.0));
#47=AXIS2_PLACEMENT_3D('',#44,#45,#46);
#48=PLANE('',#47);
#49=CARTESIAN_POINT('',(5.500000000000000,0.0,-0.500000000000000));
#50=VERTEX_POINT('',#49);
#51=CARTESIAN_POINT('',(5.499999999999998,52.700000000000003,-0.500000000000000));
#52=VERTEX_POINT('',#51);
#53=CARTESIAN_POINT('',(5.500000000000000,0.0,-0.500000000000000));
#54=DIRECTION('',(0.0,1.0,0.0));
#55=VECTOR('',#54,52.700000000000003);
#56=LINE('',#53,#55);
#57=EDGE_CURVE('',#50,#52,#56,.T.);
#58=ORIENTED_EDGE('',*,*,#57,.F.);
#59=CARTESIAN_POINT('',(0.0,0.0,-0.500000000000000));
#60=VERTEX_POINT('',#59);
#61=CARTESIAN_POINT('',(0.0,0.0,-0.500000000000000));
#62=DIRECTION('',(1.0,0.0,0.0));
#63=VECTOR('',#62,5.500000000000000);
#64=LINE('',#61,#63);
#65=EDGE_CURVE('',#60,#50,#64,.T.);
#66=ORIENTED_EDGE('',*,*,#65,.F.);
#67=CARTESIAN_POINT('',(0.0,52.700000000000003,-0.500000000000000));
#68=VERTEX_POINT('',#67);
#69=CARTESIAN_POINT('',(0.0,52.700000000000003,-0.500000000000000));
#70=DIRECTION('',(0.0,-1.0,0.0));
#71=VECTOR('',#70,52.700000000000003);
#72=LINE('',#69,#71);
#73=EDGE_CURVE('',#68,#60,#72,.T.);
#74=ORIENTED_EDGE('',*,*,#73,.F.);
#75=CARTESIAN_POINT('',(-35.800000000000026,52.699999999999996,-0.500000000000000));
#76=VERTEX_POINT('',#75);
#77=CARTESIAN_POINT('',(-35.800000000000026,52.699999999999996,-0.500000000000000));
#78=DIRECTION('',(1.0,0.0,0.0));
#79=VECTOR('',#78,35.800000000000026);
#80=LINE('',#77,#79);
#81=EDGE_CURVE('',#76,#68,#80,.T.);
#82=ORIENTED_EDGE('',*,*,#81,.F.);
#83=CARTESIAN_POINT('',(-35.800000000000026,65.099999999999994,-0.500000000000000));
#84=VERTEX_POINT('',#83);
#85=CARTESIAN_POINT('',(-35.800000000000026,65.099999999999994,-0.500000000000000));
#86=DIRECTION('',(0.0,-1.0,0.0));
#87=VECTOR('',#86,12.399999999999999);
#88=LINE('',#85,#87);
#89=EDGE_CURVE('',#84,#76,#88,.T.);
#90=ORIENTED_EDGE('',*,*,#89,.F.);
#91=CARTESIAN_POINT('',(-25.800000000000026,65.099999999999994,-0.500000000000000));
#92=VERTEX_POINT('',#91);
#93=CARTESIAN_POINT('',(-25.800000000000026,65.099999999999994,-0.500000000000000));
#94=DIRECTION('',(-1.0,0.0,0.0));
#95=VECTOR('',#94,10.0);
#96=LINE('',#93,#95);
#97=EDGE_CURVE('',#92,#84,#96,.T.);
#98=ORIENTED_EDGE('',*,*,#97,.F.);
#99=CARTESIAN_POINT('',(-25.800000000000026,60.700000000000003,-0.500000000000000));
#100=VERTEX_POINT('',#99);
#101=CARTESIAN_POINT('',(-25.800000000000026,60.700000000000003,-0.500000000000000));
#102=DIRECTION('',(0.0,1.0,0.0));
#103=VECTOR('',#102,4.399999999999992);
#104=LINE('',#101,#103);
#105=EDGE_CURVE('',#100,#92,#104,.T.);
#106=ORIENTED_EDGE('',*,*,#105,.F.);
#107=CARTESIAN_POINT('',(-33.500000000000021,60.699999999999996,-0.500000000000000));
#108=VERTEX_POINT('',#107);
#109=CARTESIAN_POINT('',(-33.500000000000021,60.699999999999996,-0.500000000000000));
#110=DIRECTION('',(1.0,0.0,0.0));
#111=VECTOR('',#110,7.699999999999996);
#112=LINE('',#109,#111);
#113=EDGE_CURVE('',#108,#100,#112,.T.);
#114=ORIENTED_EDGE('',*,*,#113,.F.);
#115=CARTESIAN_POINT('',(-33.500000000000021,56.700000000000003,-0.500000000000000));
#116=VERTEX_POINT('',#115);
#117=CARTESIAN_POINT('',(-33.500000000000021,56.700000000000003,-0.500000000000000));
#118=DIRECTION('',(0.0,1.0,0.0));
#119=VECTOR('',#118,3.999999999999993);
#120=LINE('',#117,#119);
#121=EDGE_CURVE('',#116,#108,#120,.T.);
#122=ORIENTED_EDGE('',*,*,#121,.F.);
#123=CARTESIAN_POINT('',(24.199999999999985,56.700000000000017,-0.500000000000000));
#124=VERTEX_POINT('',#123);
#125=CARTESIAN_POINT('',(24.199999999999985,56.700000000000017,-0.500000000000000));
#126=DIRECTION('',(-1.0,0.0,0.0));
#127=VECTOR('',#126,57.700000000000003);
#128=LINE('',#125,#127);
#129=EDGE_CURVE('',#124,#116,#128,.T.);
#130=ORIENTED_EDGE('',*,*,#129,.F.);
#131=CARTESIAN_POINT('',(24.199999999999982,52.700000000000017,-0.500000000000000));
#132=VERTEX_POINT('',#131);
#133=CARTESIAN_POINT('',(24.199999999999982,52.700000000000017,-0.500000000000000));
#134=DIRECTION('',(0.0,1.0,0.0));
#135=VECTOR('',#134,4.0);
#136=LINE('',#133,#135);
#137=EDGE_CURVE('',#132,#124,#136,.T.);
#138=ORIENTED_EDGE('',*,*,#137,.F.);
#139=CARTESIAN_POINT('',(5.499999999999998,52.700000000000003,-0.500000000000000));
#140=DIRECTION('',(1.0,0.0,0.0));
#141=VECTOR('',#140,18.699999999999982);
#142=LINE('',#139,#141);
#143=EDGE_CURVE('',#52,#132,#142,.T.);
#144=ORIENTED_EDGE('',*,*,#143,.F.);
#145=EDGE_LOOP('',(#58,#66,#74,#82,#90,#98,#106,#114,#122,#130,#138,#144));
#146=FACE_OUTER_BOUND('',#145,.T.);
#147=ADVANCED_FACE('',(#146),#48,.F.);
#148=CARTESIAN_POINT('',(0.0,0.0,0.0));
#149=DIRECTION('',(-1.0,0.0,0.0));
#150=DIRECTION('',(0.0,0.0,1.0));
#151=AXIS2_PLACEMENT_3D('',#148,#149,#150);
#152=PLANE('',#151);
#153=CARTESIAN_POINT('',(0.0,0.0,0.500000000000000));
#154=VERTEX_POINT('',#153);
#155=CARTESIAN_POINT('',(0.0,52.700000000000003,0.500000000000000));
#156=VERTEX_POINT('',#155);
#157=CARTESIAN_POINT('',(0.0,0.0,0.500000000000000));
#158=DIRECTION('',(0.0,1.0,0.0));
#159=VECTOR('',#158,52.700000000000003);
#160=LINE('',#157,#159);
#161=EDGE_CURVE('',#154,#156,#160,.T.);
#162=ORIENTED_EDGE('',*,*,#161,.T.);
#163=CARTESIAN_POINT('',(0.0,52.700000000000003,-0.500000000000000));
#164=DIRECTION('',(0.0,0.0,1.0));
#165=VECTOR('',#164,1.0);
#166=LINE('',#163,#165);
#167=EDGE_CURVE('',#68,#156,#166,.T.);
#168=ORIENTED_EDGE('',*,*,#167,.F.);
#169=ORIENTED_EDGE('',*,*,#73,.T.);
#170=CARTESIAN_POINT('',(0.0,0.0,0.500000000000000));
#171=DIRECTION('',(0.0,0.0,-1.0));
#172=VECTOR('',#171,1.0);
#173=LINE('',#170,#172);
#174=EDGE_CURVE('',#154,#60,#173,.T.);
#175=ORIENTED_EDGE('',*,*,#174,.F.);
#176=EDGE_LOOP('',(#162,#168,#169,#175));
#177=FACE_OUTER_BOUND('',#176,.T.);
#178=ADVANCED_FACE('',(#177),#152,.T.);
#179=CARTESIAN_POINT('',(0.0,52.700000000000003,0.0));
#180=DIRECTION('',(0.0,-1.0,0.0));
#181=DIRECTION('',(0.0,0.0,-1.0));
#182=AXIS2_PLACEMENT_3D('',#179,#180,#181);
#183=PLANE('',#182);
#184=CARTESIAN_POINT('',(-35.800000000000026,52.699999999999996,0.500000000000000));
#185=VERTEX_POINT('',#184);
#186=CARTESIAN_POINT('',(0.0,52.700000000000003,0.500000000000000));
#187=DIRECTION('',(-1.0,0.0,0.0));
#188=VECTOR('',#187,35.800000000000026);
#189=LINE('',#186,#188);
#190=EDGE_CURVE('',#156,#185,#189,.T.);
#191=ORIENTED_EDGE('',*,*,#190,.T.);
#192=CARTESIAN_POINT('',(-35.800000000000026,52.699999999999996,-0.500000000000000));
#193=DIRECTION('',(0.0,0.0,1.0));
#194=VECTOR('',#193,1.0);
#195=LINE('',#192,#194);
#196=EDGE_CURVE('',#76,#185,#195,.T.);
#197=ORIENTED_EDGE('',*,*,#196,.F.);
#198=ORIENTED_EDGE('',*,*,#81,.T.);
#199=ORIENTED_EDGE('',*,*,#167,.T.);
#200=EDGE_LOOP('',(#191,#197,#198,#199));
#201=FACE_OUTER_BOUND('',#200,.T.);
#202=ADVANCED_FACE('',(#201),#183,.T.);
#203=CARTESIAN_POINT('',(-35.800000000000026,52.699999999999996,0.0));
#204=DIRECTION('',(-1.0,0.0,0.0));
#205=DIRECTION('',(0.0,0.0,1.0));
#206=AXIS2_PLACEMENT_3D('',#203,#204,#205);
#207=PLANE('',#206);
#208=CARTESIAN_POINT('',(-35.800000000000026,65.099999999999994,0.500000000000000));
#209=VERTEX_POINT('',#208);
#210=CARTESIAN_POINT('',(-35.800000000000026,52.699999999999996,0.500000000000000));
#211=DIRECTION('',(0.0,1.0,0.0));
#212=VECTOR('',#211,12.399999999999999);
#213=LINE('',#210,#212);
#214=EDGE_CURVE('',#185,#209,#213,.T.);
#215=ORIENTED_EDGE('',*,*,#214,.T.);
#216=CARTESIAN_POINT('',(-35.800000000000026,65.099999999999994,-0.500000000000000));
#217=DIRECTION('',(0.0,0.0,1.0));
#218=VECTOR('',#217,1.0);
#219=LINE('',#216,#218);
#220=EDGE_CURVE('',#84,#209,#219,.T.);
#221=ORIENTED_EDGE('',*,*,#220,.F.);
#222=ORIENTED_EDGE('',*,*,#89,.T.);
#223=ORIENTED_EDGE('',*,*,#196,.T.);
#224=EDGE_LOOP('',(#215,#221,#222,#223));
#225=FACE_OUTER_BOUND('',#224,.T.);
#226=ADVANCED_FACE('',(#225),#207,.T.);
#227=CARTESIAN_POINT('',(-35.800000000000026,65.099999999999994,0.0));
#228=DIRECTION('',(0.0,1.0,0.0));
#229=DIRECTION('',(0.0,0.0,1.0));
#230=AXIS2_PLACEMENT_3D('',#227,#228,#229);
#231=PLANE('',#230);
#232=CARTESIAN_POINT('',(-25.800000000000026,65.099999999999994,0.500000000000000));
#233=VERTEX_POINT('',#232);
#234=CARTESIAN_POINT('',(-35.800000000000026,65.099999999999994,0.500000000000000));
#235=DIRECTION('',(1.0,0.0,0.0));
#236=VECTOR('',#235,10.0);
#237=LINE('',#234,#236);
#238=EDGE_CURVE('',#209,#233,#237,.T.);
#239=ORIENTED_EDGE('',*,*,#238,.T.);
#240=CARTESIAN_POINT('',(-25.800000000000026,65.099999999999994,-0.500000000000000));
#241=DIRECTION('',(0.0,0.0,1.0));
#242=VECTOR('',#241,1.0);
#243=LINE('',#240,#242);
#244=EDGE_CURVE('',#92,#233,#243,.T.);
#245=ORIENTED_EDGE('',*,*,#244,.F.);
#246=ORIENTED_EDGE('',*,*,#97,.T.);
#247=ORIENTED_EDGE('',*,*,#220,.T.);
#248=EDGE_LOOP('',(#239,#245,#246,#247));
#249=FACE_OUTER_BOUND('',#248,.T.);
#250=ADVANCED_FACE('',(#249),#231,.T.);
#251=CARTESIAN_POINT('',(-25.800000000000026,65.099999999999994,0.0));
#252=DIRECTION('',(1.0,0.0,0.0));
#253=DIRECTION('',(0.0,0.0,-1.0));
#254=AXIS2_PLACEMENT_3D('',#251,#252,#253);
#255=PLANE('',#254);
#256=CARTESIAN_POINT('',(-25.800000000000026,60.700000000000003,0.500000000000000));
#257=VERTEX_POINT('',#256);
#258=CARTESIAN_POINT('',(-25.800000000000026,65.099999999999994,0.500000000000000));
#259=DIRECTION('',(0.0,-1.0,0.0));
#260=VECTOR('',#259,4.399999999999992);
#261=LINE('',#258,#260);
#262=EDGE_CURVE('',#233,#257,#261,.T.);
#263=ORIENTED_EDGE('',*,*,#262,.T.);
#264=CARTESIAN_POINT('',(-25.800000000000026,60.700000000000003,-0.500000000000000));
#265=DIRECTION('',(0.0,0.0,1.0));
#266=VECTOR('',#265,1.0);
#267=LINE('',#264,#266);
#268=EDGE_CURVE('',#100,#257,#267,.T.);
#269=ORIENTED_EDGE('',*,*,#268,.F.);
#270=ORIENTED_EDGE('',*,*,#105,.T.);
#271=ORIENTED_EDGE('',*,*,#244,.T.);
#272=EDGE_LOOP('',(#263,#269,#270,#271));
#273=FACE_OUTER_BOUND('',#272,.T.);
#274=ADVANCED_FACE('',(#273),#255,.T.);
#275=CARTESIAN_POINT('',(-25.800000000000026,60.700000000000003,0.0));
#276=DIRECTION('',(0.0,-1.0,0.0));
#277=DIRECTION('',(0.0,0.0,-1.0));
#278=AXIS2_PLACEMENT_3D('',#275,#276,#277);
#279=PLANE('',#278);
#280=CARTESIAN_POINT('',(-33.500000000000021,60.699999999999996,0.500000000000000));
#281=VERTEX_POINT('',#280);
#282=CARTESIAN_POINT('',(-25.800000000000026,60.700000000000003,0.500000000000000));
#283=DIRECTION('',(-1.0,0.0,0.0));
#284=VECTOR('',#283,7.699999999999996);
#285=LINE('',#282,#284);
#286=EDGE_CURVE('',#257,#281,#285,.T.);
#287=ORIENTED_EDGE('',*,*,#286,.T.);
#288=CARTESIAN_POINT('',(-33.500000000000021,60.699999999999996,-0.500000000000000));
#289=DIRECTION('',(0.0,0.0,1.0));
#290=VECTOR('',#289,1.0);
#291=LINE('',#288,#290);
#292=EDGE_CURVE('',#108,#281,#291,.T.);
#293=ORIENTED_EDGE('',*,*,#292,.F.);
#294=ORIENTED_EDGE('',*,*,#113,.T.);
#295=ORIENTED_EDGE('',*,*,#268,.T.);
#296=EDGE_LOOP('',(#287,#293,#294,#295));
#297=FACE_OUTER_BOUND('',#296,.T.);
#298=ADVANCED_FACE('',(#297),#279,.T.);
#299=CARTESIAN_POINT('',(-33.500000000000021,60.699999999999996,0.0));
#300=DIRECTION('',(1.0,0.0,0.0));
#301=DIRECTION('',(0.0,0.0,-1.0));
#302=AXIS2_PLACEMENT_3D('',#299,#300,#301);
#303=PLANE('',#302);
#304=CARTESIAN_POINT('',(-33.500000000000021,56.700000000000003,0.500000000000000));
#305=VERTEX_POINT('',#304);
#306=CARTESIAN_POINT('',(-33.500000000000021,60.699999999999996,0.500000000000000));
#307=DIRECTION('',(0.0,-1.0,0.0));
#308=VECTOR('',#307,3.999999999999993);
#309=LINE('',#306,#308);
#310=EDGE_CURVE('',#281,#305,#309,.T.);
#311=ORIENTED_EDGE('',*,*,#310,.T.);
#312=CARTESIAN_POINT('',(-33.500000000000021,56.700000000000003,-0.500000000000000));
#313=DIRECTION('',(0.0,0.0,1.0));
#314=VECTOR('',#313,1.0);
#315=LINE('',#312,#314);
#316=EDGE_CURVE('',#116,#305,#315,.T.);
#317=ORIENTED_EDGE('',*,*,#316,.F.);
#318=ORIENTED_EDGE('',*,*,#121,.T.);
#319=ORIENTED_EDGE('',*,*,#292,.T.);
#320=EDGE_LOOP('',(#311,#317,#318,#319));
#321=FACE_OUTER_BOUND('',#320,.T.);
#322=ADVANCED_FACE('',(#321),#303,.T.);
#323=CARTESIAN_POINT('',(-33.500000000000021,56.700000000000003,0.0));
#324=DIRECTION('',(0.0,1.0,0.0));
#325=DIRECTION('',(0.0,0.0,1.0));
#326=AXIS2_PLACEMENT_3D('',#323,#324,#325);
#327=PLANE('',#326);
#328=CARTESIAN_POINT('',(24.199999999999985,56.700000000000017,0.500000000000000));
#329=VERTEX_POINT('',#328);
#330=CARTESIAN_POINT('',(-33.500000000000021,56.700000000000003,0.500000000000000));
#331=DIRECTION('',(1.0,0.0,0.0));
#332=VECTOR('',#331,57.700000000000003);
#333=LINE('',#330,#332);
#334=EDGE_CURVE('',#305,#329,#333,.T.);
#335=ORIENTED_EDGE('',*,*,#334,.T.);
#336=CARTESIAN_POINT('',(24.199999999999985,56.700000000000017,-0.500000000000000));
#337=DIRECTION('',(0.0,0.0,1.0));
#338=VECTOR('',#337,1.0);
#339=LINE('',#336,#338);
#340=EDGE_CURVE('',#124,#329,#339,.T.);
#341=ORIENTED_EDGE('',*,*,#340,.F.);
#342=ORIENTED_EDGE('',*,*,#129,.T.);
#343=ORIENTED_EDGE('',*,*,#316,.T.);
#344=EDGE_LOOP('',(#335,#341,#342,#343));
#345=FACE_OUTER_BOUND('',#344,.T.);
#346=ADVANCED_FACE('',(#345),#327,.T.);
#347=CARTESIAN_POINT('',(24.199999999999985,56.700000000000017,0.0));
#348=DIRECTION('',(1.0,0.0,0.0));
#349=DIRECTION('',(0.0,0.0,-1.0));
#350=AXIS2_PLACEMENT_3D('',#347,#348,#349);
#351=PLANE('',#350);
#352=CARTESIAN_POINT('',(24.199999999999982,52.700000000000017,0.500000000000000));
#353=VERTEX_POINT('',#352);
#354=CARTESIAN_POINT('',(24.199999999999985,56.700000000000017,0.500000000000000));
#355=DIRECTION('',(0.0,-1.0,0.0));
#356=VECTOR('',#355,4.0);
#357=LINE('',#354,#356);
#358=EDGE_CURVE('',#329,#353,#357,.T.);
#359=ORIENTED_EDGE('',*,*,#358,.T.);
#360=CARTESIAN_POINT('',(24.199999999999982,52.700000000000017,-0.500000000000000));
#361=DIRECTION('',(0.0,0.0,1.0));
#362=VECTOR('',#361,1.0);
#363=LINE('',#360,#362);
#364=EDGE_CURVE('',#132,#353,#363,.T.);
#365=ORIENTED_EDGE('',*,*,#364,.F.);
#366=ORIENTED_EDGE('',*,*,#137,.T.);
#367=ORIENTED_EDGE('',*,*,#340,.T.);
#368=EDGE_LOOP('',(#359,#365,#366,#367));
#369=FACE_OUTER_BOUND('',#368,.T.);
#370=ADVANCED_FACE('',(#369),#351,.T.);
#371=CARTESIAN_POINT('',(24.199999999999982,52.700000000000017,0.0));
#372=DIRECTION('',(0.0,-1.0,0.0));
#373=DIRECTION('',(0.0,0.0,-1.0));
#374=AXIS2_PLACEMENT_3D('',#371,#372,#373);
#375=PLANE('',#374);
#376=CARTESIAN_POINT('',(5.499999999999998,52.700000000000003,0.500000000000000));
#377=VERTEX_POINT('',#376);
#378=CARTESIAN_POINT('',(24.199999999999982,52.700000000000017,0.500000000000000));
#379=DIRECTION('',(-1.0,0.0,0.0));
#380=VECTOR('',#379,18.699999999999982);
#381=LINE('',#378,#380);
#382=EDGE_CURVE('',#353,#377,#381,.T.);
#383=ORIENTED_EDGE('',*,*,#382,.T.);
#384=CARTESIAN_POINT('',(5.499999999999998,52.700000000000003,-0.500000000000000));
#385=DIRECTION('',(0.0,0.0,1.0));
#386=VECTOR('',#385,1.0);
#387=LINE('',#384,#386);
#388=EDGE_CURVE('',#52,#377,#387,.T.);
#389=ORIENTED_EDGE('',*,*,#388,.F.);
#390=ORIENTED_EDGE('',*,*,#143,.T.);
#391=ORIENTED_EDGE('',*,*,#364,.T.);
#392=EDGE_LOOP('',(#383,#389,#390,#391));
#393=FACE_OUTER_BOUND('',#392,.T.);
#394=ADVANCED_FACE('',(#393),#375,.T.);
#395=CARTESIAN_POINT('',(5.499999999999998,52.700000000000003,0.0));
#396=DIRECTION('',(1.0,0.0,0.0));
#397=DIRECTION('',(0.0,0.0,-1.0));
#398=AXIS2_PLACEMENT_3D('',#395,#396,#397);
#399=PLANE('',#398);
#400=CARTESIAN_POINT('',(5.500000000000000,0.0,0.500000000000000));
#401=VERTEX_POINT('',#400);
#402=CARTESIAN_POINT('',(5.499999999999998,52.700000000000003,0.500000000000000));
#403=DIRECTION('',(0.0,-1.0,0.0));
#404=VECTOR('',#403,52.700000000000003);
#405=LINE('',#402,#404);
#406=EDGE_CURVE('',#377,#401,#405,.T.);
#407=ORIENTED_EDGE('',*,*,#406,.T.);
#408=CARTESIAN_POINT('',(5.500000000000000,0.0,-0.500000000000000));
#409=DIRECTION('',(0.0,0.0,1.0));
#410=VECTOR('',#409,1.0);
#411=LINE('',#408,#410);
#412=EDGE_CURVE('',#50,#401,#411,.T.);
#413=ORIENTED_EDGE('',*,*,#412,.F.);
#414=ORIENTED_EDGE('',*,*,#57,.T.);
#415=ORIENTED_EDGE('',*,*,#388,.T.);
#416=EDGE_LOOP('',(#407,#413,#414,#415));
#417=FACE_OUTER_BOUND('',#416,.T.);
#418=ADVANCED_FACE('',(#417),#399,.T.);
#419=CARTESIAN_POINT('',(5.500000000000000,0.0,0.0));
#420=DIRECTION('',(0.0,-1.0,0.0));
#421=DIRECTION('',(0.0,0.0,-1.0));
#422=AXIS2_PLACEMENT_3D('',#419,#420,#421);
#423=PLANE('',#422);
#424=CARTESIAN_POINT('',(5.500000000000000,0.0,0.500000000000000));
#425=DIRECTION('',(-1.0,0.0,0.0));
#426=VECTOR('',#425,5.500000000000000);
#427=LINE('',#424,#426);
#428=EDGE_CURVE('',#401,#154,#427,.T.);
#429=ORIENTED_EDGE('',*,*,#428,.T.);
#430=ORIENTED_EDGE('',*,*,#174,.T.);
#431=ORIENTED_EDGE('',*,*,#65,.T.);
#432=ORIENTED_EDGE('',*,*,#412,.T.);
#433=EDGE_LOOP('',(#429,#430,#431,#432));
#434=FACE_OUTER_BOUND('',#433,.T.);
#435=ADVANCED_FACE('',(#434),#423,.T.);
#436=CARTESIAN_POINT('',(-5.487198795180736,43.298719879518089,0.500000000000000));
#437=DIRECTION('',(0.0,0.0,1.0));
#438=DIRECTION('',(1.0,0.0,0.0));
#439=AXIS2_PLACEMENT_3D('',#436,#437,#438);
#440=PLANE('',#439);
#441=ORIENTED_EDGE('',*,*,#161,.F.);
#442=ORIENTED_EDGE('',*,*,#428,.F.);
#443=ORIENTED_EDGE('',*,*,#406,.F.);
#444=ORIENTED_EDGE('',*,*,#382,.F.);
#445=ORIENTED_EDGE('',*,*,#358,.F.);
#446=ORIENTED_EDGE('',*,*,#334,.F.);
#447=ORIENTED_EDGE('',*,*,#310,.F.);
#448=ORIENTED_EDGE('',*,*,#286,.F.);
#449=ORIENTED_EDGE('',*,*,#262,.F.);
#450=ORIENTED_EDGE('',*,*,#238,.F.);
#451=ORIENTED_EDGE('',*,*,#214,.F.);
#452=ORIENTED_EDGE('',*,*,#190,.F.);
#453=EDGE_LOOP('',(#441,#442,#443,#444,#445,#446,#447,#448,#449,#450,#451,#452));
#454=FACE_OUTER_BOUND('',#453,.T.);
#455=ADVANCED_FACE('',(#454),#440,.T.);
#456=CLOSED_SHELL('',(#147,#178,#202,#226,#250,#274,#298,#322,#346,#370,#394,#418,#435,#455));
#457=MANIFOLD_SOLID_BREP('',#456);
#458=COLOUR_RGB('Metall-AL-6061 (gleichm.)',0.847058832645416,0.839215695858002,0.839215695858002);
#459=FILL_AREA_STYLE_COLOUR('Metall-AL-6061 (gleichm.)',#458);
#460=FILL_AREA_STYLE('Metall-AL-6061 (gleichm.)',(#459));
#461=SURFACE_STYLE_FILL_AREA(#460);
#462=SURFACE_SIDE_STYLE('Metall-AL-6061 (gleichm.)',(#461));
#463=SURFACE_STYLE_USAGE(.BOTH.,#462);
#464=PRESENTATION_STYLE_ASSIGNMENT((#463));
#465=STYLED_ITEM('',(#464),#457);
#466=MECHANICAL_DESIGN_GEOMETRIC_PRESENTATION_REPRESENTATION('',(#465),#36);
#467=ADVANCED_BREP_SHAPE_REPRESENTATION('ABSR',(#457),#36);
#468=SHAPE_REPRESENTATION_RELATIONSHIP('SRR','None',#467,#41);
ENDSEC;
END-ISO-10303-21;
