                                                                        S      1
,,22HZuganker G 25 M6 38 mm,9HSV7108V_A,22HAutodesk Inventor 2015,7HunknG      1
own,32,38,7,99,15,,1.,2,2HMM,1,0.08,15H20151127.092132,0.01,10000.,9HM. G      2
 Boeke,,11,0,;                                                          G      3
     186       1                                                00000000D      1
     186             -73       1       0                               0D      2
     514       2                                                00010000D      3
     514                       1       1                               0D      4
     510       3                                                00010000D      5
     510             -73       1       1                               0D      6
     510       4                                                00010000D      7
     510             -73       1       1                               0D      8
     510       5                                                00010000D      9
     510             -73       1       1                               0D     10
     510       6                                                00010000D     11
     510             -73       1       1                               0D     12
     510       7                                                00010000D     13
     510             -73       1       1                               0D     14
     510       8                                                00010000D     15
     510             -73       1       1                               0D     16
     508       9                                                00010000D     17
     508                       1       1                               0D     18
     508      10                                                00010000D     19
     508                       2       1                               0D     20
     508      12                                                00010000D     21
     508                       1       1                               0D     22
     508      13                                                00010000D     23
     508                       1       1                               0D     24
     508      14                                                00010000D     25
     508                       1       1                               0D     26
     508      15                                                00010000D     27
     508                       1       1                               0D     28
     508      16                                                00010000D     29
     508                       1       1                               0D     30
     126      17                                                00010000D     31
     126       0               9       0                               0D     32
     126      26                                                00010000D     33
     126       0               3       0                               0D     34
     126      29                                                00010000D     35
     126       0               5       0                               0D     36
     126      34                                                00010000D     37
     126       0               5       0                               0D     38
     126      39                                                00010000D     39
     126       0               3       0                               0D     40
     126      42                                                00010000D     41
     126       0               5       0                               0D     42
     126      47                                                00010000D     43
     126       0               5       0                               0D     44
     126      52                                                00010000D     45
     126       0              31       0                               0D     46
     126      83                                                00010000D     47
     126       0              32       0                               0D     48
     126     115                                                00010000D     49
     126       0               4       0                               0D     50
     126     119                                                00010000D     51
     126       0               9       0                               0D     52
     126     128                                                00010000D     53
     126       0               3       0                               0D     54
     128     131                                                00010000D     55
     128       0     -73      13       0                               0D     56
     128     144                                                00010000D     57
     128       0     -73      13       0                               0D     58
     128     157                                                00010000D     59
     128       0     -73       4       0                               0D     60
     128     161                                                00010000D     61
     128       0     -73      15       0                               0D     62
     128     176                                                00010000D     63
     128       0     -73       3       0                               0D     64
     128     179                                                00010000D     65
     128       0     -73      16       0                               0D     66
     502     195                                                00010000D     67
     502                       3       1                               0D     68
     504     198                                                00010001D     69
     504                       3       1                               0D     70
     406     201                                                00000000D     71
     406                       1      15                               0D     72
     314     202                                                00000200D     73
     314                       1       0                               0D     74
186,3,1,0,0,1,71;                                                      1P      1
514,6,5,1,7,1,9,1,11,1,13,1,15,1;                                      3P      2
510,55,1,1,17;                                                         5P      3
510,57,2,1,19,21;                                                      7P      4
510,59,1,1,23;                                                         9P      5
510,61,1,1,25;                                                        11P      6
510,63,1,1,27;                                                        13P      7
510,65,1,1,29;                                                        15P      8
508,5,0,69,1,1,0,0,69,2,1,0,0,69,3,1,0,0,69,4,1,0,0,69,2,0,0;         17P      9
508,6,0,69,3,0,0,0,69,4,0,0,0,69,5,1,0,0,69,6,0,0,0,69,7,0,0,0,       19P     10
69,5,0,0;                                                             19P     11
508,2,0,69,8,1,0,0,69,9,1,0;                                          21P     12
508,1,0,69,1,0,0;                                                     23P     13
508,5,0,69,6,1,0,0,69,7,1,0,0,69,10,1,0,0,69,11,1,0,0,69,10,0,0;      25P     14
508,1,0,69,11,0,0;                                                    27P     15
508,4,0,69,12,1,0,0,69,9,0,0,0,69,8,0,0,0,69,12,0,0;                  29P     16
126,8,2,0,1,0,0,-3.14159265358979,-3.14159265358979,                  31P     17
-3.14159265358979,-1.5707963267949,-1.5707963267949,0.,0.,            31P     18
1.5707963267949,1.5707963267949,3.14159265358979,                     31P     19
3.14159265358979,3.14159265358979,1.,0.707106781186547,1.,            31P     20
0.707106781186547,1.,0.707106781186547,1.,0.707106781186547,1.,       31P     21
-2.44929359829471D-16,2.,-38.,-2.,2.,-38.,-2.,                        31P     22
-1.22464679914735D-16,-38.,-2.,-2.,-38.,0.,-2.,-38.,2.,-2.,-38.,      31P     23
2.,-1.22464679914735D-16,-38.,2.,2.,-38.,2.44929359829471D-16,        31P     24
2.,-38.,-3.14159265358979,3.14159265358979,0.,0.,0.;                  31P     25
126,1,1,0,0,1,0,-0.282842712474619,-0.282842712474619,                33P     26
0.282842712474618,0.282842712474618,1.,1.,0.,2.,-38.,0.,3.,-37.,      33P     27
-0.282842712474619,0.282842712474618,0.,0.,0.;                        33P     28
126,4,2,0,0,0,0,-3.14159265358979,-3.14159265358979,                  35P     29
-3.14159265358979,-1.5707963267949,-1.5707963267949,0.,0.,0.,1.,      35P     30
0.707106781186548,1.,0.707106781186547,1.,3.67394039744206D-16,       35P     31
3.,-37.,3.,3.,-37.,3.,-1.83697019872103D-16,-37.,3.,-3.,-37.,0.,      35P     32
-3.,-37.,-3.14159265358979,0.,0.,0.,0.;                               35P     33
126,4,2,0,0,0,0,0.,0.,0.,1.5707963267949,1.5707963267949,             37P     34
3.14159265358979,3.14159265358979,3.14159265358979,1.,                37P     35
0.707106781186547,1.,0.707106781186548,1.,0.,-3.,-37.,-3.,-3.,        37P     36
-37.,-3.,-1.83697019872103D-16,-37.,-3.,3.,-37.,                      37P     37
-3.67394039744206D-16,3.,-37.,0.,3.14159265358979,0.,0.,0.;           37P     38
126,1,1,0,0,1,0,-2.16666666666666,-2.16666666666666,                  39P     39
9.83333333333333,9.83333333333333,1.,1.,0.,-3.,-37.,0.,-3.,-1.,       39P     40
-2.16666666666666,9.83333333333333,0.,0.,0.;                          39P     41
126,4,2,0,0,0,0,-3.14159265358979,-3.14159265358979,                  41P     42
-3.14159265358979,-1.5707963267949,-1.5707963267949,0.,0.,0.,1.,      41P     43
0.707106781186548,1.,0.707106781186547,1.,-3.67394039744206D-16,      41P     44
3.,-1.,-3.,3.,-1.,-3.,-1.83697019872103D-16,-1.,-3.,-3.,-1.,0.,       41P     45
-3.,-1.,-3.14159265358979,0.,0.,0.,0.;                                41P     46
126,4,2,0,0,0,0,0.,0.,0.,1.5707963267949,1.5707963267949,             43P     47
3.14159265358979,3.14159265358979,3.14159265358979,1.,                43P     48
0.707106781186547,1.,0.707106781186548,1.,0.,-3.,-1.,3.,-3.,-1.,      43P     49
3.,-1.83697019872103D-16,-1.,3.,3.,-1.,3.67394039744206D-16,3.,       43P     50
-1.,0.,3.14159265358979,0.,0.,0.;                                     43P     51
126,21,3,0,0,1,0,0.39551667188961,0.39551667188961,                   45P     52
0.39551667188961,0.39551667188961,0.443345221252031,                  45P     53
0.443345221252031,0.491173770614452,0.491173770614452,                45P     54
0.600111415826062,0.600111415826062,0.695572379802641,                45P     55
0.695572379802641,0.79103334377922,0.79103334377922,                  45P     56
0.877736510604858,0.877736510604858,0.964439677430495,                45P     57
0.964439677430495,1.08221351838488,1.08221351838488,                  45P     58
1.13428424896629,1.13428424896629,1.1863549795477,                    45P     59
1.1863549795477,1.1863549795477,1.1863549795477,1.,1.,1.,1.,1.,       45P     60
1.,1.,1.,1.,1.,1.,1.,1.,1.,1.,1.,1.,1.,1.,1.,1.,1.,3.,                45P     61
6.93889390390723D-17,-10.,3.,-0.159428497874737,-10.,                 45P     62
2.98623938040196,-0.329790567800089,-9.97266527883904,                45P     63
2.93316949059378,-0.650310762663814,-9.8650399864211,                 45P     64
2.89425039099578,-0.800698945854498,-9.7852432047771,                 45P     65
2.75902396358048,-1.21661442761566,-9.49925231440914,                 45P     66
2.61725884820991,-1.4805028021205,-9.18279671472228,                  45P     67
2.40575364902669,-1.80126306305298,-8.6201358937286,                  45P     68
2.30465232268267,-1.92357344740932,-8.31086904978387,                 45P     69
2.16105766868437,-2.08359940548936,-7.66020463073143,                 45P     70
2.12132034355964,-2.12132034355964,-7.31820321325527,                 45P     71
2.12132034355964,-2.12132034355964,-6.71098944391454,                 45P     72
2.15396424698002,-2.09010818059243,-6.39902975545392,                 45P     73
2.27548789245943,-1.95710737388662,-5.80094454717763,                 45P     74
2.36234978142069,-1.85528532275239,-5.51441822279813,                 45P     75
2.56785690659066,-1.5646543591727,-4.93315629563877,                  45P     76
2.7237824684424,-1.29752891780373,-4.57782256582265,                  45P     77
2.87703073736304,-0.861826183532053,-4.25040494144009,                45P     78
2.92195101490218,-0.701950280704189,-4.15788319096968,                45P     79
2.98368627288975,-0.357978124916647,-4.03237468481201,3.,             45P     80
-0.173569101938038,-4.,3.,0.,-4.,0.39551667188961,                    45P     81
1.1863549795477,0.,0.,0.;                                             45P     82
126,22,3,0,0,1,0,1.1863549795477,1.1863549795477,                     47P     83
1.1863549795477,1.1863549795477,1.23842571012911,                     47P     84
1.23842571012911,1.29049644071053,1.29049644071053,                   47P     85
1.40827028166491,1.40827028166491,1.49497344849055,                   47P     86
1.49497344849055,1.58167661531619,1.58167661531619,                   47P     87
1.58167661531619,1.67713757929276,1.67713757929276,                   47P     88
1.77259854326934,1.77259854326934,1.88153618848095,                   47P     89
1.88153618848095,1.92936473784337,1.92936473784337,                   47P     90
1.9771932872058,1.9771932872058,1.9771932872058,1.9771932872058,      47P     91
1.,1.,1.,1.,1.,1.,1.,1.,1.,1.,1.,1.,1.,1.,1.,1.,1.,1.,1.,1.,1.,       47P     92
1.,1.,3.,0.,-4.,3.,0.173569101938039,-4.,2.98368627288975,            47P     93
0.357978124916647,-4.03237468481201,2.92195101490218,                 47P     94
0.70195028070419,-4.15788319096968,2.87703073736304,                  47P     95
0.861826183532054,-4.25040494144009,2.7237824684424,                  47P     96
1.29752891780373,-4.57782256582265,2.56785690659066,                  47P     97
1.5646543591727,-4.93315629563876,2.36234978142069,                   47P     98
1.85528532275239,-5.51441822279813,2.27548789245943,                  47P     99
1.95710737388662,-5.80094454717763,2.15396424698002,                  47P    100
2.09010818059243,-6.39902975545391,2.12132034355964,                  47P    101
2.12132034355964,-6.71098944391454,2.12132034355964,                  47P    102
2.12132034355964,-7.,2.12132034355964,2.12132034355964,               47P    103
-7.31820321325527,2.16105766868437,2.08359940548936,                  47P    104
-7.66020463073143,2.30465232268267,1.92357344740932,                  47P    105
-8.31086904978387,2.40575364902669,1.80126306305298,                  47P    106
-8.62013589372859,2.61725884820991,1.4805028021205,                   47P    107
-9.18279671472228,2.75902396358048,1.21661442761567,                  47P    108
-9.49925231440914,2.89425039099578,0.800698945854499,                 47P    109
-9.7852432047771,2.93316949059378,0.650310762663813,                  47P    110
-9.8650399864211,2.98623938040196,0.329790567800088,                  47P    111
-9.97266527883904,3.,0.159428497874736,-10.,3.,                       47P    112
-3.46944695195361D-17,-10.,1.1863549795477,1.9771932872058,0.,        47P    113
0.,0.;                                                                47P    114
126,1,1,0,0,1,0,-0.28284271247462,-0.28284271247462,                  49P    115
0.28284271247462,0.28284271247462,1.,1.,0.,3.,-1.,0.,2.,              49P    116
1.38777878078145D-16,-0.28284271247462,0.28284271247462,0.,0.,        49P    117
0.;                                                                   49P    118
126,8,2,0,1,0,0,-3.14159265358979,-3.14159265358979,                  51P    119
-3.14159265358979,-1.5707963267949,-1.5707963267949,0.,0.,            51P    120
1.5707963267949,1.5707963267949,3.14159265358979,                     51P    121
3.14159265358979,3.14159265358979,1.,0.707106781186547,1.,            51P    122
0.707106781186547,1.,0.707106781186547,1.,0.707106781186547,1.,       51P    123
2.4492935982947D-16,2.,0.,2.,2.,0.,2.,-1.22464679914735D-16,0.,       51P    124
2.,-2.,0.,0.,-2.,0.,-2.,-2.,0.,-2.,-1.22464679914735D-16,0.,-2.,      51P    125
2.,0.,-2.4492935982947D-16,2.,0.,-3.14159265358979,                   51P    126
3.14159265358979,0.,0.,0.;                                            51P    127
126,1,1,0,0,1,0,-1.4142135623731,-1.4142135623731,                    53P    128
1.4142135623731,1.4142135623731,1.,1.,2.77555756156289D-16,0.,        53P    129
-7.,3.,0.,-10.,-1.4142135623731,1.4142135623731,0.,0.,0.;             53P    130
128,1,8,1,2,0,1,0,0,0,-0.282842712474618,-0.282842712474618,          55P    131
0.282842712474619,0.282842712474619,-3.14159265358979,                55P    132
-3.14159265358979,-3.14159265358979,-1.5707963267949,                 55P    133
-1.5707963267949,0.,0.,1.5707963267949,1.5707963267949,               55P    134
3.14159265358979,3.14159265358979,3.14159265358979,1.,1.,             55P    135
0.707106781186548,0.707106781186548,1.,1.,0.707106781186548,          55P    136
0.707106781186548,1.,1.,0.707106781186548,0.707106781186548,1.,       55P    137
1.,0.707106781186548,0.707106781186548,1.,1.,0.,2.,-38.,0.,3.,        55P    138
-37.,2.,2.,-38.,3.,3.,-37.,2.,0.,-38.,3.,0.,-37.,2.,-2.,-38.,3.,      55P    139
-3.,-37.,0.,-2.,-38.,0.,-3.,-37.,-2.,-2.,-38.,-3.,-3.,-37.,-2.,       55P    140
0.,-38.,-3.,0.,-37.,-2.,2.,-38.,-3.,3.,-37.,0.,2.,-38.,0.,3.,         55P    141
-37.,-0.282842712474618,0.282842712474619,-3.14159265358979,          55P    142
3.14159265358979;                                                     55P    143
128,1,8,1,2,0,1,0,0,0,-9.83333333333333,-9.83333333333333,            57P    144
2.16666666666666,2.16666666666666,-3.14159265358979,                  57P    145
-3.14159265358979,-3.14159265358979,-1.5707963267949,                 57P    146
-1.5707963267949,0.,0.,1.5707963267949,1.5707963267949,               57P    147
3.14159265358979,3.14159265358979,3.14159265358979,1.,1.,             57P    148
0.707106781186548,0.707106781186548,1.,1.,0.707106781186548,          57P    149
0.707106781186548,1.,1.,0.707106781186548,0.707106781186548,1.,       57P    150
1.,0.707106781186548,0.707106781186548,1.,1.,0.,-3.,-37.,0.,-3.,      57P    151
-1.,-3.,-3.,-37.,-3.,-3.,-1.,-3.,0.,-37.,-3.,0.,-1.,-3.,3.,-37.,      57P    152
-3.,3.,-1.,0.,3.,-37.,0.,3.,-1.,3.,3.,-37.,3.,3.,-1.,3.,0.,-37.,      57P    153
3.,0.,-1.,3.,-3.,-37.,3.,-3.,-1.,0.,-3.,-37.,0.,-3.,-1.,              57P    154
-9.83333333333333,2.16666666666666,-3.14159265358979,                 57P    155
3.14159265358979;                                                     57P    156
128,1,1,1,1,0,0,1,0,0,-0.2,-0.2,0.2,0.2,-0.35,-0.35,                  59P    157
0.0500000000000001,0.0500000000000001,1.,1.,1.,1.,2.,-2.,-38.,        59P    158
-2.,-2.,-38.,2.,2.,-38.,-2.,2.,-38.,-0.2,0.2,-0.35,                   59P    159
0.0500000000000001;                                                   59P    160
128,1,8,1,2,0,1,0,0,0,-0.28284271247462,-0.28284271247462,            61P    161
0.28284271247462,0.28284271247462,-3.14159265358979,                  61P    162
-3.14159265358979,-3.14159265358979,-1.5707963267949,                 61P    163
-1.5707963267949,0.,0.,1.5707963267949,1.5707963267949,               61P    164
3.14159265358979,3.14159265358979,3.14159265358979,1.,1.,             61P    165
0.707106781186548,0.707106781186548,1.,1.,0.707106781186548,          61P    166
0.707106781186548,1.,1.,0.707106781186548,0.707106781186548,1.,       61P    167
1.,0.707106781186548,0.707106781186548,1.,1.,0.,3.,-1.,0.,2.,         61P    168
1.38777878078145D-16,3.,3.,-1.,2.,2.,1.38777878078145D-16,3.,0.,      61P    169
-1.,2.,0.,1.38777878078145D-16,3.,-3.,-1.,2.,-2.,                     61P    170
1.38777878078145D-16,0.,-3.,-1.,0.,-2.,1.38777878078145D-16,-3.,      61P    171
-3.,-1.,-2.,-2.,1.38777878078145D-16,-3.,0.,-1.,-2.,0.,               61P    172
1.38777878078145D-16,-3.,3.,-1.,-2.,2.,1.38777878078145D-16,0.,       61P    173
3.,-1.,0.,2.,1.38777878078145D-16,-0.28284271247462,                  61P    174
0.28284271247462,-3.14159265358979,3.14159265358979;                  61P    175
128,1,1,1,1,0,0,1,0,0,-0.2,-0.2,0.2,0.2,-0.35,-0.35,0.05,0.05,        63P    176
1.,1.,1.,1.,-2.,-2.,0.,2.,-2.,0.,-2.,2.,0.,2.,2.,0.,-0.2,0.2,         63P    177
-0.35,0.05;                                                           63P    178
128,1,8,1,2,0,1,0,0,0,-1.4142135623731,-1.4142135623731,              65P    179
1.4142135623731,1.4142135623731,-3.14159265358979,                    65P    180
-3.14159265358979,-3.14159265358979,-1.5707963267949,                 65P    181
-1.5707963267949,0.,0.,1.5707963267949,1.5707963267949,               65P    182
3.14159265358979,3.14159265358979,3.14159265358979,1.,1.,             65P    183
0.707106781186548,0.707106781186548,1.,1.,0.707106781186548,          65P    184
0.707106781186548,1.,1.,0.707106781186548,0.707106781186548,1.,       65P    185
1.,0.707106781186548,0.707106781186548,1.,1.,                         65P    186
2.77555756156289D-16,0.,-7.,3.,0.,-10.,2.77555756156289D-16,0.,       65P    187
-7.,3.,3.,-10.,2.77555756156289D-16,0.,-7.,3.,3.,-7.,                 65P    188
2.77555756156289D-16,0.,-7.,3.,3.,-4.,2.77555756156289D-16,0.,        65P    189
-7.,3.,0.,-4.,2.77555756156289D-16,0.,-7.,3.,-3.,-4.,                 65P    190
2.77555756156289D-16,0.,-7.,3.,-3.,-7.,2.77555756156289D-16,0.,       65P    191
-7.,3.,-3.,-10.,2.77555756156289D-16,0.,-7.,3.,0.,-10.,               65P    192
-1.4142135623731,1.4142135623731,-3.14159265358979,                   65P    193
3.14159265358979;                                                     65P    194
502,9,-2.44921270764476D-16,2.,-38.,3.67381906146713D-16,3.,          67P    195
-37.,0.,-3.,-37.,0.,-3.,-1.,-3.67381906146713D-16,3.,-1.,3.,0.,       67P    196
-10.,3.,0.,-4.,2.44921270764475D-16,2.,0.,0.,0.,-7.;                  67P    197
504,12,31,67,1,67,1,33,67,1,67,2,35,67,2,67,3,37,67,3,67,2,39,        69P    198
67,3,67,4,41,67,5,67,4,43,67,4,67,5,45,67,6,67,7,47,67,7,67,6,        69P    199
49,67,5,67,8,51,67,8,67,8,53,67,9,67,6;                               69P    200
406,1,15HVolumenkörper1;                                             71P    201
314,63.921568627451,63.921568627451,68.6274509803922,;                73P    202
S      1G      3D     74P    202                                        T      1
