ISO-10303-21;
HEADER;
/****************************************************************
 * Generated by software with PDE/Lib inside                    *
 * PDElib Version v51a, created Tue 12/06/2005                  *
 * International Technegroup Inc. (www.iti-oh.com)              *
 ****************************************************************/
FILE_DESCRIPTION((''),'2;1');
FILE_NAME('U:\\Paletti Norm\\Paletti Artikel f. Palkat\\STEP\\SP673_extern.ipt.step','2007-09-10T15:11:22',(''),(''),'Autodesk Inventor 11','Autodesk Inventor 11','');
FILE_SCHEMA(('AUTOMOTIVE_DESIGN { 1 0 10303 214 1 1 1 1 }'));
ENDSEC;
DATA;
#5=APPLICATION_CONTEXT('automotive design');
#6=APPLICATION_PROTOCOL_DEFINITION('International Standard','automotive_design',2001,#5);
#7=PRODUCT_CONTEXT('',#5,'mechanical');
#8=PRODUCT('SP673_extern','SP673_extern',$,(#7));
#9=PRODUCT_RELATED_PRODUCT_CATEGORY('part',$,(#8));
#10=PRODUCT_DEFINITION_FORMATION('',$,#8);
#11=PRODUCT_DEFINITION_CONTEXT('part definition',#5,'design');
#12=PRODUCT_DEFINITION('',$,#10,#11);
#18=(NAMED_UNIT(*)PLANE_ANGLE_UNIT()SI_UNIT($,.RADIAN.));
#19=DIMENSIONAL_EXPONENTS(0.0,0.0,0.0,0.0,0.0,0.0,0.0);
#20=PLANE_ANGLE_MEASURE_WITH_UNIT(PLANE_ANGLE_MEASURE(0.017453292500000),#18);
#24=(CONVERSION_BASED_UNIT('DEGREE',#20)NAMED_UNIT(#19)PLANE_ANGLE_UNIT());
#28=(NAMED_UNIT(*)SI_UNIT($,.STERADIAN.)SOLID_ANGLE_UNIT());
#32=(LENGTH_UNIT()NAMED_UNIT(*)SI_UNIT(.MILLI.,.METRE.));
#34=UNCERTAINTY_MEASURE_WITH_UNIT(LENGTH_MEASURE(0.010000000000000),#32,'DISTANCE_ACCURACY_VALUE','');
#36=(GEOMETRIC_REPRESENTATION_CONTEXT(3)GLOBAL_UNCERTAINTY_ASSIGNED_CONTEXT((#34))GLOBAL_UNIT_ASSIGNED_CONTEXT((#24,#28,#32))REPRESENTATION_CONTEXT('None','None'));
#37=AXIS2_PLACEMENT_3D('',#38,#39,#40);
#38=CARTESIAN_POINT('',(0.0,0.0,0.0));
#39=DIRECTION('',(0.0,0.0,1.0));
#40=DIRECTION('',(1.0,0.0,0.0));
#41=SHAPE_REPRESENTATION('',(#37),#36);
#42=PRODUCT_DEFINITION_SHAPE('','',#12);
#43=SHAPE_DEFINITION_REPRESENTATION(#42,#41);
#44=CARTESIAN_POINT('',(13.000026586210534,32.999999950701806,0.0));
#45=DIRECTION('',(1.0,0.0,0.0));
#46=DIRECTION('',(0.0,0.0,-1.0));
#47=AXIS2_PLACEMENT_3D('',#44,#45,#46);
#48=PLANE('',#47);
#49=CARTESIAN_POINT('',(13.000026586210534,32.999999950701806,0.500000000000000));
#50=VERTEX_POINT('',#49);
#51=CARTESIAN_POINT('',(13.000026586210570,3.999999950701891,0.500000000000000));
#52=VERTEX_POINT('',#51);
#53=CARTESIAN_POINT('',(13.000026586210534,32.999999950701806,0.500000000000000));
#54=DIRECTION('',(0.0,-1.0,0.0));
#55=VECTOR('',#54,28.999999999999915);
#56=LINE('',#53,#55);
#57=EDGE_CURVE('',#50,#52,#56,.T.);
#58=ORIENTED_EDGE('',*,*,#57,.F.);
#59=CARTESIAN_POINT('',(13.000026586210534,32.999999950701806,-0.500000000000000));
#60=VERTEX_POINT('',#59);
#61=CARTESIAN_POINT('',(13.000026586210534,32.999999950701806,0.500000000000000));
#62=DIRECTION('',(0.0,0.0,-1.0));
#63=VECTOR('',#62,1.0);
#64=LINE('',#61,#63);
#65=EDGE_CURVE('',#50,#60,#64,.T.);
#66=ORIENTED_EDGE('',*,*,#65,.T.);
#67=CARTESIAN_POINT('',(13.000026586210570,3.999999950701891,-0.500000000000000));
#68=VERTEX_POINT('',#67);
#69=CARTESIAN_POINT('',(13.000026586210570,3.999999950701891,-0.500000000000000));
#70=DIRECTION('',(0.0,1.0,0.0));
#71=VECTOR('',#70,28.999999999999915);
#72=LINE('',#69,#71);
#73=EDGE_CURVE('',#68,#60,#72,.T.);
#74=ORIENTED_EDGE('',*,*,#73,.F.);
#75=CARTESIAN_POINT('',(13.000026586210570,3.999999950701891,0.500000000000000));
#76=DIRECTION('',(0.0,0.0,-1.0));
#77=VECTOR('',#76,1.0);
#78=LINE('',#75,#77);
#79=EDGE_CURVE('',#52,#68,#78,.T.);
#80=ORIENTED_EDGE('',*,*,#79,.F.);
#81=EDGE_LOOP('',(#58,#66,#74,#80));
#82=FACE_OUTER_BOUND('',#81,.T.);
#83=ADVANCED_FACE('',(#82),#48,.F.);
#84=CARTESIAN_POINT('',(13.000026586210570,3.999999950701891,0.0));
#85=DIRECTION('',(0.0,-1.0,0.0));
#86=DIRECTION('',(0.0,0.0,-1.0));
#87=AXIS2_PLACEMENT_3D('',#84,#85,#86);
#88=PLANE('',#87);
#89=CARTESIAN_POINT('',(-12.999973413789466,3.999999950701962,0.500000000000000));
#90=VERTEX_POINT('',#89);
#91=CARTESIAN_POINT('',(13.000026586210570,3.999999950701891,0.500000000000000));
#92=DIRECTION('',(-1.0,0.0,0.0));
#93=VECTOR('',#92,26.000000000000036);
#94=LINE('',#91,#93);
#95=EDGE_CURVE('',#52,#90,#94,.T.);
#96=ORIENTED_EDGE('',*,*,#95,.F.);
#97=ORIENTED_EDGE('',*,*,#79,.T.);
#98=CARTESIAN_POINT('',(-12.999973413789466,3.999999950701962,-0.500000000000000));
#99=VERTEX_POINT('',#98);
#100=CARTESIAN_POINT('',(-12.999973413789466,3.999999950701962,-0.500000000000000));
#101=DIRECTION('',(1.0,0.0,0.0));
#102=VECTOR('',#101,26.000000000000036);
#103=LINE('',#100,#102);
#104=EDGE_CURVE('',#99,#68,#103,.T.);
#105=ORIENTED_EDGE('',*,*,#104,.F.);
#106=CARTESIAN_POINT('',(-12.999973413789466,3.999999950701962,0.500000000000000));
#107=DIRECTION('',(0.0,0.0,-1.0));
#108=VECTOR('',#107,1.0);
#109=LINE('',#106,#108);
#110=EDGE_CURVE('',#90,#99,#109,.T.);
#111=ORIENTED_EDGE('',*,*,#110,.F.);
#112=EDGE_LOOP('',(#96,#97,#105,#111));
#113=FACE_OUTER_BOUND('',#112,.T.);
#114=ADVANCED_FACE('',(#113),#88,.F.);
#115=CARTESIAN_POINT('',(-12.999973413789466,3.999999950701962,0.0));
#116=DIRECTION('',(-1.0,0.0,0.0));
#117=DIRECTION('',(0.0,0.0,1.0));
#118=AXIS2_PLACEMENT_3D('',#115,#116,#117);
#119=PLANE('',#118);
#120=CARTESIAN_POINT('',(-12.999973413789512,32.999999950701962,0.500000000000000));
#121=VERTEX_POINT('',#120);
#122=CARTESIAN_POINT('',(-12.999973413789466,3.999999950701962,0.500000000000000));
#123=DIRECTION('',(0.0,1.0,0.0));
#124=VECTOR('',#123,29.0);
#125=LINE('',#122,#124);
#126=EDGE_CURVE('',#90,#121,#125,.T.);
#127=ORIENTED_EDGE('',*,*,#126,.F.);
#128=ORIENTED_EDGE('',*,*,#110,.T.);
#129=CARTESIAN_POINT('',(-12.999973413789512,32.999999950701962,-0.500000000000000));
#130=VERTEX_POINT('',#129);
#131=CARTESIAN_POINT('',(-12.999973413789512,32.999999950701962,-0.500000000000000));
#132=DIRECTION('',(0.0,-1.0,0.0));
#133=VECTOR('',#132,29.0);
#134=LINE('',#131,#133);
#135=EDGE_CURVE('',#130,#99,#134,.T.);
#136=ORIENTED_EDGE('',*,*,#135,.F.);
#137=CARTESIAN_POINT('',(-12.999973413789512,32.999999950701962,-0.500000000000000));
#138=DIRECTION('',(0.0,0.0,1.0));
#139=VECTOR('',#138,1.0);
#140=LINE('',#137,#139);
#141=EDGE_CURVE('',#130,#121,#140,.T.);
#142=ORIENTED_EDGE('',*,*,#141,.T.);
#143=EDGE_LOOP('',(#127,#128,#136,#142));
#144=FACE_OUTER_BOUND('',#143,.T.);
#145=ADVANCED_FACE('',(#144),#119,.F.);
#146=CARTESIAN_POINT('',(-12.999973413789512,32.999999950701962,0.0));
#147=DIRECTION('',(0.0,1.0,0.0));
#148=DIRECTION('',(0.0,0.0,1.0));
#149=AXIS2_PLACEMENT_3D('',#146,#147,#148);
#150=PLANE('',#149);
#151=CARTESIAN_POINT('',(-12.999973413789512,32.999999950701962,0.500000000000000));
#152=DIRECTION('',(1.0,0.0,0.0));
#153=VECTOR('',#152,26.000000000000046);
#154=LINE('',#151,#153);
#155=EDGE_CURVE('',#121,#50,#154,.T.);
#156=ORIENTED_EDGE('',*,*,#155,.F.);
#157=ORIENTED_EDGE('',*,*,#141,.F.);
#158=CARTESIAN_POINT('',(13.000026586210534,32.999999950701806,-0.500000000000000));
#159=DIRECTION('',(-1.0,0.0,0.0));
#160=VECTOR('',#159,26.000000000000046);
#161=LINE('',#158,#160);
#162=EDGE_CURVE('',#60,#130,#161,.T.);
#163=ORIENTED_EDGE('',*,*,#162,.F.);
#164=ORIENTED_EDGE('',*,*,#65,.F.);
#165=EDGE_LOOP('',(#156,#157,#163,#164));
#166=FACE_OUTER_BOUND('',#165,.T.);
#167=ADVANCED_FACE('',(#166),#150,.F.);
#168=CARTESIAN_POINT('',(-12.999973413789467,-4.000000049298009,0.0));
#169=DIRECTION('',(0.0,1.0,0.0));
#170=DIRECTION('',(0.0,0.0,1.0));
#171=AXIS2_PLACEMENT_3D('',#168,#169,#170);
#172=PLANE('',#171);
#173=CARTESIAN_POINT('',(-12.999973413789467,-4.000000049298009,0.500000000000000));
#174=VERTEX_POINT('',#173);
#175=CARTESIAN_POINT('',(13.000026586210538,-4.000000049297930,0.500000000000000));
#176=VERTEX_POINT('',#175);
#177=CARTESIAN_POINT('',(-12.999973413789467,-4.000000049298009,0.500000000000000));
#178=DIRECTION('',(1.0,0.0,0.0));
#179=VECTOR('',#178,26.000000000000007);
#180=LINE('',#177,#179);
#181=EDGE_CURVE('',#174,#176,#180,.T.);
#182=ORIENTED_EDGE('',*,*,#181,.F.);
#183=CARTESIAN_POINT('',(-12.999973413789467,-4.000000049298009,-0.500000000000000));
#184=VERTEX_POINT('',#183);
#185=CARTESIAN_POINT('',(-12.999973413789467,-4.000000049298009,0.500000000000000));
#186=DIRECTION('',(0.0,0.0,-1.0));
#187=VECTOR('',#186,1.0);
#188=LINE('',#185,#187);
#189=EDGE_CURVE('',#174,#184,#188,.T.);
#190=ORIENTED_EDGE('',*,*,#189,.T.);
#191=CARTESIAN_POINT('',(13.000026586210538,-4.000000049297930,-0.500000000000000));
#192=VERTEX_POINT('',#191);
#193=CARTESIAN_POINT('',(13.000026586210538,-4.000000049297930,-0.500000000000000));
#194=DIRECTION('',(-1.0,0.0,0.0));
#195=VECTOR('',#194,26.000000000000007);
#196=LINE('',#193,#195);
#197=EDGE_CURVE('',#192,#184,#196,.T.);
#198=ORIENTED_EDGE('',*,*,#197,.F.);
#199=CARTESIAN_POINT('',(13.000026586210538,-4.000000049297930,-0.500000000000000));
#200=DIRECTION('',(0.0,0.0,1.0));
#201=VECTOR('',#200,1.0);
#202=LINE('',#199,#201);
#203=EDGE_CURVE('',#192,#176,#202,.T.);
#204=ORIENTED_EDGE('',*,*,#203,.T.);
#205=EDGE_LOOP('',(#182,#190,#198,#204));
#206=FACE_OUTER_BOUND('',#205,.T.);
#207=ADVANCED_FACE('',(#206),#172,.F.);
#208=CARTESIAN_POINT('',(13.000026586210538,-4.000000049297930,0.0));
#209=DIRECTION('',(1.0,0.0,0.0));
#210=DIRECTION('',(0.0,0.0,-1.0));
#211=AXIS2_PLACEMENT_3D('',#208,#209,#210);
#212=PLANE('',#211);
#213=CARTESIAN_POINT('',(13.000026586210518,-33.000000049297924,0.500000000000000));
#214=VERTEX_POINT('',#213);
#215=CARTESIAN_POINT('',(13.000026586210538,-4.000000049297930,0.500000000000000));
#216=DIRECTION('',(0.0,-1.0,0.0));
#217=VECTOR('',#216,28.999999999999993);
#218=LINE('',#215,#217);
#219=EDGE_CURVE('',#176,#214,#218,.T.);
#220=ORIENTED_EDGE('',*,*,#219,.F.);
#221=ORIENTED_EDGE('',*,*,#203,.F.);
#222=CARTESIAN_POINT('',(13.000026586210518,-33.000000049297924,-0.500000000000000));
#223=VERTEX_POINT('',#222);
#224=CARTESIAN_POINT('',(13.000026586210518,-33.000000049297924,-0.500000000000000));
#225=DIRECTION('',(0.0,1.0,0.0));
#226=VECTOR('',#225,28.999999999999993);
#227=LINE('',#224,#226);
#228=EDGE_CURVE('',#223,#192,#227,.T.);
#229=ORIENTED_EDGE('',*,*,#228,.F.);
#230=CARTESIAN_POINT('',(13.000026586210518,-33.000000049297924,-0.500000000000000));
#231=DIRECTION('',(0.0,0.0,1.0));
#232=VECTOR('',#231,1.0);
#233=LINE('',#230,#232);
#234=EDGE_CURVE('',#223,#214,#233,.T.);
#235=ORIENTED_EDGE('',*,*,#234,.T.);
#236=EDGE_LOOP('',(#220,#221,#229,#235));
#237=FACE_OUTER_BOUND('',#236,.T.);
#238=ADVANCED_FACE('',(#237),#212,.F.);
#239=CARTESIAN_POINT('',(13.000026586210518,-33.000000049297924,0.0));
#240=DIRECTION('',(0.0,-1.0,0.0));
#241=DIRECTION('',(0.0,0.0,-1.0));
#242=AXIS2_PLACEMENT_3D('',#239,#240,#241);
#243=PLANE('',#242);
#244=CARTESIAN_POINT('',(-12.999973413789544,-33.000000049297924,0.500000000000000));
#245=VERTEX_POINT('',#244);
#246=CARTESIAN_POINT('',(13.000026586210518,-33.000000049297924,0.500000000000000));
#247=DIRECTION('',(-1.0,0.0,0.0));
#248=VECTOR('',#247,26.000000000000064);
#249=LINE('',#246,#248);
#250=EDGE_CURVE('',#214,#245,#249,.T.);
#251=ORIENTED_EDGE('',*,*,#250,.F.);
#252=ORIENTED_EDGE('',*,*,#234,.F.);
#253=CARTESIAN_POINT('',(-12.999973413789544,-33.000000049297924,-0.500000000000000));
#254=VERTEX_POINT('',#253);
#255=CARTESIAN_POINT('',(-12.999973413789544,-33.000000049297924,-0.500000000000000));
#256=DIRECTION('',(1.0,0.0,0.0));
#257=VECTOR('',#256,26.000000000000064);
#258=LINE('',#255,#257);
#259=EDGE_CURVE('',#254,#223,#258,.T.);
#260=ORIENTED_EDGE('',*,*,#259,.F.);
#261=CARTESIAN_POINT('',(-12.999973413789544,-33.000000049297924,-0.500000000000000));
#262=DIRECTION('',(0.0,0.0,1.0));
#263=VECTOR('',#262,1.0);
#264=LINE('',#261,#263);
#265=EDGE_CURVE('',#254,#245,#264,.T.);
#266=ORIENTED_EDGE('',*,*,#265,.T.);
#267=EDGE_LOOP('',(#251,#252,#260,#266));
#268=FACE_OUTER_BOUND('',#267,.T.);
#269=ADVANCED_FACE('',(#268),#243,.F.);
#270=CARTESIAN_POINT('',(-12.999973413789544,-33.000000049297924,0.0));
#271=DIRECTION('',(-1.0,0.0,0.0));
#272=DIRECTION('',(0.0,0.0,1.0));
#273=AXIS2_PLACEMENT_3D('',#270,#271,#272);
#274=PLANE('',#273);
#275=CARTESIAN_POINT('',(-12.999973413789544,-33.000000049297924,0.500000000000000));
#276=DIRECTION('',(0.0,1.0,0.0));
#277=VECTOR('',#276,28.999999999999915);
#278=LINE('',#275,#277);
#279=EDGE_CURVE('',#245,#174,#278,.T.);
#280=ORIENTED_EDGE('',*,*,#279,.F.);
#281=ORIENTED_EDGE('',*,*,#265,.F.);
#282=CARTESIAN_POINT('',(-12.999973413789467,-4.000000049298009,-0.500000000000000));
#283=DIRECTION('',(0.0,-1.0,0.0));
#284=VECTOR('',#283,28.999999999999915);
#285=LINE('',#282,#284);
#286=EDGE_CURVE('',#184,#254,#285,.T.);
#287=ORIENTED_EDGE('',*,*,#286,.F.);
#288=ORIENTED_EDGE('',*,*,#189,.F.);
#289=EDGE_LOOP('',(#280,#281,#287,#288));
#290=FACE_OUTER_BOUND('',#289,.T.);
#291=ADVANCED_FACE('',(#290),#274,.F.);
#292=CARTESIAN_POINT('',(0.000026586210548,-0.000000049298018,-0.500000000000000));
#293=DIRECTION('',(0.0,0.0,1.0));
#294=DIRECTION('',(1.0,0.0,0.0));
#295=AXIS2_PLACEMENT_3D('',#292,#293,#294);
#296=PLANE('',#295);
#297=CARTESIAN_POINT('',(-19.999973413789462,-38.000000049297952,-0.500000000000000));
#298=VERTEX_POINT('',#297);
#299=CARTESIAN_POINT('',(-17.999973413789462,-40.000000049298016,-0.500000000000000));
#300=VERTEX_POINT('',#299);
#301=CARTESIAN_POINT('',(-19.999973413789462,-38.000000049297952,-0.500000000000000));
#302=DIRECTION('',(0.707106781186536,-0.707106781186559,0.0));
#303=VECTOR('',#302,2.828427124746235);
#304=LINE('',#301,#303);
#305=EDGE_CURVE('',#298,#300,#304,.T.);
#306=ORIENTED_EDGE('',*,*,#305,.F.);
#307=CARTESIAN_POINT('',(-19.999973413789434,37.999999950701934,-0.500000000000000));
#308=VERTEX_POINT('',#307);
#309=CARTESIAN_POINT('',(-19.999973413789434,37.999999950701934,-0.500000000000000));
#310=DIRECTION('',(0.0,-1.0,0.0));
#311=VECTOR('',#310,75.999999999999886);
#312=LINE('',#309,#311);
#313=EDGE_CURVE('',#308,#298,#312,.T.);
#314=ORIENTED_EDGE('',*,*,#313,.F.);
#315=CARTESIAN_POINT('',(-17.999973413789434,39.999999950701991,-0.500000000000000));
#316=VERTEX_POINT('',#315);
#317=CARTESIAN_POINT('',(-17.999973413789434,39.999999950701991,-0.500000000000000));
#318=DIRECTION('',(-0.707106781186537,-0.707106781186558,0.0));
#319=VECTOR('',#318,2.828427124746230);
#320=LINE('',#317,#319);
#321=EDGE_CURVE('',#316,#308,#320,.T.);
#322=ORIENTED_EDGE('',*,*,#321,.F.);
#323=CARTESIAN_POINT('',(18.000026586210566,39.999999950701934,-0.500000000000000));
#324=VERTEX_POINT('',#323);
#325=CARTESIAN_POINT('',(18.000026586210566,39.999999950701934,-0.500000000000000));
#326=DIRECTION('',(-1.0,0.0,0.0));
#327=VECTOR('',#326,36.0);
#328=LINE('',#325,#327);
#329=EDGE_CURVE('',#324,#316,#328,.T.);
#330=ORIENTED_EDGE('',*,*,#329,.F.);
#331=CARTESIAN_POINT('',(20.000026586210566,37.999999950701934,-0.500000000000000));
#332=VERTEX_POINT('',#331);
#333=CARTESIAN_POINT('',(20.000026586210566,37.999999950701934,-0.500000000000000));
#334=DIRECTION('',(-0.707106781186547,0.707106781186547,0.0));
#335=VECTOR('',#334,2.828427124746190);
#336=LINE('',#333,#335);
#337=EDGE_CURVE('',#332,#324,#336,.T.);
#338=ORIENTED_EDGE('',*,*,#337,.F.);
#339=CARTESIAN_POINT('',(20.000026586210538,-38.000000049297981,-0.500000000000000));
#340=VERTEX_POINT('',#339);
#341=CARTESIAN_POINT('',(20.000026586210538,-38.000000049297981,-0.500000000000000));
#342=DIRECTION('',(0.0,1.0,0.0));
#343=VECTOR('',#342,75.999999999999915);
#344=LINE('',#341,#343);
#345=EDGE_CURVE('',#340,#332,#344,.T.);
#346=ORIENTED_EDGE('',*,*,#345,.F.);
#347=CARTESIAN_POINT('',(18.000026586210538,-40.000000049297981,-0.500000000000000));
#348=VERTEX_POINT('',#347);
#349=CARTESIAN_POINT('',(18.000026586210538,-40.000000049297981,-0.500000000000000));
#350=DIRECTION('',(0.707106781186547,0.707106781186547,0.0));
#351=VECTOR('',#350,2.828427124746190);
#352=LINE('',#349,#351);
#353=EDGE_CURVE('',#348,#340,#352,.T.);
#354=ORIENTED_EDGE('',*,*,#353,.F.);
#355=CARTESIAN_POINT('',(-17.999973413789462,-40.000000049298016,-0.500000000000000));
#356=DIRECTION('',(1.0,0.0,0.0));
#357=VECTOR('',#356,36.0);
#358=LINE('',#355,#357);
#359=EDGE_CURVE('',#300,#348,#358,.T.);
#360=ORIENTED_EDGE('',*,*,#359,.F.);
#361=EDGE_LOOP('',(#306,#314,#322,#330,#338,#346,#354,#360));
#362=FACE_OUTER_BOUND('',#361,.T.);
#363=ORIENTED_EDGE('',*,*,#73,.T.);
#364=ORIENTED_EDGE('',*,*,#162,.T.);
#365=ORIENTED_EDGE('',*,*,#135,.T.);
#366=ORIENTED_EDGE('',*,*,#104,.T.);
#367=EDGE_LOOP('',(#363,#364,#365,#366));
#368=FACE_BOUND('',#367,.T.);
#369=ORIENTED_EDGE('',*,*,#197,.T.);
#370=ORIENTED_EDGE('',*,*,#286,.T.);
#371=ORIENTED_EDGE('',*,*,#259,.T.);
#372=ORIENTED_EDGE('',*,*,#228,.T.);
#373=EDGE_LOOP('',(#369,#370,#371,#372));
#374=FACE_BOUND('',#373,.T.);
#375=ADVANCED_FACE('',(#362,#368,#374),#296,.F.);
#376=CARTESIAN_POINT('',(-19.999973413789434,37.999999950701934,0.0));
#377=DIRECTION('',(-0.707106781186558,0.707106781186537,0.0));
#378=DIRECTION('',(0.0,0.0,1.0));
#379=AXIS2_PLACEMENT_3D('',#376,#377,#378);
#380=PLANE('',#379);
#381=CARTESIAN_POINT('',(-19.999973413789434,37.999999950701934,0.500000000000000));
#382=VERTEX_POINT('',#381);
#383=CARTESIAN_POINT('',(-17.999973413789434,39.999999950701991,0.500000000000000));
#384=VERTEX_POINT('',#383);
#385=CARTESIAN_POINT('',(-19.999973413789434,37.999999950701934,0.500000000000000));
#386=DIRECTION('',(0.707106781186537,0.707106781186558,0.0));
#387=VECTOR('',#386,2.828427124746230);
#388=LINE('',#385,#387);
#389=EDGE_CURVE('',#382,#384,#388,.T.);
#390=ORIENTED_EDGE('',*,*,#389,.T.);
#391=CARTESIAN_POINT('',(-17.999973413789434,39.999999950701991,0.500000000000000));
#392=DIRECTION('',(0.0,0.0,-1.0));
#393=VECTOR('',#392,1.0);
#394=LINE('',#391,#393);
#395=EDGE_CURVE('',#384,#316,#394,.T.);
#396=ORIENTED_EDGE('',*,*,#395,.T.);
#397=ORIENTED_EDGE('',*,*,#321,.T.);
#398=CARTESIAN_POINT('',(-19.999973413789434,37.999999950701934,0.500000000000000));
#399=DIRECTION('',(0.0,0.0,-1.0));
#400=VECTOR('',#399,1.0);
#401=LINE('',#398,#400);
#402=EDGE_CURVE('',#382,#308,#401,.T.);
#403=ORIENTED_EDGE('',*,*,#402,.F.);
#404=EDGE_LOOP('',(#390,#396,#397,#403));
#405=FACE_OUTER_BOUND('',#404,.T.);
#406=ADVANCED_FACE('',(#405),#380,.T.);
#407=CARTESIAN_POINT('',(-17.999973413789434,39.999999950701991,0.0));
#408=DIRECTION('',(0.0,1.0,0.0));
#409=DIRECTION('',(0.0,0.0,1.0));
#410=AXIS2_PLACEMENT_3D('',#407,#408,#409);
#411=PLANE('',#410);
#412=CARTESIAN_POINT('',(18.000026586210566,39.999999950701934,0.500000000000000));
#413=VERTEX_POINT('',#412);
#414=CARTESIAN_POINT('',(-17.999973413789434,39.999999950701991,0.500000000000000));
#415=DIRECTION('',(1.0,0.0,0.0));
#416=VECTOR('',#415,36.0);
#417=LINE('',#414,#416);
#418=EDGE_CURVE('',#384,#413,#417,.T.);
#419=ORIENTED_EDGE('',*,*,#418,.T.);
#420=CARTESIAN_POINT('',(18.000026586210566,39.999999950701934,0.500000000000000));
#421=DIRECTION('',(0.0,0.0,-1.0));
#422=VECTOR('',#421,1.0);
#423=LINE('',#420,#422);
#424=EDGE_CURVE('',#413,#324,#423,.T.);
#425=ORIENTED_EDGE('',*,*,#424,.T.);
#426=ORIENTED_EDGE('',*,*,#329,.T.);
#427=ORIENTED_EDGE('',*,*,#395,.F.);
#428=EDGE_LOOP('',(#419,#425,#426,#427));
#429=FACE_OUTER_BOUND('',#428,.T.);
#430=ADVANCED_FACE('',(#429),#411,.T.);
#431=CARTESIAN_POINT('',(18.000026586210566,39.999999950701934,0.0));
#432=DIRECTION('',(0.707106781186548,0.707106781186547,0.0));
#433=DIRECTION('',(0.0,0.0,-1.0));
#434=AXIS2_PLACEMENT_3D('',#431,#432,#433);
#435=PLANE('',#434);
#436=CARTESIAN_POINT('',(20.000026586210566,37.999999950701934,0.500000000000000));
#437=VERTEX_POINT('',#436);
#438=CARTESIAN_POINT('',(18.000026586210566,39.999999950701934,0.500000000000000));
#439=DIRECTION('',(0.707106781186547,-0.707106781186547,0.0));
#440=VECTOR('',#439,2.828427124746190);
#441=LINE('',#438,#440);
#442=EDGE_CURVE('',#413,#437,#441,.T.);
#443=ORIENTED_EDGE('',*,*,#442,.T.);
#444=CARTESIAN_POINT('',(20.000026586210566,37.999999950701934,0.500000000000000));
#445=DIRECTION('',(0.0,0.0,-1.0));
#446=VECTOR('',#445,1.0);
#447=LINE('',#444,#446);
#448=EDGE_CURVE('',#437,#332,#447,.T.);
#449=ORIENTED_EDGE('',*,*,#448,.T.);
#450=ORIENTED_EDGE('',*,*,#337,.T.);
#451=ORIENTED_EDGE('',*,*,#424,.F.);
#452=EDGE_LOOP('',(#443,#449,#450,#451));
#453=FACE_OUTER_BOUND('',#452,.T.);
#454=ADVANCED_FACE('',(#453),#435,.T.);
#455=CARTESIAN_POINT('',(20.000026586210566,37.999999950701934,0.0));
#456=DIRECTION('',(1.0,0.0,0.0));
#457=DIRECTION('',(0.0,0.0,-1.0));
#458=AXIS2_PLACEMENT_3D('',#455,#456,#457);
#459=PLANE('',#458);
#460=CARTESIAN_POINT('',(20.000026586210538,-38.000000049297981,0.500000000000000));
#461=VERTEX_POINT('',#460);
#462=CARTESIAN_POINT('',(20.000026586210566,37.999999950701934,0.500000000000000));
#463=DIRECTION('',(0.0,-1.0,0.0));
#464=VECTOR('',#463,75.999999999999915);
#465=LINE('',#462,#464);
#466=EDGE_CURVE('',#437,#461,#465,.T.);
#467=ORIENTED_EDGE('',*,*,#466,.T.);
#468=CARTESIAN_POINT('',(20.000026586210538,-38.000000049297981,0.500000000000000));
#469=DIRECTION('',(0.0,0.0,-1.0));
#470=VECTOR('',#469,1.0);
#471=LINE('',#468,#470);
#472=EDGE_CURVE('',#461,#340,#471,.T.);
#473=ORIENTED_EDGE('',*,*,#472,.T.);
#474=ORIENTED_EDGE('',*,*,#345,.T.);
#475=ORIENTED_EDGE('',*,*,#448,.F.);
#476=EDGE_LOOP('',(#467,#473,#474,#475));
#477=FACE_OUTER_BOUND('',#476,.T.);
#478=ADVANCED_FACE('',(#477),#459,.T.);
#479=CARTESIAN_POINT('',(20.000026586210538,-38.000000049297981,0.0));
#480=DIRECTION('',(0.707106781186547,-0.707106781186548,0.0));
#481=DIRECTION('',(0.0,0.0,-1.0));
#482=AXIS2_PLACEMENT_3D('',#479,#480,#481);
#483=PLANE('',#482);
#484=CARTESIAN_POINT('',(18.000026586210538,-40.000000049297981,0.500000000000000));
#485=VERTEX_POINT('',#484);
#486=CARTESIAN_POINT('',(20.000026586210538,-38.000000049297981,0.500000000000000));
#487=DIRECTION('',(-0.707106781186547,-0.707106781186547,0.0));
#488=VECTOR('',#487,2.828427124746190);
#489=LINE('',#486,#488);
#490=EDGE_CURVE('',#461,#485,#489,.T.);
#491=ORIENTED_EDGE('',*,*,#490,.T.);
#492=CARTESIAN_POINT('',(18.000026586210538,-40.000000049297981,0.500000000000000));
#493=DIRECTION('',(0.0,0.0,-1.0));
#494=VECTOR('',#493,1.0);
#495=LINE('',#492,#494);
#496=EDGE_CURVE('',#485,#348,#495,.T.);
#497=ORIENTED_EDGE('',*,*,#496,.T.);
#498=ORIENTED_EDGE('',*,*,#353,.T.);
#499=ORIENTED_EDGE('',*,*,#472,.F.);
#500=EDGE_LOOP('',(#491,#497,#498,#499));
#501=FACE_OUTER_BOUND('',#500,.T.);
#502=ADVANCED_FACE('',(#501),#483,.T.);
#503=CARTESIAN_POINT('',(18.000026586210538,-40.000000049297981,0.0));
#504=DIRECTION('',(0.0,-1.0,0.0));
#505=DIRECTION('',(0.0,0.0,-1.0));
#506=AXIS2_PLACEMENT_3D('',#503,#504,#505);
#507=PLANE('',#506);
#508=CARTESIAN_POINT('',(-17.999973413789462,-40.000000049298016,0.500000000000000));
#509=VERTEX_POINT('',#508);
#510=CARTESIAN_POINT('',(18.000026586210538,-40.000000049297981,0.500000000000000));
#511=DIRECTION('',(-1.0,0.0,0.0));
#512=VECTOR('',#511,36.0);
#513=LINE('',#510,#512);
#514=EDGE_CURVE('',#485,#509,#513,.T.);
#515=ORIENTED_EDGE('',*,*,#514,.T.);
#516=CARTESIAN_POINT('',(-17.999973413789462,-40.000000049298016,0.500000000000000));
#517=DIRECTION('',(0.0,0.0,-1.0));
#518=VECTOR('',#517,1.0);
#519=LINE('',#516,#518);
#520=EDGE_CURVE('',#509,#300,#519,.T.);
#521=ORIENTED_EDGE('',*,*,#520,.T.);
#522=ORIENTED_EDGE('',*,*,#359,.T.);
#523=ORIENTED_EDGE('',*,*,#496,.F.);
#524=EDGE_LOOP('',(#515,#521,#522,#523));
#525=FACE_OUTER_BOUND('',#524,.T.);
#526=ADVANCED_FACE('',(#525),#507,.T.);
#527=CARTESIAN_POINT('',(-17.999973413789462,-40.000000049298016,0.0));
#528=DIRECTION('',(-0.707106781186558,-0.707106781186537,0.0));
#529=DIRECTION('',(0.0,0.0,1.0));
#530=AXIS2_PLACEMENT_3D('',#527,#528,#529);
#531=PLANE('',#530);
#532=CARTESIAN_POINT('',(-19.999973413789462,-38.000000049297952,0.500000000000000));
#533=VERTEX_POINT('',#532);
#534=CARTESIAN_POINT('',(-17.999973413789462,-40.000000049298016,0.500000000000000));
#535=DIRECTION('',(-0.707106781186536,0.707106781186559,0.0));
#536=VECTOR('',#535,2.828427124746235);
#537=LINE('',#534,#536);
#538=EDGE_CURVE('',#509,#533,#537,.T.);
#539=ORIENTED_EDGE('',*,*,#538,.T.);
#540=CARTESIAN_POINT('',(-19.999973413789462,-38.000000049297952,-0.500000000000000));
#541=DIRECTION('',(0.0,0.0,1.0));
#542=VECTOR('',#541,1.0);
#543=LINE('',#540,#542);
#544=EDGE_CURVE('',#298,#533,#543,.T.);
#545=ORIENTED_EDGE('',*,*,#544,.F.);
#546=ORIENTED_EDGE('',*,*,#305,.T.);
#547=ORIENTED_EDGE('',*,*,#520,.F.);
#548=EDGE_LOOP('',(#539,#545,#546,#547));
#549=FACE_OUTER_BOUND('',#548,.T.);
#550=ADVANCED_FACE('',(#549),#531,.T.);
#551=CARTESIAN_POINT('',(-19.999973413789462,-38.000000049297952,0.0));
#552=DIRECTION('',(-1.0,0.0,0.0));
#553=DIRECTION('',(0.0,0.0,1.0));
#554=AXIS2_PLACEMENT_3D('',#551,#552,#553);
#555=PLANE('',#554);
#556=CARTESIAN_POINT('',(-19.999973413789462,-38.000000049297952,0.500000000000000));
#557=DIRECTION('',(0.0,1.0,0.0));
#558=VECTOR('',#557,75.999999999999886);
#559=LINE('',#556,#558);
#560=EDGE_CURVE('',#533,#382,#559,.T.);
#561=ORIENTED_EDGE('',*,*,#560,.T.);
#562=ORIENTED_EDGE('',*,*,#402,.T.);
#563=ORIENTED_EDGE('',*,*,#313,.T.);
#564=ORIENTED_EDGE('',*,*,#544,.T.);
#565=EDGE_LOOP('',(#561,#562,#563,#564));
#566=FACE_OUTER_BOUND('',#565,.T.);
#567=ADVANCED_FACE('',(#566),#555,.T.);
#568=CARTESIAN_POINT('',(0.000026586210547,-0.000000049298019,0.500000000000000));
#569=DIRECTION('',(0.0,0.0,1.0));
#570=DIRECTION('',(1.0,0.0,0.0));
#571=AXIS2_PLACEMENT_3D('',#568,#569,#570);
#572=PLANE('',#571);
#573=ORIENTED_EDGE('',*,*,#389,.F.);
#574=ORIENTED_EDGE('',*,*,#560,.F.);
#575=ORIENTED_EDGE('',*,*,#538,.F.);
#576=ORIENTED_EDGE('',*,*,#514,.F.);
#577=ORIENTED_EDGE('',*,*,#490,.F.);
#578=ORIENTED_EDGE('',*,*,#466,.F.);
#579=ORIENTED_EDGE('',*,*,#442,.F.);
#580=ORIENTED_EDGE('',*,*,#418,.F.);
#581=EDGE_LOOP('',(#573,#574,#575,#576,#577,#578,#579,#580));
#582=FACE_OUTER_BOUND('',#581,.T.);
#583=ORIENTED_EDGE('',*,*,#57,.T.);
#584=ORIENTED_EDGE('',*,*,#95,.T.);
#585=ORIENTED_EDGE('',*,*,#126,.T.);
#586=ORIENTED_EDGE('',*,*,#155,.T.);
#587=EDGE_LOOP('',(#583,#584,#585,#586));
#588=FACE_BOUND('',#587,.T.);
#589=ORIENTED_EDGE('',*,*,#181,.T.);
#590=ORIENTED_EDGE('',*,*,#219,.T.);
#591=ORIENTED_EDGE('',*,*,#250,.T.);
#592=ORIENTED_EDGE('',*,*,#279,.T.);
#593=EDGE_LOOP('',(#589,#590,#591,#592));
#594=FACE_BOUND('',#593,.T.);
#595=ADVANCED_FACE('',(#582,#588,#594),#572,.T.);
#596=CLOSED_SHELL('',(#83,#114,#145,#167,#207,#238,#269,#291,#375,#406,#430,#454,#478,#502,#526,#550,#567,#595));
#597=MANIFOLD_SOLID_BREP('',#596);
#598=COLOUR_RGB('Aluminium (gleichmig)',0.847058832645416,0.839215695858002,0.839215695858002);
#599=FILL_AREA_STYLE_COLOUR('Aluminium (gleichmig)',#598);
#600=FILL_AREA_STYLE('Aluminium (gleichmig)',(#599));
#601=SURFACE_STYLE_FILL_AREA(#600);
#602=SURFACE_SIDE_STYLE('Aluminium (gleichmig)',(#601));
#603=SURFACE_STYLE_USAGE(.BOTH.,#602);
#604=PRESENTATION_STYLE_ASSIGNMENT((#603));
#605=STYLED_ITEM('',(#604),#597);
#606=MECHANICAL_DESIGN_GEOMETRIC_PRESENTATION_REPRESENTATION('',(#605),#36);
#607=ADVANCED_BREP_SHAPE_REPRESENTATION('ABSR',(#597),#36);
#608=SHAPE_REPRESENTATION_RELATIONSHIP('SRR','None',#607,#41);
ENDSEC;
END-ISO-10303-21;
