ISO-10303-21;
HEADER;
/****************************************************************
 * Generated by software with PDE/Lib inside                    *
 * PDElib Version v51a, created Tue 12/06/2005                  *
 * International Technegroup Inc. (www.iti-oh.com)              *
 ****************************************************************/
FILE_DESCRIPTION((''),'2;1');
FILE_NAME('U:\\Paletti Norm\\Paletti Artikel f. Palkat\\STEP\\SP994_extern.ipt.step','2007-09-10T15:13:05',(''),(''),'Autodesk Inventor 11','Autodesk Inventor 11','');
FILE_SCHEMA(('AUTOMOTIVE_DESIGN { 1 0 10303 214 1 1 1 1 }'));
ENDSEC;
DATA;
#5=APPLICATION_CONTEXT('automotive design');
#6=APPLICATION_PROTOCOL_DEFINITION('International Standard','automotive_design',2001,#5);
#7=PRODUCT_CONTEXT('',#5,'mechanical');
#8=PRODUCT('SP994_extern','SP994_extern',$,(#7));
#9=PRODUCT_RELATED_PRODUCT_CATEGORY('part',$,(#8));
#10=PRODUCT_DEFINITION_FORMATION('',$,#8);
#11=PRODUCT_DEFINITION_CONTEXT('part definition',#5,'design');
#12=PRODUCT_DEFINITION('',$,#10,#11);
#18=(NAMED_UNIT(*)PLANE_ANGLE_UNIT()SI_UNIT($,.RADIAN.));
#19=DIMENSIONAL_EXPONENTS(0.0,0.0,0.0,0.0,0.0,0.0,0.0);
#20=PLANE_ANGLE_MEASURE_WITH_UNIT(PLANE_ANGLE_MEASURE(0.017453292500000),#18);
#24=(CONVERSION_BASED_UNIT('DEGREE',#20)NAMED_UNIT(#19)PLANE_ANGLE_UNIT());
#28=(NAMED_UNIT(*)SI_UNIT($,.STERADIAN.)SOLID_ANGLE_UNIT());
#32=(LENGTH_UNIT()NAMED_UNIT(*)SI_UNIT(.MILLI.,.METRE.));
#34=UNCERTAINTY_MEASURE_WITH_UNIT(LENGTH_MEASURE(0.010000000000000),#32,'DISTANCE_ACCURACY_VALUE','');
#36=(GEOMETRIC_REPRESENTATION_CONTEXT(3)GLOBAL_UNCERTAINTY_ASSIGNED_CONTEXT((#34))GLOBAL_UNIT_ASSIGNED_CONTEXT((#24,#28,#32))REPRESENTATION_CONTEXT('None','None'));
#37=AXIS2_PLACEMENT_3D('',#38,#39,#40);
#38=CARTESIAN_POINT('',(0.0,0.0,0.0));
#39=DIRECTION('',(0.0,0.0,1.0));
#40=DIRECTION('',(1.0,0.0,0.0));
#41=SHAPE_REPRESENTATION('',(#37),#36);
#42=PRODUCT_DEFINITION_SHAPE('','',#12);
#43=SHAPE_DEFINITION_REPRESENTATION(#42,#41);
#44=CARTESIAN_POINT('',(36.499999999999993,16.500000000000000,0.0));
#45=DIRECTION('',(0.0,0.0,1.0));
#46=DIRECTION('',(0.707106781186547,0.707106781186548,0.0));
#47=AXIS2_PLACEMENT_3D('',#44,#45,#46);
#48=CYLINDRICAL_SURFACE('',#47,3.500000000000000);
#49=CARTESIAN_POINT('',(36.499999999999993,20.0,0.500000000000000));
#50=VERTEX_POINT('',#49);
#51=CARTESIAN_POINT('',(39.999999999999993,16.500000000000000,0.500000000000000));
#52=VERTEX_POINT('',#51);
#53=CARTESIAN_POINT('',(36.499999999999993,16.500000000000000,0.500000000000000));
#54=DIRECTION('',(0.0,0.0,-1.0));
#55=DIRECTION('',(0.707106781186547,0.707106781186548,0.0));
#56=AXIS2_PLACEMENT_3D('',#53,#54,#55);
#57=CIRCLE('',#56,3.500000000000000);
#58=EDGE_CURVE('',#50,#52,#57,.T.);
#59=ORIENTED_EDGE('',*,*,#58,.T.);
#60=CARTESIAN_POINT('',(39.999999999999993,16.500000000000000,-0.500000000000000));
#61=VERTEX_POINT('',#60);
#62=CARTESIAN_POINT('',(39.999999999999993,16.500000000000000,0.500000000000000));
#63=DIRECTION('',(0.0,0.0,-1.0));
#64=VECTOR('',#63,1.0);
#65=LINE('',#62,#64);
#66=EDGE_CURVE('',#52,#61,#65,.T.);
#67=ORIENTED_EDGE('',*,*,#66,.T.);
#68=CARTESIAN_POINT('',(36.499999999999993,20.0,-0.500000000000000));
#69=VERTEX_POINT('',#68);
#70=CARTESIAN_POINT('',(36.499999999999993,16.500000000000000,-0.500000000000000));
#71=DIRECTION('',(0.0,0.0,1.0));
#72=DIRECTION('',(0.707106781186547,0.707106781186548,0.0));
#73=AXIS2_PLACEMENT_3D('',#70,#71,#72);
#74=CIRCLE('',#73,3.500000000000000);
#75=EDGE_CURVE('',#61,#69,#74,.T.);
#76=ORIENTED_EDGE('',*,*,#75,.T.);
#77=CARTESIAN_POINT('',(36.499999999999993,20.0,-0.500000000000000));
#78=DIRECTION('',(0.0,0.0,1.0));
#79=VECTOR('',#78,1.0);
#80=LINE('',#77,#79);
#81=EDGE_CURVE('',#69,#50,#80,.T.);
#82=ORIENTED_EDGE('',*,*,#81,.T.);
#83=EDGE_LOOP('',(#59,#67,#76,#82));
#84=FACE_OUTER_BOUND('',#83,.T.);
#85=ADVANCED_FACE('',(#84),#48,.T.);
#86=CARTESIAN_POINT('',(5.551115E-016,9.999999999999998,0.500000000000000));
#87=DIRECTION('',(0.0,0.0,1.0));
#88=DIRECTION('',(1.0,0.0,0.0));
#89=AXIS2_PLACEMENT_3D('',#86,#87,#88);
#90=PLANE('',#89);
#91=ORIENTED_EDGE('',*,*,#58,.F.);
#92=CARTESIAN_POINT('',(-36.499999999999993,20.0,0.500000000000000));
#93=VERTEX_POINT('',#92);
#94=CARTESIAN_POINT('',(-36.499999999999993,20.0,0.500000000000000));
#95=DIRECTION('',(1.0,0.0,0.0));
#96=VECTOR('',#95,72.999999999999986);
#97=LINE('',#94,#96);
#98=EDGE_CURVE('',#93,#50,#97,.T.);
#99=ORIENTED_EDGE('',*,*,#98,.F.);
#100=CARTESIAN_POINT('',(-39.999999999999993,16.500000000000000,0.500000000000000));
#101=VERTEX_POINT('',#100);
#102=CARTESIAN_POINT('',(-36.499999999999993,16.500000000000000,0.500000000000000));
#103=DIRECTION('',(0.0,0.0,-1.000000000000000));
#104=DIRECTION('',(-0.707106781186548,0.707106781186548,0.0));
#105=AXIS2_PLACEMENT_3D('',#102,#103,#104);
#106=CIRCLE('',#105,3.500000000000000);
#107=EDGE_CURVE('',#101,#93,#106,.T.);
#108=ORIENTED_EDGE('',*,*,#107,.F.);
#109=CARTESIAN_POINT('',(-40.0,0.0,0.500000000000000));
#110=VERTEX_POINT('',#109);
#111=CARTESIAN_POINT('',(-40.0,0.0,0.500000000000000));
#112=DIRECTION('',(0.0,1.0,0.0));
#113=VECTOR('',#112,16.500000000000000);
#114=LINE('',#111,#113);
#115=EDGE_CURVE('',#110,#101,#114,.T.);
#116=ORIENTED_EDGE('',*,*,#115,.F.);
#117=CARTESIAN_POINT('',(40.0,0.0,0.500000000000000));
#118=VERTEX_POINT('',#117);
#119=CARTESIAN_POINT('',(40.0,0.0,0.500000000000000));
#120=DIRECTION('',(-1.0,0.0,0.0));
#121=VECTOR('',#120,80.0);
#122=LINE('',#119,#121);
#123=EDGE_CURVE('',#118,#110,#122,.T.);
#124=ORIENTED_EDGE('',*,*,#123,.F.);
#125=CARTESIAN_POINT('',(39.999999999999993,16.500000000000000,0.500000000000000));
#126=DIRECTION('',(0.0,-1.0,0.0));
#127=VECTOR('',#126,16.500000000000000);
#128=LINE('',#125,#127);
#129=EDGE_CURVE('',#52,#118,#128,.T.);
#130=ORIENTED_EDGE('',*,*,#129,.F.);
#131=EDGE_LOOP('',(#91,#99,#108,#116,#124,#130));
#132=FACE_OUTER_BOUND('',#131,.T.);
#133=CARTESIAN_POINT('',(-30.000000000000018,16.400000000000002,0.500000000000000));
#134=VERTEX_POINT('',#133);
#135=CARTESIAN_POINT('',(-10.000000000000018,16.400000000000009,0.500000000000000));
#136=VERTEX_POINT('',#135);
#137=CARTESIAN_POINT('',(-30.000000000000018,16.400000000000002,0.500000000000000));
#138=DIRECTION('',(1.0,0.0,0.0));
#139=VECTOR('',#138,20.0);
#140=LINE('',#137,#139);
#141=EDGE_CURVE('',#134,#136,#140,.T.);
#142=ORIENTED_EDGE('',*,*,#141,.T.);
#143=CARTESIAN_POINT('',(-10.000000000000018,14.986000000000011,0.500000000000000));
#144=VERTEX_POINT('',#143);
#145=CARTESIAN_POINT('',(-10.000000000000018,16.400000000000009,0.500000000000000));
#146=DIRECTION('',(0.0,-1.0,0.0));
#147=VECTOR('',#146,1.413999999999998);
#148=LINE('',#145,#147);
#149=EDGE_CURVE('',#136,#144,#148,.T.);
#150=ORIENTED_EDGE('',*,*,#149,.T.);
#151=CARTESIAN_POINT('',(-16.486000000000022,8.500000000000004,0.500000000000000));
#152=VERTEX_POINT('',#151);
#153=CARTESIAN_POINT('',(-10.000000000000018,14.986000000000011,0.500000000000000));
#154=DIRECTION('',(-0.707106781186547,-0.707106781186548,0.0));
#155=VECTOR('',#154,9.172589165551903);
#156=LINE('',#153,#155);
#157=EDGE_CURVE('',#144,#152,#156,.T.);
#158=ORIENTED_EDGE('',*,*,#157,.T.);
#159=CARTESIAN_POINT('',(-23.514000000000003,8.500000000000000,0.500000000000000));
#160=VERTEX_POINT('',#159);
#161=CARTESIAN_POINT('',(-16.486000000000022,8.500000000000004,0.500000000000000));
#162=DIRECTION('',(-1.0,0.0,0.0));
#163=VECTOR('',#162,7.027999999999981);
#164=LINE('',#161,#163);
#165=EDGE_CURVE('',#152,#160,#164,.T.);
#166=ORIENTED_EDGE('',*,*,#165,.T.);
#167=CARTESIAN_POINT('',(-30.000000000000018,14.986000000000001,0.500000000000000));
#168=VERTEX_POINT('',#167);
#169=CARTESIAN_POINT('',(-23.514000000000003,8.500000000000000,0.500000000000000));
#170=DIRECTION('',(-0.707106781186548,0.707106781186547,0.0));
#171=VECTOR('',#170,9.172589165551905);
#172=LINE('',#169,#171);
#173=EDGE_CURVE('',#160,#168,#172,.T.);
#174=ORIENTED_EDGE('',*,*,#173,.T.);
#175=CARTESIAN_POINT('',(-30.000000000000018,14.986000000000001,0.500000000000000));
#176=DIRECTION('',(0.0,1.0,0.0));
#177=VECTOR('',#176,1.414000000000002);
#178=LINE('',#175,#177);
#179=EDGE_CURVE('',#168,#134,#178,.T.);
#180=ORIENTED_EDGE('',*,*,#179,.T.);
#181=EDGE_LOOP('',(#142,#150,#158,#166,#174,#180));
#182=FACE_BOUND('',#181,.T.);
#183=CARTESIAN_POINT('',(9.999999999999984,16.400000000000002,0.500000000000000));
#184=VERTEX_POINT('',#183);
#185=CARTESIAN_POINT('',(29.999999999999982,16.400000000000009,0.500000000000000));
#186=VERTEX_POINT('',#185);
#187=CARTESIAN_POINT('',(9.999999999999984,16.400000000000002,0.500000000000000));
#188=DIRECTION('',(1.0,0.0,0.0));
#189=VECTOR('',#188,20.0);
#190=LINE('',#187,#189);
#191=EDGE_CURVE('',#184,#186,#190,.T.);
#192=ORIENTED_EDGE('',*,*,#191,.T.);
#193=CARTESIAN_POINT('',(29.999999999999982,14.986000000000011,0.500000000000000));
#194=VERTEX_POINT('',#193);
#195=CARTESIAN_POINT('',(29.999999999999982,16.400000000000009,0.500000000000000));
#196=DIRECTION('',(0.0,-1.0,0.0));
#197=VECTOR('',#196,1.413999999999998);
#198=LINE('',#195,#197);
#199=EDGE_CURVE('',#186,#194,#198,.T.);
#200=ORIENTED_EDGE('',*,*,#199,.T.);
#201=CARTESIAN_POINT('',(23.513999999999978,8.500000000000004,0.500000000000000));
#202=VERTEX_POINT('',#201);
#203=CARTESIAN_POINT('',(29.999999999999982,14.986000000000011,0.500000000000000));
#204=DIRECTION('',(-0.707106781186547,-0.707106781186548,0.0));
#205=VECTOR('',#204,9.172589165551903);
#206=LINE('',#203,#205);
#207=EDGE_CURVE('',#194,#202,#206,.T.);
#208=ORIENTED_EDGE('',*,*,#207,.T.);
#209=CARTESIAN_POINT('',(16.485999999999997,8.500000000000000,0.500000000000000));
#210=VERTEX_POINT('',#209);
#211=CARTESIAN_POINT('',(23.513999999999978,8.500000000000004,0.500000000000000));
#212=DIRECTION('',(-1.0,0.0,0.0));
#213=VECTOR('',#212,7.027999999999981);
#214=LINE('',#211,#213);
#215=EDGE_CURVE('',#202,#210,#214,.T.);
#216=ORIENTED_EDGE('',*,*,#215,.T.);
#217=CARTESIAN_POINT('',(9.999999999999984,14.986000000000001,0.500000000000000));
#218=VERTEX_POINT('',#217);
#219=CARTESIAN_POINT('',(16.485999999999997,8.500000000000000,0.500000000000000));
#220=DIRECTION('',(-0.707106781186548,0.707106781186547,0.0));
#221=VECTOR('',#220,9.172589165551903);
#222=LINE('',#219,#221);
#223=EDGE_CURVE('',#210,#218,#222,.T.);
#224=ORIENTED_EDGE('',*,*,#223,.T.);
#225=CARTESIAN_POINT('',(9.999999999999984,14.986000000000001,0.500000000000000));
#226=DIRECTION('',(0.0,1.0,0.0));
#227=VECTOR('',#226,1.414000000000002);
#228=LINE('',#225,#227);
#229=EDGE_CURVE('',#218,#184,#228,.T.);
#230=ORIENTED_EDGE('',*,*,#229,.T.);
#231=EDGE_LOOP('',(#192,#200,#208,#216,#224,#230));
#232=FACE_BOUND('',#231,.T.);
#233=ADVANCED_FACE('',(#132,#182,#232),#90,.T.);
#234=CARTESIAN_POINT('',(-39.999999999999993,20.0,0.0));
#235=DIRECTION('',(0.0,1.0,0.0));
#236=DIRECTION('',(0.0,0.0,1.0));
#237=AXIS2_PLACEMENT_3D('',#234,#235,#236);
#238=PLANE('',#237);
#239=ORIENTED_EDGE('',*,*,#81,.F.);
#240=CARTESIAN_POINT('',(-36.499999999999993,20.0,-0.500000000000000));
#241=VERTEX_POINT('',#240);
#242=CARTESIAN_POINT('',(36.499999999999993,20.0,-0.500000000000000));
#243=DIRECTION('',(-1.0,0.0,0.0));
#244=VECTOR('',#243,72.999999999999986);
#245=LINE('',#242,#244);
#246=EDGE_CURVE('',#69,#241,#245,.T.);
#247=ORIENTED_EDGE('',*,*,#246,.T.);
#248=CARTESIAN_POINT('',(-36.499999999999993,20.0,0.500000000000000));
#249=DIRECTION('',(0.0,0.0,-1.0));
#250=VECTOR('',#249,1.0);
#251=LINE('',#248,#250);
#252=EDGE_CURVE('',#93,#241,#251,.T.);
#253=ORIENTED_EDGE('',*,*,#252,.F.);
#254=ORIENTED_EDGE('',*,*,#98,.T.);
#255=EDGE_LOOP('',(#239,#247,#253,#254));
#256=FACE_OUTER_BOUND('',#255,.T.);
#257=ADVANCED_FACE('',(#256),#238,.T.);
#258=CARTESIAN_POINT('',(-36.499999999999993,16.500000000000000,0.0));
#259=DIRECTION('',(0.0,0.0,1.0));
#260=DIRECTION('',(-0.707106781186548,0.707106781186548,0.0));
#261=AXIS2_PLACEMENT_3D('',#258,#259,#260);
#262=CYLINDRICAL_SURFACE('',#261,3.500000000000000);
#263=ORIENTED_EDGE('',*,*,#107,.T.);
#264=ORIENTED_EDGE('',*,*,#252,.T.);
#265=CARTESIAN_POINT('',(-39.999999999999993,16.500000000000000,-0.500000000000000));
#266=VERTEX_POINT('',#265);
#267=CARTESIAN_POINT('',(-36.499999999999993,16.500000000000000,-0.500000000000000));
#268=DIRECTION('',(0.0,0.0,1.000000000000000));
#269=DIRECTION('',(-0.707106781186548,0.707106781186548,0.0));
#270=AXIS2_PLACEMENT_3D('',#267,#268,#269);
#271=CIRCLE('',#270,3.500000000000000);
#272=EDGE_CURVE('',#241,#266,#271,.T.);
#273=ORIENTED_EDGE('',*,*,#272,.T.);
#274=CARTESIAN_POINT('',(-39.999999999999993,16.500000000000000,-0.500000000000000));
#275=DIRECTION('',(0.0,0.0,1.0));
#276=VECTOR('',#275,1.0);
#277=LINE('',#274,#276);
#278=EDGE_CURVE('',#266,#101,#277,.T.);
#279=ORIENTED_EDGE('',*,*,#278,.T.);
#280=EDGE_LOOP('',(#263,#264,#273,#279));
#281=FACE_OUTER_BOUND('',#280,.T.);
#282=ADVANCED_FACE('',(#281),#262,.T.);
#283=CARTESIAN_POINT('',(29.999999999999982,16.400000000000009,0.500000000000000));
#284=DIRECTION('',(0.0,1.0,0.0));
#285=DIRECTION('',(0.0,0.0,1.0));
#286=AXIS2_PLACEMENT_3D('',#283,#284,#285);
#287=PLANE('',#286);
#288=CARTESIAN_POINT('',(29.999999999999982,16.400000000000009,-0.500000000000000));
#289=VERTEX_POINT('',#288);
#290=CARTESIAN_POINT('',(9.999999999999984,16.400000000000002,-0.500000000000000));
#291=VERTEX_POINT('',#290);
#292=CARTESIAN_POINT('',(29.999999999999982,16.400000000000009,-0.500000000000000));
#293=DIRECTION('',(-1.0,0.0,0.0));
#294=VECTOR('',#293,20.0);
#295=LINE('',#292,#294);
#296=EDGE_CURVE('',#289,#291,#295,.T.);
#297=ORIENTED_EDGE('',*,*,#296,.F.);
#298=CARTESIAN_POINT('',(29.999999999999982,16.400000000000009,0.500000000000000));
#299=DIRECTION('',(0.0,0.0,-1.0));
#300=VECTOR('',#299,1.0);
#301=LINE('',#298,#300);
#302=EDGE_CURVE('',#186,#289,#301,.T.);
#303=ORIENTED_EDGE('',*,*,#302,.F.);
#304=ORIENTED_EDGE('',*,*,#191,.F.);
#305=CARTESIAN_POINT('',(9.999999999999984,16.400000000000002,0.500000000000000));
#306=DIRECTION('',(0.0,0.0,-1.0));
#307=VECTOR('',#306,1.0);
#308=LINE('',#305,#307);
#309=EDGE_CURVE('',#184,#291,#308,.T.);
#310=ORIENTED_EDGE('',*,*,#309,.T.);
#311=EDGE_LOOP('',(#297,#303,#304,#310));
#312=FACE_OUTER_BOUND('',#311,.T.);
#313=ADVANCED_FACE('',(#312),#287,.F.);
#314=CARTESIAN_POINT('',(9.999999999999984,16.400000000000002,0.500000000000000));
#315=DIRECTION('',(-1.0,0.0,0.0));
#316=DIRECTION('',(0.0,0.0,1.0));
#317=AXIS2_PLACEMENT_3D('',#314,#315,#316);
#318=PLANE('',#317);
#319=CARTESIAN_POINT('',(9.999999999999984,14.986000000000001,-0.500000000000000));
#320=VERTEX_POINT('',#319);
#321=CARTESIAN_POINT('',(9.999999999999984,16.400000000000002,-0.500000000000000));
#322=DIRECTION('',(0.0,-1.0,0.0));
#323=VECTOR('',#322,1.414000000000002);
#324=LINE('',#321,#323);
#325=EDGE_CURVE('',#291,#320,#324,.T.);
#326=ORIENTED_EDGE('',*,*,#325,.F.);
#327=ORIENTED_EDGE('',*,*,#309,.F.);
#328=ORIENTED_EDGE('',*,*,#229,.F.);
#329=CARTESIAN_POINT('',(9.999999999999984,14.986000000000001,0.500000000000000));
#330=DIRECTION('',(0.0,0.0,-1.0));
#331=VECTOR('',#330,1.0);
#332=LINE('',#329,#331);
#333=EDGE_CURVE('',#218,#320,#332,.T.);
#334=ORIENTED_EDGE('',*,*,#333,.T.);
#335=EDGE_LOOP('',(#326,#327,#328,#334));
#336=FACE_OUTER_BOUND('',#335,.T.);
#337=ADVANCED_FACE('',(#336),#318,.F.);
#338=CARTESIAN_POINT('',(9.999999999999984,14.986000000000001,0.500000000000000));
#339=DIRECTION('',(-0.707106781186547,-0.707106781186548,0.0));
#340=DIRECTION('',(0.0,0.0,1.0));
#341=AXIS2_PLACEMENT_3D('',#338,#339,#340);
#342=PLANE('',#341);
#343=CARTESIAN_POINT('',(16.485999999999997,8.500000000000000,-0.500000000000000));
#344=VERTEX_POINT('',#343);
#345=CARTESIAN_POINT('',(9.999999999999984,14.986000000000001,-0.500000000000000));
#346=DIRECTION('',(0.707106781186548,-0.707106781186547,0.0));
#347=VECTOR('',#346,9.172589165551903);
#348=LINE('',#345,#347);
#349=EDGE_CURVE('',#320,#344,#348,.T.);
#350=ORIENTED_EDGE('',*,*,#349,.F.);
#351=ORIENTED_EDGE('',*,*,#333,.F.);
#352=ORIENTED_EDGE('',*,*,#223,.F.);
#353=CARTESIAN_POINT('',(16.485999999999997,8.500000000000000,0.500000000000000));
#354=DIRECTION('',(0.0,0.0,-1.0));
#355=VECTOR('',#354,1.0);
#356=LINE('',#353,#355);
#357=EDGE_CURVE('',#210,#344,#356,.T.);
#358=ORIENTED_EDGE('',*,*,#357,.T.);
#359=EDGE_LOOP('',(#350,#351,#352,#358));
#360=FACE_OUTER_BOUND('',#359,.T.);
#361=ADVANCED_FACE('',(#360),#342,.F.);
#362=CARTESIAN_POINT('',(19.999999999999986,8.500000000000000,0.500000000000000));
#363=DIRECTION('',(0.0,-1.0,0.0));
#364=DIRECTION('',(0.0,0.0,-1.0));
#365=AXIS2_PLACEMENT_3D('',#362,#363,#364);
#366=PLANE('',#365);
#367=CARTESIAN_POINT('',(23.513999999999978,8.500000000000004,-0.500000000000000));
#368=VERTEX_POINT('',#367);
#369=CARTESIAN_POINT('',(16.485999999999997,8.500000000000000,-0.500000000000000));
#370=DIRECTION('',(1.0,0.0,0.0));
#371=VECTOR('',#370,7.027999999999981);
#372=LINE('',#369,#371);
#373=EDGE_CURVE('',#344,#368,#372,.T.);
#374=ORIENTED_EDGE('',*,*,#373,.F.);
#375=ORIENTED_EDGE('',*,*,#357,.F.);
#376=ORIENTED_EDGE('',*,*,#215,.F.);
#377=CARTESIAN_POINT('',(23.513999999999978,8.500000000000004,0.500000000000000));
#378=DIRECTION('',(0.0,0.0,-1.0));
#379=VECTOR('',#378,1.0);
#380=LINE('',#377,#379);
#381=EDGE_CURVE('',#202,#368,#380,.T.);
#382=ORIENTED_EDGE('',*,*,#381,.T.);
#383=EDGE_LOOP('',(#374,#375,#376,#382));
#384=FACE_OUTER_BOUND('',#383,.T.);
#385=ADVANCED_FACE('',(#384),#366,.F.);
#386=CARTESIAN_POINT('',(23.513999999999978,8.500000000000004,0.500000000000000));
#387=DIRECTION('',(0.707106781186547,-0.707106781186548,0.0));
#388=DIRECTION('',(0.0,0.0,-1.0));
#389=AXIS2_PLACEMENT_3D('',#386,#387,#388);
#390=PLANE('',#389);
#391=CARTESIAN_POINT('',(29.999999999999982,14.986000000000011,-0.500000000000000));
#392=VERTEX_POINT('',#391);
#393=CARTESIAN_POINT('',(23.513999999999978,8.500000000000004,-0.500000000000000));
#394=DIRECTION('',(0.707106781186547,0.707106781186548,0.0));
#395=VECTOR('',#394,9.172589165551903);
#396=LINE('',#393,#395);
#397=EDGE_CURVE('',#368,#392,#396,.T.);
#398=ORIENTED_EDGE('',*,*,#397,.F.);
#399=ORIENTED_EDGE('',*,*,#381,.F.);
#400=ORIENTED_EDGE('',*,*,#207,.F.);
#401=CARTESIAN_POINT('',(29.999999999999982,14.986000000000011,0.500000000000000));
#402=DIRECTION('',(0.0,0.0,-1.0));
#403=VECTOR('',#402,1.0);
#404=LINE('',#401,#403);
#405=EDGE_CURVE('',#194,#392,#404,.T.);
#406=ORIENTED_EDGE('',*,*,#405,.T.);
#407=EDGE_LOOP('',(#398,#399,#400,#406));
#408=FACE_OUTER_BOUND('',#407,.T.);
#409=ADVANCED_FACE('',(#408),#390,.F.);
#410=CARTESIAN_POINT('',(29.999999999999982,14.986000000000011,0.500000000000000));
#411=DIRECTION('',(1.0,0.0,0.0));
#412=DIRECTION('',(0.0,0.0,-1.0));
#413=AXIS2_PLACEMENT_3D('',#410,#411,#412);
#414=PLANE('',#413);
#415=CARTESIAN_POINT('',(29.999999999999982,14.986000000000011,-0.500000000000000));
#416=DIRECTION('',(0.0,1.0,0.0));
#417=VECTOR('',#416,1.413999999999998);
#418=LINE('',#415,#417);
#419=EDGE_CURVE('',#392,#289,#418,.T.);
#420=ORIENTED_EDGE('',*,*,#419,.F.);
#421=ORIENTED_EDGE('',*,*,#405,.F.);
#422=ORIENTED_EDGE('',*,*,#199,.F.);
#423=ORIENTED_EDGE('',*,*,#302,.T.);
#424=EDGE_LOOP('',(#420,#421,#422,#423));
#425=FACE_OUTER_BOUND('',#424,.T.);
#426=ADVANCED_FACE('',(#425),#414,.F.);
#427=CARTESIAN_POINT('',(-16.486000000000022,8.500000000000004,0.500000000000000));
#428=DIRECTION('',(0.707106781186547,-0.707106781186548,0.0));
#429=DIRECTION('',(0.0,0.0,-1.0));
#430=AXIS2_PLACEMENT_3D('',#427,#428,#429);
#431=PLANE('',#430);
#432=CARTESIAN_POINT('',(-16.486000000000022,8.500000000000004,-0.500000000000000));
#433=VERTEX_POINT('',#432);
#434=CARTESIAN_POINT('',(-10.000000000000018,14.986000000000011,-0.500000000000000));
#435=VERTEX_POINT('',#434);
#436=CARTESIAN_POINT('',(-16.486000000000022,8.500000000000004,-0.500000000000000));
#437=DIRECTION('',(0.707106781186547,0.707106781186548,0.0));
#438=VECTOR('',#437,9.172589165551903);
#439=LINE('',#436,#438);
#440=EDGE_CURVE('',#433,#435,#439,.T.);
#441=ORIENTED_EDGE('',*,*,#440,.F.);
#442=CARTESIAN_POINT('',(-16.486000000000022,8.500000000000004,0.500000000000000));
#443=DIRECTION('',(0.0,0.0,-1.0));
#444=VECTOR('',#443,1.0);
#445=LINE('',#442,#444);
#446=EDGE_CURVE('',#152,#433,#445,.T.);
#447=ORIENTED_EDGE('',*,*,#446,.F.);
#448=ORIENTED_EDGE('',*,*,#157,.F.);
#449=CARTESIAN_POINT('',(-10.000000000000018,14.986000000000011,0.500000000000000));
#450=DIRECTION('',(0.0,0.0,-1.0));
#451=VECTOR('',#450,1.0);
#452=LINE('',#449,#451);
#453=EDGE_CURVE('',#144,#435,#452,.T.);
#454=ORIENTED_EDGE('',*,*,#453,.T.);
#455=EDGE_LOOP('',(#441,#447,#448,#454));
#456=FACE_OUTER_BOUND('',#455,.T.);
#457=ADVANCED_FACE('',(#456),#431,.F.);
#458=CARTESIAN_POINT('',(-10.000000000000018,14.986000000000011,0.500000000000000));
#459=DIRECTION('',(1.0,0.0,0.0));
#460=DIRECTION('',(0.0,0.0,-1.0));
#461=AXIS2_PLACEMENT_3D('',#458,#459,#460);
#462=PLANE('',#461);
#463=CARTESIAN_POINT('',(-10.000000000000018,16.400000000000009,-0.500000000000000));
#464=VERTEX_POINT('',#463);
#465=CARTESIAN_POINT('',(-10.000000000000018,14.986000000000011,-0.500000000000000));
#466=DIRECTION('',(0.0,1.0,0.0));
#467=VECTOR('',#466,1.413999999999998);
#468=LINE('',#465,#467);
#469=EDGE_CURVE('',#435,#464,#468,.T.);
#470=ORIENTED_EDGE('',*,*,#469,.F.);
#471=ORIENTED_EDGE('',*,*,#453,.F.);
#472=ORIENTED_EDGE('',*,*,#149,.F.);
#473=CARTESIAN_POINT('',(-10.000000000000018,16.400000000000009,0.500000000000000));
#474=DIRECTION('',(0.0,0.0,-1.0));
#475=VECTOR('',#474,1.0);
#476=LINE('',#473,#475);
#477=EDGE_CURVE('',#136,#464,#476,.T.);
#478=ORIENTED_EDGE('',*,*,#477,.T.);
#479=EDGE_LOOP('',(#470,#471,#472,#478));
#480=FACE_OUTER_BOUND('',#479,.T.);
#481=ADVANCED_FACE('',(#480),#462,.F.);
#482=CARTESIAN_POINT('',(-10.000000000000018,16.400000000000009,0.500000000000000));
#483=DIRECTION('',(0.0,1.0,0.0));
#484=DIRECTION('',(0.0,0.0,1.0));
#485=AXIS2_PLACEMENT_3D('',#482,#483,#484);
#486=PLANE('',#485);
#487=CARTESIAN_POINT('',(-30.000000000000018,16.400000000000002,-0.500000000000000));
#488=VERTEX_POINT('',#487);
#489=CARTESIAN_POINT('',(-10.000000000000018,16.400000000000009,-0.500000000000000));
#490=DIRECTION('',(-1.0,0.0,0.0));
#491=VECTOR('',#490,20.0);
#492=LINE('',#489,#491);
#493=EDGE_CURVE('',#464,#488,#492,.T.);
#494=ORIENTED_EDGE('',*,*,#493,.F.);
#495=ORIENTED_EDGE('',*,*,#477,.F.);
#496=ORIENTED_EDGE('',*,*,#141,.F.);
#497=CARTESIAN_POINT('',(-30.000000000000018,16.400000000000002,0.500000000000000));
#498=DIRECTION('',(0.0,0.0,-1.0));
#499=VECTOR('',#498,1.0);
#500=LINE('',#497,#499);
#501=EDGE_CURVE('',#134,#488,#500,.T.);
#502=ORIENTED_EDGE('',*,*,#501,.T.);
#503=EDGE_LOOP('',(#494,#495,#496,#502));
#504=FACE_OUTER_BOUND('',#503,.T.);
#505=ADVANCED_FACE('',(#504),#486,.F.);
#506=CARTESIAN_POINT('',(-30.000000000000018,16.400000000000002,0.500000000000000));
#507=DIRECTION('',(-1.0,0.0,0.0));
#508=DIRECTION('',(0.0,0.0,1.0));
#509=AXIS2_PLACEMENT_3D('',#506,#507,#508);
#510=PLANE('',#509);
#511=CARTESIAN_POINT('',(-30.000000000000018,14.986000000000001,-0.500000000000000));
#512=VERTEX_POINT('',#511);
#513=CARTESIAN_POINT('',(-30.000000000000018,16.400000000000002,-0.500000000000000));
#514=DIRECTION('',(0.0,-1.0,0.0));
#515=VECTOR('',#514,1.414000000000002);
#516=LINE('',#513,#515);
#517=EDGE_CURVE('',#488,#512,#516,.T.);
#518=ORIENTED_EDGE('',*,*,#517,.F.);
#519=ORIENTED_EDGE('',*,*,#501,.F.);
#520=ORIENTED_EDGE('',*,*,#179,.F.);
#521=CARTESIAN_POINT('',(-30.000000000000018,14.986000000000001,0.500000000000000));
#522=DIRECTION('',(0.0,0.0,-1.0));
#523=VECTOR('',#522,1.0);
#524=LINE('',#521,#523);
#525=EDGE_CURVE('',#168,#512,#524,.T.);
#526=ORIENTED_EDGE('',*,*,#525,.T.);
#527=EDGE_LOOP('',(#518,#519,#520,#526));
#528=FACE_OUTER_BOUND('',#527,.T.);
#529=ADVANCED_FACE('',(#528),#510,.F.);
#530=CARTESIAN_POINT('',(-30.000000000000018,14.986000000000001,0.500000000000000));
#531=DIRECTION('',(-0.707106781186547,-0.707106781186548,0.0));
#532=DIRECTION('',(0.0,0.0,1.0));
#533=AXIS2_PLACEMENT_3D('',#530,#531,#532);
#534=PLANE('',#533);
#535=CARTESIAN_POINT('',(-23.514000000000003,8.500000000000000,-0.500000000000000));
#536=VERTEX_POINT('',#535);
#537=CARTESIAN_POINT('',(-30.000000000000018,14.986000000000001,-0.500000000000000));
#538=DIRECTION('',(0.707106781186548,-0.707106781186547,0.0));
#539=VECTOR('',#538,9.172589165551905);
#540=LINE('',#537,#539);
#541=EDGE_CURVE('',#512,#536,#540,.T.);
#542=ORIENTED_EDGE('',*,*,#541,.F.);
#543=ORIENTED_EDGE('',*,*,#525,.F.);
#544=ORIENTED_EDGE('',*,*,#173,.F.);
#545=CARTESIAN_POINT('',(-23.514000000000003,8.500000000000000,0.500000000000000));
#546=DIRECTION('',(0.0,0.0,-1.0));
#547=VECTOR('',#546,1.0);
#548=LINE('',#545,#547);
#549=EDGE_CURVE('',#160,#536,#548,.T.);
#550=ORIENTED_EDGE('',*,*,#549,.T.);
#551=EDGE_LOOP('',(#542,#543,#544,#550));
#552=FACE_OUTER_BOUND('',#551,.T.);
#553=ADVANCED_FACE('',(#552),#534,.F.);
#554=CARTESIAN_POINT('',(-20.000000000000014,8.500000000000000,0.500000000000000));
#555=DIRECTION('',(0.0,-1.0,0.0));
#556=DIRECTION('',(0.0,0.0,-1.0));
#557=AXIS2_PLACEMENT_3D('',#554,#555,#556);
#558=PLANE('',#557);
#559=CARTESIAN_POINT('',(-23.514000000000003,8.500000000000000,-0.500000000000000));
#560=DIRECTION('',(1.0,0.0,0.0));
#561=VECTOR('',#560,7.027999999999981);
#562=LINE('',#559,#561);
#563=EDGE_CURVE('',#536,#433,#562,.T.);
#564=ORIENTED_EDGE('',*,*,#563,.F.);
#565=ORIENTED_EDGE('',*,*,#549,.F.);
#566=ORIENTED_EDGE('',*,*,#165,.F.);
#567=ORIENTED_EDGE('',*,*,#446,.T.);
#568=EDGE_LOOP('',(#564,#565,#566,#567));
#569=FACE_OUTER_BOUND('',#568,.T.);
#570=ADVANCED_FACE('',(#569),#558,.F.);
#571=CARTESIAN_POINT('',(5.551115E-016,9.999999999999998,-0.500000000000000));
#572=DIRECTION('',(0.0,0.0,1.0));
#573=DIRECTION('',(1.0,0.0,0.0));
#574=AXIS2_PLACEMENT_3D('',#571,#572,#573);
#575=PLANE('',#574);
#576=ORIENTED_EDGE('',*,*,#75,.F.);
#577=CARTESIAN_POINT('',(40.0,0.0,-0.500000000000000));
#578=VERTEX_POINT('',#577);
#579=CARTESIAN_POINT('',(40.0,0.0,-0.500000000000000));
#580=DIRECTION('',(0.0,1.0,0.0));
#581=VECTOR('',#580,16.500000000000000);
#582=LINE('',#579,#581);
#583=EDGE_CURVE('',#578,#61,#582,.T.);
#584=ORIENTED_EDGE('',*,*,#583,.F.);
#585=CARTESIAN_POINT('',(-40.0,0.0,-0.500000000000000));
#586=VERTEX_POINT('',#585);
#587=CARTESIAN_POINT('',(-40.0,0.0,-0.500000000000000));
#588=DIRECTION('',(1.0,0.0,0.0));
#589=VECTOR('',#588,80.0);
#590=LINE('',#587,#589);
#591=EDGE_CURVE('',#586,#578,#590,.T.);
#592=ORIENTED_EDGE('',*,*,#591,.F.);
#593=CARTESIAN_POINT('',(-39.999999999999993,16.500000000000000,-0.500000000000000));
#594=DIRECTION('',(0.0,-1.0,0.0));
#595=VECTOR('',#594,16.500000000000000);
#596=LINE('',#593,#595);
#597=EDGE_CURVE('',#266,#586,#596,.T.);
#598=ORIENTED_EDGE('',*,*,#597,.F.);
#599=ORIENTED_EDGE('',*,*,#272,.F.);
#600=ORIENTED_EDGE('',*,*,#246,.F.);
#601=EDGE_LOOP('',(#576,#584,#592,#598,#599,#600));
#602=FACE_OUTER_BOUND('',#601,.T.);
#603=ORIENTED_EDGE('',*,*,#493,.T.);
#604=ORIENTED_EDGE('',*,*,#517,.T.);
#605=ORIENTED_EDGE('',*,*,#541,.T.);
#606=ORIENTED_EDGE('',*,*,#563,.T.);
#607=ORIENTED_EDGE('',*,*,#440,.T.);
#608=ORIENTED_EDGE('',*,*,#469,.T.);
#609=EDGE_LOOP('',(#603,#604,#605,#606,#607,#608));
#610=FACE_BOUND('',#609,.T.);
#611=ORIENTED_EDGE('',*,*,#296,.T.);
#612=ORIENTED_EDGE('',*,*,#325,.T.);
#613=ORIENTED_EDGE('',*,*,#349,.T.);
#614=ORIENTED_EDGE('',*,*,#373,.T.);
#615=ORIENTED_EDGE('',*,*,#397,.T.);
#616=ORIENTED_EDGE('',*,*,#419,.T.);
#617=EDGE_LOOP('',(#611,#612,#613,#614,#615,#616));
#618=FACE_BOUND('',#617,.T.);
#619=ADVANCED_FACE('',(#602,#610,#618),#575,.F.);
#620=CARTESIAN_POINT('',(-40.0,0.0,0.0));
#621=DIRECTION('',(-1.0,0.0,0.0));
#622=DIRECTION('',(0.0,0.0,1.0));
#623=AXIS2_PLACEMENT_3D('',#620,#621,#622);
#624=PLANE('',#623);
#625=ORIENTED_EDGE('',*,*,#278,.F.);
#626=ORIENTED_EDGE('',*,*,#597,.T.);
#627=CARTESIAN_POINT('',(-40.0,0.0,0.500000000000000));
#628=DIRECTION('',(0.0,0.0,-1.0));
#629=VECTOR('',#628,1.0);
#630=LINE('',#627,#629);
#631=EDGE_CURVE('',#110,#586,#630,.T.);
#632=ORIENTED_EDGE('',*,*,#631,.F.);
#633=ORIENTED_EDGE('',*,*,#115,.T.);
#634=EDGE_LOOP('',(#625,#626,#632,#633));
#635=FACE_OUTER_BOUND('',#634,.T.);
#636=ADVANCED_FACE('',(#635),#624,.T.);
#637=CARTESIAN_POINT('',(39.999999999999993,20.0,0.0));
#638=DIRECTION('',(1.0,0.0,0.0));
#639=DIRECTION('',(0.0,0.0,-1.0));
#640=AXIS2_PLACEMENT_3D('',#637,#638,#639);
#641=PLANE('',#640);
#642=ORIENTED_EDGE('',*,*,#66,.F.);
#643=ORIENTED_EDGE('',*,*,#129,.T.);
#644=CARTESIAN_POINT('',(40.0,0.0,-0.500000000000000));
#645=DIRECTION('',(0.0,0.0,1.0));
#646=VECTOR('',#645,1.0);
#647=LINE('',#644,#646);
#648=EDGE_CURVE('',#578,#118,#647,.T.);
#649=ORIENTED_EDGE('',*,*,#648,.F.);
#650=ORIENTED_EDGE('',*,*,#583,.T.);
#651=EDGE_LOOP('',(#642,#643,#649,#650));
#652=FACE_OUTER_BOUND('',#651,.T.);
#653=ADVANCED_FACE('',(#652),#641,.T.);
#654=CARTESIAN_POINT('',(40.0,0.0,0.0));
#655=DIRECTION('',(0.0,-1.0,0.0));
#656=DIRECTION('',(0.0,0.0,-1.0));
#657=AXIS2_PLACEMENT_3D('',#654,#655,#656);
#658=PLANE('',#657);
#659=ORIENTED_EDGE('',*,*,#123,.T.);
#660=ORIENTED_EDGE('',*,*,#631,.T.);
#661=ORIENTED_EDGE('',*,*,#591,.T.);
#662=ORIENTED_EDGE('',*,*,#648,.T.);
#663=EDGE_LOOP('',(#659,#660,#661,#662));
#664=FACE_OUTER_BOUND('',#663,.T.);
#665=ADVANCED_FACE('',(#664),#658,.T.);
#666=CLOSED_SHELL('',(#85,#233,#257,#282,#313,#337,#361,#385,#409,#426,#457,#481,#505,#529,#553,#570,#619,#636,#653,#665));
#667=MANIFOLD_SOLID_BREP('',#666);
#668=COLOUR_RGB('Metall-AL-6061 (gleichm.)',0.847059011459351,0.839215993881226,0.839215993881226);
#669=FILL_AREA_STYLE_COLOUR('Metall-AL-6061 (gleichm.)',#668);
#670=FILL_AREA_STYLE('Metall-AL-6061 (gleichm.)',(#669));
#671=SURFACE_STYLE_FILL_AREA(#670);
#672=SURFACE_SIDE_STYLE('Metall-AL-6061 (gleichm.)',(#671));
#673=SURFACE_STYLE_USAGE(.BOTH.,#672);
#674=PRESENTATION_STYLE_ASSIGNMENT((#673));
#675=STYLED_ITEM('',(#674),#667);
#676=MECHANICAL_DESIGN_GEOMETRIC_PRESENTATION_REPRESENTATION('',(#675),#36);
#677=ADVANCED_BREP_SHAPE_REPRESENTATION('ABSR',(#667),#36);
#678=SHAPE_REPRESENTATION_RELATIONSHIP('SRR','None',#677,#41);
ENDSEC;
END-ISO-10303-21;
