ISO-10303-21;
HEADER;
/* Generated by software containing ST-Developer
 * from STEP Tools, Inc. (www.steptools.com) 
 */

FILE_DESCRIPTION(
/* description */ ('Universalspanner 20'),
/* implementation_level */ '2;1');

FILE_NAME(
/* name */ 'Q:\\ExterneArtikel_Webseite_Palkat\\SV\\SV_step\\SV1804V_A.
stp',
/* time_stamp */ '2015-11-30T12:01:39+01:00',
/* author */ ('Marina Kaa'),
/* organization */ (''),
/* preprocessor_version */ 'ST-DEVELOPER v15.6',
/* originating_system */ 'Autodesk Inventor 2015',
/* authorisation */ '');

FILE_SCHEMA (('AUTOMOTIVE_DESIGN { 1 0 10303 214 3 1 1 }'));
ENDSEC;

DATA;
#10=MECHANICAL_DESIGN_GEOMETRIC_PRESENTATION_REPRESENTATION('',(#13),#398);
#11=SHAPE_REPRESENTATION_RELATIONSHIP('SRR','None',#407,#12);
#12=ADVANCED_BREP_SHAPE_REPRESENTATION($,(#14),#397);
#13=STYLED_ITEM('',(#416),#14);
#14=MANIFOLD_SOLID_BREP('Volumenk\X\F6rper1',#194);
#15=ELLIPSE('',#204,8.48528137423857,6.);
#16=ELLIPSE('',#206,8.48528137423857,6.);
#17=FACE_BOUND('',#53,.T.);
#18=FACE_BOUND('',#54,.T.);
#19=FACE_BOUND('',#55,.T.);
#20=FACE_BOUND('',#61,.T.);
#21=FACE_BOUND('',#63,.T.);
#22=FACE_BOUND('',#65,.T.);
#23=B_SPLINE_CURVE_WITH_KNOTS('',3,(#301,#302,#303,#304,#305,#306,#307,
#308,#309,#310,#311,#312,#313,#314,#315,#316,#317,#318),.UNSPECIFIED.,.F.,
 .F.,(4,2,2,2,2,2,2,2,4),(0.584863682662826,0.730499569865428,0.87613545706803,
1.02293141119684,1.16972736532565,1.31652331945446,1.46331927358327,1.60895516078588,
1.75459104798848),.UNSPECIFIED.);
#24=B_SPLINE_CURVE_WITH_KNOTS('',3,(#319,#320,#321,#322,#323,#324,#325,
#326,#327,#328,#329,#330,#331,#332,#333,#334,#335,#336,#337),
 .UNSPECIFIED.,.F.,.F.,(4,2,2,2,3,2,2,2,4),(1.75459104798848,1.90022693519108,
2.04586282239368,2.19265877652249,2.3394547306513,2.48625068478011,2.63304663890893,
2.77868252611153,2.92431841331413),.UNSPECIFIED.);
#25=B_SPLINE_CURVE_WITH_KNOTS('',3,(#339,#340,#341,#342,#343,#344,#345,
#346,#347,#348,#349,#350,#351,#352,#353,#354,#355,#356,#357,#358,#359,#360,
#361,#362,#363,#364,#365,#366,#367,#368,#369,#370,#371,#372),
 .UNSPECIFIED.,.T.,.F.,(4,2,2,2,2,2,2,2,2,2,2,2,2,2,2,2,4),(0.,0.0779241989864265,
0.155848397972853,0.233732474942134,0.311616551911416,0.389500628880697,
0.467384705849979,0.545308904836405,0.623233103822832,0.701157302809258,
0.779081501795685,0.856965578764966,0.934849655734247,1.01273373270353,
1.09061780967281,1.16854200865924,1.24646620764566),.UNSPECIFIED.);
#26=CYLINDRICAL_SURFACE('',#201,6.);
#27=CYLINDRICAL_SURFACE('',#212,2.05);
#28=CYLINDRICAL_SURFACE('',#214,3.75);
#29=CIRCLE('',#199,6.);
#30=CIRCLE('',#200,6.);
#31=CIRCLE('',#202,6.);
#32=CIRCLE('',#203,6.);
#33=CIRCLE('',#205,6.);
#34=CIRCLE('',#207,6.);
#35=CIRCLE('',#213,2.05);
#36=CIRCLE('',#215,3.75);
#37=FACE_OUTER_BOUND('',#49,.T.);
#38=FACE_OUTER_BOUND('',#50,.T.);
#39=FACE_OUTER_BOUND('',#51,.T.);
#40=FACE_OUTER_BOUND('',#52,.T.);
#41=FACE_OUTER_BOUND('',#56,.T.);
#42=FACE_OUTER_BOUND('',#57,.T.);
#43=FACE_OUTER_BOUND('',#58,.T.);
#44=FACE_OUTER_BOUND('',#59,.T.);
#45=FACE_OUTER_BOUND('',#60,.T.);
#46=FACE_OUTER_BOUND('',#62,.T.);
#47=FACE_OUTER_BOUND('',#64,.T.);
#48=FACE_OUTER_BOUND('',#66,.T.);
#49=EDGE_LOOP('',(#127,#128,#129,#130));
#50=EDGE_LOOP('',(#131,#132,#133,#134));
#51=EDGE_LOOP('',(#135,#136,#137,#138));
#52=EDGE_LOOP('',(#139,#140,#141,#142,#143,#144,#145,#146));
#53=EDGE_LOOP('',(#147,#148));
#54=EDGE_LOOP('',(#149));
#55=EDGE_LOOP('',(#150,#151,#152,#153));
#56=EDGE_LOOP('',(#154,#155));
#57=EDGE_LOOP('',(#156,#157));
#58=EDGE_LOOP('',(#158,#159));
#59=EDGE_LOOP('',(#160,#161,#162,#163));
#60=EDGE_LOOP('',(#164));
#61=EDGE_LOOP('',(#165));
#62=EDGE_LOOP('',(#166,#167));
#63=EDGE_LOOP('',(#168));
#64=EDGE_LOOP('',(#169));
#65=EDGE_LOOP('',(#170));
#66=EDGE_LOOP('',(#171,#172));
#67=LINE('',#278,#77);
#68=LINE('',#280,#78);
#69=LINE('',#282,#79);
#70=LINE('',#283,#80);
#71=LINE('',#287,#81);
#72=LINE('',#289,#82);
#73=LINE('',#291,#83);
#74=LINE('',#292,#84);
#75=LINE('',#383,#85);
#76=LINE('',#385,#86);
#77=VECTOR('',#222,0.2);
#78=VECTOR('',#223,11.9582607431014);
#79=VECTOR('',#224,0.2);
#80=VECTOR('',#225,11.9582607431014);
#81=VECTOR('',#228,0.2);
#82=VECTOR('',#229,11.9582607431014);
#83=VECTOR('',#230,0.2);
#84=VECTOR('',#231,11.9582607431014);
#85=VECTOR('',#256,10.9087121146357);
#86=VECTOR('',#259,10.9087121146357);
#87=VERTEX_POINT('',#276);
#88=VERTEX_POINT('',#277);
#89=VERTEX_POINT('',#279);
#90=VERTEX_POINT('',#281);
#91=VERTEX_POINT('',#285);
#92=VERTEX_POINT('',#286);
#93=VERTEX_POINT('',#288);
#94=VERTEX_POINT('',#290);
#95=VERTEX_POINT('',#299);
#96=VERTEX_POINT('',#300);
#97=VERTEX_POINT('',#338);
#98=VERTEX_POINT('',#373);
#99=VERTEX_POINT('',#374);
#100=VERTEX_POINT('',#376);
#101=VERTEX_POINT('',#378);
#102=VERTEX_POINT('',#388);
#103=VERTEX_POINT('',#391);
#104=EDGE_CURVE('',#87,#88,#67,.T.);
#105=EDGE_CURVE('',#89,#87,#68,.T.);
#106=EDGE_CURVE('',#90,#89,#69,.T.);
#107=EDGE_CURVE('',#88,#90,#70,.T.);
#108=EDGE_CURVE('',#91,#92,#71,.T.);
#109=EDGE_CURVE('',#93,#91,#72,.T.);
#110=EDGE_CURVE('',#94,#93,#73,.T.);
#111=EDGE_CURVE('',#92,#94,#74,.T.);
#112=EDGE_CURVE('',#92,#87,#29,.T.);
#113=EDGE_CURVE('',#89,#94,#30,.T.);
#114=EDGE_CURVE('',#93,#91,#31,.T.);
#115=EDGE_CURVE('',#88,#90,#32,.T.);
#116=EDGE_CURVE('',#95,#96,#23,.T.);
#117=EDGE_CURVE('',#96,#95,#24,.T.);
#118=EDGE_CURVE('',#97,#97,#25,.T.);
#119=EDGE_CURVE('',#98,#99,#15,.T.);
#120=EDGE_CURVE('',#99,#100,#33,.T.);
#121=EDGE_CURVE('',#100,#101,#16,.T.);
#122=EDGE_CURVE('',#101,#98,#34,.T.);
#123=EDGE_CURVE('',#99,#98,#75,.T.);
#124=EDGE_CURVE('',#101,#100,#76,.T.);
#125=EDGE_CURVE('',#102,#102,#35,.T.);
#126=EDGE_CURVE('',#103,#103,#36,.T.);
#127=ORIENTED_EDGE('',*,*,#104,.F.);
#128=ORIENTED_EDGE('',*,*,#105,.F.);
#129=ORIENTED_EDGE('',*,*,#106,.F.);
#130=ORIENTED_EDGE('',*,*,#107,.F.);
#131=ORIENTED_EDGE('',*,*,#108,.F.);
#132=ORIENTED_EDGE('',*,*,#109,.F.);
#133=ORIENTED_EDGE('',*,*,#110,.F.);
#134=ORIENTED_EDGE('',*,*,#111,.F.);
#135=ORIENTED_EDGE('',*,*,#112,.F.);
#136=ORIENTED_EDGE('',*,*,#111,.T.);
#137=ORIENTED_EDGE('',*,*,#113,.F.);
#138=ORIENTED_EDGE('',*,*,#105,.T.);
#139=ORIENTED_EDGE('',*,*,#106,.T.);
#140=ORIENTED_EDGE('',*,*,#113,.T.);
#141=ORIENTED_EDGE('',*,*,#110,.T.);
#142=ORIENTED_EDGE('',*,*,#114,.T.);
#143=ORIENTED_EDGE('',*,*,#108,.T.);
#144=ORIENTED_EDGE('',*,*,#112,.T.);
#145=ORIENTED_EDGE('',*,*,#104,.T.);
#146=ORIENTED_EDGE('',*,*,#115,.T.);
#147=ORIENTED_EDGE('',*,*,#116,.T.);
#148=ORIENTED_EDGE('',*,*,#117,.T.);
#149=ORIENTED_EDGE('',*,*,#118,.T.);
#150=ORIENTED_EDGE('',*,*,#119,.T.);
#151=ORIENTED_EDGE('',*,*,#120,.T.);
#152=ORIENTED_EDGE('',*,*,#121,.T.);
#153=ORIENTED_EDGE('',*,*,#122,.T.);
#154=ORIENTED_EDGE('',*,*,#109,.T.);
#155=ORIENTED_EDGE('',*,*,#114,.F.);
#156=ORIENTED_EDGE('',*,*,#119,.F.);
#157=ORIENTED_EDGE('',*,*,#123,.F.);
#158=ORIENTED_EDGE('',*,*,#121,.F.);
#159=ORIENTED_EDGE('',*,*,#124,.F.);
#160=ORIENTED_EDGE('',*,*,#123,.T.);
#161=ORIENTED_EDGE('',*,*,#122,.F.);
#162=ORIENTED_EDGE('',*,*,#124,.T.);
#163=ORIENTED_EDGE('',*,*,#120,.F.);
#164=ORIENTED_EDGE('',*,*,#118,.F.);
#165=ORIENTED_EDGE('',*,*,#125,.F.);
#166=ORIENTED_EDGE('',*,*,#116,.F.);
#167=ORIENTED_EDGE('',*,*,#117,.F.);
#168=ORIENTED_EDGE('',*,*,#126,.F.);
#169=ORIENTED_EDGE('',*,*,#126,.T.);
#170=ORIENTED_EDGE('',*,*,#125,.T.);
#171=ORIENTED_EDGE('',*,*,#107,.T.);
#172=ORIENTED_EDGE('',*,*,#115,.F.);
#173=PLANE('',#196);
#174=PLANE('',#197);
#175=PLANE('',#198);
#176=PLANE('',#208);
#177=PLANE('',#209);
#178=PLANE('',#210);
#179=PLANE('',#211);
#180=PLANE('',#216);
#181=PLANE('',#217);
#182=ADVANCED_FACE('',(#37),#173,.F.);
#183=ADVANCED_FACE('',(#38),#174,.F.);
#184=ADVANCED_FACE('',(#39),#175,.F.);
#185=ADVANCED_FACE('',(#40,#17,#18,#19),#26,.T.);
#186=ADVANCED_FACE('',(#41),#176,.T.);
#187=ADVANCED_FACE('',(#42),#177,.F.);
#188=ADVANCED_FACE('',(#43),#178,.F.);
#189=ADVANCED_FACE('',(#44),#179,.F.);
#190=ADVANCED_FACE('',(#45,#20),#27,.F.);
#191=ADVANCED_FACE('',(#46,#21),#28,.F.);
#192=ADVANCED_FACE('',(#47,#22),#180,.T.);
#193=ADVANCED_FACE('',(#48),#181,.T.);
#194=CLOSED_SHELL('',(#182,#183,#184,#185,#186,#187,#188,#189,#190,#191,
#192,#193));
#195=AXIS2_PLACEMENT_3D('placement',#274,#218,#219);
#196=AXIS2_PLACEMENT_3D('',#275,#220,#221);
#197=AXIS2_PLACEMENT_3D('',#284,#226,#227);
#198=AXIS2_PLACEMENT_3D('',#293,#232,#233);
#199=AXIS2_PLACEMENT_3D('',#294,#234,#235);
#200=AXIS2_PLACEMENT_3D('',#295,#236,#237);
#201=AXIS2_PLACEMENT_3D('',#296,#238,#239);
#202=AXIS2_PLACEMENT_3D('',#297,#240,#241);
#203=AXIS2_PLACEMENT_3D('',#298,#242,#243);
#204=AXIS2_PLACEMENT_3D('',#375,#244,#245);
#205=AXIS2_PLACEMENT_3D('',#377,#246,#247);
#206=AXIS2_PLACEMENT_3D('',#379,#248,#249);
#207=AXIS2_PLACEMENT_3D('',#380,#250,#251);
#208=AXIS2_PLACEMENT_3D('',#381,#252,#253);
#209=AXIS2_PLACEMENT_3D('',#382,#254,#255);
#210=AXIS2_PLACEMENT_3D('',#384,#257,#258);
#211=AXIS2_PLACEMENT_3D('',#386,#260,#261);
#212=AXIS2_PLACEMENT_3D('',#387,#262,#263);
#213=AXIS2_PLACEMENT_3D('',#389,#264,#265);
#214=AXIS2_PLACEMENT_3D('',#390,#266,#267);
#215=AXIS2_PLACEMENT_3D('',#392,#268,#269);
#216=AXIS2_PLACEMENT_3D('',#393,#270,#271);
#217=AXIS2_PLACEMENT_3D('',#394,#272,#273);
#218=DIRECTION('axis',(0.,0.,1.));
#219=DIRECTION('refdir',(1.,0.,0.));
#220=DIRECTION('center_axis',(-1.,-2.99795262464718E-16,0.));
#221=DIRECTION('ref_axis',(0.,0.,1.));
#222=DIRECTION('',(0.,0.,-1.));
#223=DIRECTION('',(-2.99795262464718E-16,1.,0.));
#224=DIRECTION('',(0.,0.,1.));
#225=DIRECTION('',(2.99795262464718E-16,-1.,0.));
#226=DIRECTION('center_axis',(1.,-2.99795262464718E-16,0.));
#227=DIRECTION('ref_axis',(0.,0.,-1.));
#228=DIRECTION('',(0.,0.,1.));
#229=DIRECTION('',(2.99795262464718E-16,1.,0.));
#230=DIRECTION('',(0.,0.,-1.));
#231=DIRECTION('',(-2.99795262464718E-16,-1.,0.));
#232=DIRECTION('center_axis',(-4.59923568808897E-32,-2.577679780357E-32,
1.));
#233=DIRECTION('ref_axis',(1.,0.,0.));
#234=DIRECTION('center_axis',(-4.59923568808897E-32,-2.577679780357E-32,
1.));
#235=DIRECTION('ref_axis',(-1.,0.,0.));
#236=DIRECTION('center_axis',(-4.59923568808897E-32,-2.577679780357E-32,
1.));
#237=DIRECTION('ref_axis',(-1.,0.,0.));
#238=DIRECTION('center_axis',(0.,0.,1.));
#239=DIRECTION('ref_axis',(-1.,0.,0.));
#240=DIRECTION('center_axis',(0.,0.,1.));
#241=DIRECTION('ref_axis',(-1.,0.,0.));
#242=DIRECTION('center_axis',(0.,0.,1.));
#243=DIRECTION('ref_axis',(-1.,0.,0.));
#244=DIRECTION('center_axis',(-0.707106781186548,0.,-0.707106781186548));
#245=DIRECTION('ref_axis',(-0.707106781186548,0.,0.707106781186548));
#246=DIRECTION('center_axis',(0.,0.,-1.));
#247=DIRECTION('ref_axis',(-1.,0.,0.));
#248=DIRECTION('center_axis',(0.707106781186547,0.,-0.707106781186548));
#249=DIRECTION('ref_axis',(-0.707106781186548,0.,-0.707106781186547));
#250=DIRECTION('center_axis',(0.,0.,-1.));
#251=DIRECTION('ref_axis',(-1.,0.,0.));
#252=DIRECTION('center_axis',(0.,0.,-1.));
#253=DIRECTION('ref_axis',(-1.,0.,0.));
#254=DIRECTION('center_axis',(-0.707106781186548,0.,-0.707106781186548));
#255=DIRECTION('ref_axis',(-0.707106781186548,0.,0.707106781186548));
#256=DIRECTION('',(0.,1.,0.));
#257=DIRECTION('center_axis',(0.707106781186547,0.,-0.707106781186548));
#258=DIRECTION('ref_axis',(-0.707106781186548,0.,-0.707106781186548));
#259=DIRECTION('',(0.,-1.,0.));
#260=DIRECTION('center_axis',(0.,0.,-1.));
#261=DIRECTION('ref_axis',(-1.,0.,0.));
#262=DIRECTION('center_axis',(0.,1.,0.));
#263=DIRECTION('ref_axis',(-1.,0.,0.));
#264=DIRECTION('center_axis',(0.,1.,0.));
#265=DIRECTION('ref_axis',(-1.,0.,0.));
#266=DIRECTION('center_axis',(0.,1.,0.));
#267=DIRECTION('ref_axis',(1.,0.,0.));
#268=DIRECTION('center_axis',(0.,-1.,0.));
#269=DIRECTION('ref_axis',(1.,0.,0.));
#270=DIRECTION('center_axis',(0.,-1.,0.));
#271=DIRECTION('ref_axis',(0.,0.,-1.));
#272=DIRECTION('center_axis',(0.,0.,-1.));
#273=DIRECTION('ref_axis',(-1.,0.,0.));
#274=CARTESIAN_POINT('',(0.,0.,0.));
#275=CARTESIAN_POINT('Origin',(-0.499999999999995,-7.66899504424114,-4.25));
#276=CARTESIAN_POINT('',(-0.499999999999999,5.9791303715507,-4.05));
#277=CARTESIAN_POINT('',(-0.499999999999999,5.9791303715507,-4.25));
#278=CARTESIAN_POINT('',(-0.499999999999999,5.9791303715507,0.));
#279=CARTESIAN_POINT('',(-0.499999999999996,-5.9791303715507,-4.05));
#280=CARTESIAN_POINT('',(-0.499999999999995,-7.66899504424114,-4.05));
#281=CARTESIAN_POINT('',(-0.499999999999996,-5.9791303715507,-4.25));
#282=CARTESIAN_POINT('',(-0.499999999999996,-5.9791303715507,0.));
#283=CARTESIAN_POINT('',(-0.499999999999996,-3.83449752212057,-4.25));
#284=CARTESIAN_POINT('Origin',(0.5,9.22717772449433,-4.25));
#285=CARTESIAN_POINT('',(0.499999999999999,5.9791303715507,-4.25));
#286=CARTESIAN_POINT('',(0.499999999999999,5.9791303715507,-4.05));
#287=CARTESIAN_POINT('',(0.499999999999999,5.9791303715507,0.));
#288=CARTESIAN_POINT('',(0.499999999999995,-5.9791303715507,-4.25));
#289=CARTESIAN_POINT('',(0.499999999999999,4.61358886224716,-4.25));
#290=CARTESIAN_POINT('',(0.499999999999995,-5.9791303715507,-4.05));
#291=CARTESIAN_POINT('',(0.499999999999995,-5.9791303715507,0.));
#292=CARTESIAN_POINT('',(0.5,9.22717772449433,-4.05));
#293=CARTESIAN_POINT('Origin',(0.,0.779091340126599,-4.05));
#294=CARTESIAN_POINT('Origin',(0.,0.,-4.05));
#295=CARTESIAN_POINT('Origin',(0.,0.,-4.05));
#296=CARTESIAN_POINT('Origin',(0.,0.,0.));
#297=CARTESIAN_POINT('Origin',(0.,0.,-4.25));
#298=CARTESIAN_POINT('Origin',(0.,0.,-4.25));
#299=CARTESIAN_POINT('',(0.,-6.,3.75));
#300=CARTESIAN_POINT('',(0.,-6.,-3.75));
#301=CARTESIAN_POINT('Ctrl Pts',(0.,-6.,3.75));
#302=CARTESIAN_POINT('Ctrl Pts',(0.485452957342007,-6.,3.75));
#303=CARTESIAN_POINT('Ctrl Pts',(0.994237681249782,-5.9360432162911,3.65012375476837));
#304=CARTESIAN_POINT('Ctrl Pts',(1.91486207746131,-5.7059986404395,3.26270045779975));
#305=CARTESIAN_POINT('Ctrl Pts',(2.32749016832195,-5.54196483345595,2.97581069057715));
#306=CARTESIAN_POINT('Ctrl Pts',(2.97839279863409,-5.2212881240156,2.32490806026502));
#307=CARTESIAN_POINT('Ctrl Pts',(3.26351582582712,-5.04035321119823,1.91294052328615));
#308=CARTESIAN_POINT('Ctrl Pts',(3.64934088683886,-4.768439378635,0.996082005025687));
#309=CARTESIAN_POINT('Ctrl Pts',(3.75,-4.6837484987988,0.489319847096037));
#310=CARTESIAN_POINT('Ctrl Pts',(3.75,-4.6837484987988,-0.489319847096036));
#311=CARTESIAN_POINT('Ctrl Pts',(3.64934088683886,-4.768439378635,-0.996082005025685));
#312=CARTESIAN_POINT('Ctrl Pts',(3.26351582582712,-5.04035321119823,-1.91294052328614));
#313=CARTESIAN_POINT('Ctrl Pts',(2.97839279863409,-5.2212881240156,-2.32490806026501));
#314=CARTESIAN_POINT('Ctrl Pts',(2.32749016832195,-5.54196483345595,-2.97581069057715));
#315=CARTESIAN_POINT('Ctrl Pts',(1.91486207746131,-5.7059986404395,-3.26270045779975));
#316=CARTESIAN_POINT('Ctrl Pts',(0.994237681249784,-5.9360432162911,-3.65012375476837));
#317=CARTESIAN_POINT('Ctrl Pts',(0.485452957342007,-6.,-3.75));
#318=CARTESIAN_POINT('Ctrl Pts',(1.38777878078145E-16,-6.,-3.75));
#319=CARTESIAN_POINT('Ctrl Pts',(-1.38777878078145E-16,-6.,-3.75));
#320=CARTESIAN_POINT('Ctrl Pts',(-0.485452957342006,-6.,-3.75));
#321=CARTESIAN_POINT('Ctrl Pts',(-0.99423768124978,-5.9360432162911,-3.65012375476837));
#322=CARTESIAN_POINT('Ctrl Pts',(-1.9148620774613,-5.7059986404395,-3.26270045779975));
#323=CARTESIAN_POINT('Ctrl Pts',(-2.32749016832195,-5.54196483345595,-2.97581069057715));
#324=CARTESIAN_POINT('Ctrl Pts',(-2.97839279863409,-5.2212881240156,-2.32490806026502));
#325=CARTESIAN_POINT('Ctrl Pts',(-3.26351582582712,-5.04035321119823,-1.91294052328615));
#326=CARTESIAN_POINT('Ctrl Pts',(-3.64934088683886,-4.768439378635,-0.996082005025687));
#327=CARTESIAN_POINT('Ctrl Pts',(-3.75,-4.6837484987988,-0.489319847096037));
#328=CARTESIAN_POINT('Ctrl Pts',(-3.75,-4.6837484987988,0.));
#329=CARTESIAN_POINT('Ctrl Pts',(-3.75,-4.6837484987988,0.489319847096036));
#330=CARTESIAN_POINT('Ctrl Pts',(-3.64934088683886,-4.768439378635,0.996082005025686));
#331=CARTESIAN_POINT('Ctrl Pts',(-3.26351582582712,-5.04035321119823,1.91294052328614));
#332=CARTESIAN_POINT('Ctrl Pts',(-2.97839279863409,-5.2212881240156,2.32490806026501));
#333=CARTESIAN_POINT('Ctrl Pts',(-2.32749016832195,-5.54196483345595,2.97581069057715));
#334=CARTESIAN_POINT('Ctrl Pts',(-1.91486207746131,-5.7059986404395,3.26270045779975));
#335=CARTESIAN_POINT('Ctrl Pts',(-0.994237681249783,-5.9360432162911,3.65012375476837));
#336=CARTESIAN_POINT('Ctrl Pts',(-0.485452957342007,-6.,3.75));
#337=CARTESIAN_POINT('Ctrl Pts',(0.,-6.,3.75));
#338=CARTESIAN_POINT('',(-2.05,5.63892720293497,0.));
#339=CARTESIAN_POINT('Ctrl Pts',(-2.05,5.63892720293497,6.93889390390723E-17));
#340=CARTESIAN_POINT('Ctrl Pts',(-2.05,5.63892720293497,-0.259747329954755));
#341=CARTESIAN_POINT('Ctrl Pts',(-1.9976589619672,5.65876147406802,-0.535219822618419));
#342=CARTESIAN_POINT('Ctrl Pts',(-1.78783870899913,5.72851244830325,-1.03958409632208));
#343=CARTESIAN_POINT('Ctrl Pts',(-1.63045626516153,5.77722777848141,-1.26868153770331));
#344=CARTESIAN_POINT('Ctrl Pts',(-1.26877467393061,5.86727564463728,-1.63036312893423));
#345=CARTESIAN_POINT('Ctrl Pts',(-1.03964034130717,5.91471838033125,-1.78781715760813));
#346=CARTESIAN_POINT('Ctrl Pts',(-0.535138498049512,5.98150251569764,-1.99769094661176));
#347=CARTESIAN_POINT('Ctrl Pts',(-0.259613589897604,6.,-2.05));
#348=CARTESIAN_POINT('Ctrl Pts',(0.259613589897605,6.,-2.05));
#349=CARTESIAN_POINT('Ctrl Pts',(0.535138498049513,5.98150251569764,-1.99769094661176));
#350=CARTESIAN_POINT('Ctrl Pts',(1.03964034130717,5.91471838033125,-1.78781715760813));
#351=CARTESIAN_POINT('Ctrl Pts',(1.26877467393061,5.86727564463728,-1.63036312893423));
#352=CARTESIAN_POINT('Ctrl Pts',(1.63045626516153,5.77722777848141,-1.26868153770331));
#353=CARTESIAN_POINT('Ctrl Pts',(1.78783870899913,5.72851244830325,-1.03958409632208));
#354=CARTESIAN_POINT('Ctrl Pts',(1.9976589619672,5.65876147406802,-0.535219822618419));
#355=CARTESIAN_POINT('Ctrl Pts',(2.05,5.63892720293497,-0.259747329954755));
#356=CARTESIAN_POINT('Ctrl Pts',(2.05,5.63892720293497,0.259747329954755));
#357=CARTESIAN_POINT('Ctrl Pts',(1.9976589619672,5.65876147406802,0.53521982261842));
#358=CARTESIAN_POINT('Ctrl Pts',(1.78783870899913,5.72851244830325,1.03958409632208));
#359=CARTESIAN_POINT('Ctrl Pts',(1.63045626516153,5.77722777848141,1.26868153770331));
#360=CARTESIAN_POINT('Ctrl Pts',(1.26877467393061,5.86727564463728,1.63036312893423));
#361=CARTESIAN_POINT('Ctrl Pts',(1.03964034130717,5.91471838033125,1.78781715760813));
#362=CARTESIAN_POINT('Ctrl Pts',(0.535138498049513,5.98150251569764,1.99769094661176));
#363=CARTESIAN_POINT('Ctrl Pts',(0.259613589897605,6.,2.05));
#364=CARTESIAN_POINT('Ctrl Pts',(-0.259613589897605,6.,2.05));
#365=CARTESIAN_POINT('Ctrl Pts',(-0.535138498049514,5.98150251569764,1.99769094661176));
#366=CARTESIAN_POINT('Ctrl Pts',(-1.03964034130717,5.91471838033125,1.78781715760813));
#367=CARTESIAN_POINT('Ctrl Pts',(-1.26877467393061,5.86727564463728,1.63036312893423));
#368=CARTESIAN_POINT('Ctrl Pts',(-1.63045626516153,5.77722777848141,1.26868153770331));
#369=CARTESIAN_POINT('Ctrl Pts',(-1.78783870899913,5.72851244830325,1.03958409632208));
#370=CARTESIAN_POINT('Ctrl Pts',(-1.9976589619672,5.65876147406802,0.53521982261842));
#371=CARTESIAN_POINT('Ctrl Pts',(-2.05,5.63892720293497,0.259747329954755));
#372=CARTESIAN_POINT('Ctrl Pts',(-2.05,5.63892720293497,0.));
#373=CARTESIAN_POINT('',(2.5,5.45435605731786,4.25));
#374=CARTESIAN_POINT('',(2.5,-5.45435605731786,4.25));
#375=CARTESIAN_POINT('Origin',(0.,0.,6.75));
#376=CARTESIAN_POINT('',(-2.5,-5.45435605731786,4.25));
#377=CARTESIAN_POINT('Origin',(0.,0.,4.25));
#378=CARTESIAN_POINT('',(-2.5,5.45435605731786,4.25));
#379=CARTESIAN_POINT('Origin',(0.,0.,6.75));
#380=CARTESIAN_POINT('Origin',(0.,0.,4.25));
#381=CARTESIAN_POINT('Origin',(0.,0.,-4.25));
#382=CARTESIAN_POINT('Origin',(2.5,-6.,4.25));
#383=CARTESIAN_POINT('',(2.5,-3.,4.25));
#384=CARTESIAN_POINT('Origin',(-6.,-6.,0.75));
#385=CARTESIAN_POINT('',(-2.5,-3.,4.25));
#386=CARTESIAN_POINT('Origin',(0.,0.,4.25));
#387=CARTESIAN_POINT('Origin',(0.,0.499999999999999,0.));
#388=CARTESIAN_POINT('',(2.05,0.499999999999999,2.51044302533587E-16));
#389=CARTESIAN_POINT('Origin',(0.,0.499999999999999,0.));
#390=CARTESIAN_POINT('Origin',(0.,-6.,0.));
#391=CARTESIAN_POINT('',(-3.75,0.499999999999999,4.59227382683391E-16));
#392=CARTESIAN_POINT('Origin',(0.,0.499999999999999,0.));
#393=CARTESIAN_POINT('Origin',(0.,0.499999999999999,0.));
#394=CARTESIAN_POINT('Origin',(0.,0.,-4.25));
#395=UNCERTAINTY_MEASURE_WITH_UNIT(LENGTH_MEASURE(0.01),#399,
'DISTANCE_ACCURACY_VALUE',
'Maximum model space distance between geometric entities at asserted c
onnectivities');
#396=UNCERTAINTY_MEASURE_WITH_UNIT(LENGTH_MEASURE(1.E-6),#399,
'DISTANCE_ACCURACY_VALUE',
'Maximum model space distance between geometric entities at asserted c
onnectivities');
#397=(
GEOMETRIC_REPRESENTATION_CONTEXT(3)
GLOBAL_UNCERTAINTY_ASSIGNED_CONTEXT((#395))
GLOBAL_UNIT_ASSIGNED_CONTEXT((#399,#402,#400))
REPRESENTATION_CONTEXT('','3D')
);
#398=(
GEOMETRIC_REPRESENTATION_CONTEXT(3)
GLOBAL_UNCERTAINTY_ASSIGNED_CONTEXT((#396))
GLOBAL_UNIT_ASSIGNED_CONTEXT((#399,#402,#400))
REPRESENTATION_CONTEXT('','3D')
);
#399=(
LENGTH_UNIT()
NAMED_UNIT(*)
SI_UNIT(.MILLI.,.METRE.)
);
#400=(
NAMED_UNIT(*)
SI_UNIT($,.STERADIAN.)
SOLID_ANGLE_UNIT()
);
#401=DIMENSIONAL_EXPONENTS(0.,0.,0.,0.,0.,0.,0.);
#402=(
CONVERSION_BASED_UNIT('degree',#404)
NAMED_UNIT(#401)
PLANE_ANGLE_UNIT()
);
#403=(
NAMED_UNIT(*)
PLANE_ANGLE_UNIT()
SI_UNIT($,.RADIAN.)
);
#404=PLANE_ANGLE_MEASURE_WITH_UNIT(PLANE_ANGLE_MEASURE(0.01745329252),#403);
#405=SHAPE_DEFINITION_REPRESENTATION(#406,#407);
#406=PRODUCT_DEFINITION_SHAPE('',$,#409);
#407=SHAPE_REPRESENTATION('',(#195),#397);
#408=PRODUCT_DEFINITION_CONTEXT('part definition',#413,'design');
#409=PRODUCT_DEFINITION('SV1804V_A','SV1804V_A',#410,#408);
#410=PRODUCT_DEFINITION_FORMATION('',$,#415);
#411=PRODUCT_RELATED_PRODUCT_CATEGORY('SV1804V_A','SV1804V_A',(#415));
#412=APPLICATION_PROTOCOL_DEFINITION('international standard',
'automotive_design',2009,#413);
#413=APPLICATION_CONTEXT(
'Core Data for Automotive Mechanical Design Process');
#414=PRODUCT_CONTEXT('part definition',#413,'mechanical');
#415=PRODUCT('SV1804V_A','SV1804V_A',$,(#414));
#416=PRESENTATION_STYLE_ASSIGNMENT((#417));
#417=SURFACE_STYLE_USAGE(.BOTH.,#418);
#418=SURFACE_SIDE_STYLE($,(#419));
#419=SURFACE_STYLE_FILL_AREA(#420);
#420=FILL_AREA_STYLE($,(#421));
#421=FILL_AREA_STYLE_COLOUR($,#422);
#422=COLOUR_RGB('',0.63921568627451,0.63921568627451,0.686274509803922);
ENDSEC;
END-ISO-10303-21;
