ISO-10303-21;
HEADER;
/****************************************************************
 * Generated by software with PDE/Lib inside                    *
 * PDElib Version v51a, created Tue 12/06/2005                  *
 * International Technegroup Inc. (www.iti-oh.com)              *
 ****************************************************************/
FILE_DESCRIPTION((''),'2;1');
FILE_NAME('U:\\Paletti Norm\\Paletti Artikel f. Palkat\\STEP\\SV4121V.ipt.step','2007-09-10T15:15:18',(''),(''),'Autodesk Inventor 11','Autodesk Inventor 11','');
FILE_SCHEMA(('AUTOMOTIVE_DESIGN { 1 0 10303 214 1 1 1 1 }'));
ENDSEC;
DATA;
#5=APPLICATION_CONTEXT('automotive design');
#6=APPLICATION_PROTOCOL_DEFINITION('International Standard','automotive_design',2001,#5);
#7=PRODUCT_CONTEXT('',#5,'mechanical');
#8=PRODUCT('SV4121V','SV4121V',$,(#7));
#9=PRODUCT_RELATED_PRODUCT_CATEGORY('part',$,(#8));
#10=PRODUCT_DEFINITION_FORMATION('',$,#8);
#11=PRODUCT_DEFINITION_CONTEXT('part definition',#5,'design');
#12=PRODUCT_DEFINITION('',$,#10,#11);
#18=(NAMED_UNIT(*)PLANE_ANGLE_UNIT()SI_UNIT($,.RADIAN.));
#19=DIMENSIONAL_EXPONENTS(0.0,0.0,0.0,0.0,0.0,0.0,0.0);
#20=PLANE_ANGLE_MEASURE_WITH_UNIT(PLANE_ANGLE_MEASURE(0.017453292500000),#18);
#24=(CONVERSION_BASED_UNIT('DEGREE',#20)NAMED_UNIT(#19)PLANE_ANGLE_UNIT());
#28=(NAMED_UNIT(*)SI_UNIT($,.STERADIAN.)SOLID_ANGLE_UNIT());
#32=(LENGTH_UNIT()NAMED_UNIT(*)SI_UNIT(.MILLI.,.METRE.));
#34=UNCERTAINTY_MEASURE_WITH_UNIT(LENGTH_MEASURE(0.010000000000000),#32,'DISTANCE_ACCURACY_VALUE','');
#36=(GEOMETRIC_REPRESENTATION_CONTEXT(3)GLOBAL_UNCERTAINTY_ASSIGNED_CONTEXT((#34))GLOBAL_UNIT_ASSIGNED_CONTEXT((#24,#28,#32))REPRESENTATION_CONTEXT('None','None'));
#37=AXIS2_PLACEMENT_3D('',#38,#39,#40);
#38=CARTESIAN_POINT('',(0.0,0.0,0.0));
#39=DIRECTION('',(0.0,0.0,1.0));
#40=DIRECTION('',(1.0,0.0,0.0));
#41=SHAPE_REPRESENTATION('',(#37),#36);
#42=PRODUCT_DEFINITION_SHAPE('','',#12);
#43=SHAPE_DEFINITION_REPRESENTATION(#42,#41);
#44=CARTESIAN_POINT('',(6.250000000000000,12.500000000000009,2.500000000000000));
#45=CARTESIAN_POINT('',(6.250000000000000,12.500000000000009,-2.500000000000000));
#46=CARTESIAN_POINT('',(6.250000000000003,6.250000000000012,2.500000000000000));
#47=CARTESIAN_POINT('',(6.250000000000003,6.250000000000012,-2.500000000000000));
#48=CARTESIAN_POINT('',(12.500000000000000,6.250000000000009,2.500000000000000));
#49=CARTESIAN_POINT('',(12.500000000000000,6.250000000000009,-2.500000000000000));
#50=CARTESIAN_POINT('',(18.750000000000000,6.250000000000012,2.500000000000000));
#51=CARTESIAN_POINT('',(18.750000000000000,6.250000000000012,-2.500000000000000));
#52=CARTESIAN_POINT('',(18.750000000000000,12.500000000000009,2.500000000000000));
#53=CARTESIAN_POINT('',(18.750000000000000,12.500000000000009,-2.500000000000000));
#54=CARTESIAN_POINT('',(18.750000000000000,18.750000000000007,2.500000000000000));
#55=CARTESIAN_POINT('',(18.750000000000000,18.750000000000007,-2.500000000000000));
#56=CARTESIAN_POINT('',(12.500000000000000,18.750000000000007,2.500000000000000));
#57=CARTESIAN_POINT('',(12.500000000000000,18.750000000000007,-2.500000000000000));
#58=CARTESIAN_POINT('',(6.250000000000003,18.750000000000007,2.500000000000000));
#59=CARTESIAN_POINT('',(6.250000000000003,18.750000000000007,-2.500000000000000));
#60=CARTESIAN_POINT('',(6.250000000000000,12.500000000000009,2.500000000000000));
#61=CARTESIAN_POINT('',(6.250000000000000,12.500000000000009,-2.500000000000000));
#69=(BOUNDED_SURFACE()B_SPLINE_SURFACE(1,2,((#44,#46,#48,#50,#52,#54,#56,#58,#60),(#45,#47,#49,#51,#53,#55,#57,#59,#61)),.UNSPECIFIED.,.F.,.T.,.U.)B_SPLINE_SURFACE_WITH_KNOTS((2,2),(3,2,2,2,3),(-9.537127450128788,-8.737127450128787),(0.0,9.817477042468104,19.634954084936208,29.452431127404310,39.269908169872416),.UNSPECIFIED.)GEOMETRIC_REPRESENTATION_ITEM()RATIONAL_B_SPLINE_SURFACE(((1.0,0.707106781186548,1.0,0.707106781186548,1.0,0.707106781186548,1.0,0.707106781186548,1.0),(1.0,0.707106781186548,1.0,0.707106781186548,1.0,0.707106781186548,1.0,0.707106781186548,1.0)))REPRESENTATION_ITEM('')SURFACE());
#70=CARTESIAN_POINT('',(6.250000000000000,12.500000000000009,-2.500000000000000));
#71=VERTEX_POINT('',#70);
#72=CARTESIAN_POINT('',(12.500000000000000,12.500000000000009,-2.500000000000000));
#73=DIRECTION('',(0.0,0.0,1.0));
#74=DIRECTION('',(1.0,0.0,0.0));
#75=AXIS2_PLACEMENT_3D('',#72,#73,#74);
#76=CIRCLE('',#75,6.250000000000000);
#77=EDGE_CURVE('',#71,#71,#76,.T.);
#78=ORIENTED_EDGE('',*,*,#77,.F.);
#79=EDGE_LOOP('',(#78));
#80=FACE_OUTER_BOUND('',#79,.T.);
#81=CARTESIAN_POINT('',(18.750000000000000,12.500000000000009,2.500000000000000));
#82=VERTEX_POINT('',#81);
#83=CARTESIAN_POINT('',(12.500000000000000,12.500000000000009,2.500000000000000));
#84=DIRECTION('',(0.0,0.0,-1.0));
#85=DIRECTION('',(1.0,0.0,0.0));
#86=AXIS2_PLACEMENT_3D('',#83,#84,#85);
#87=CIRCLE('',#86,6.250000000000000);
#88=EDGE_CURVE('',#82,#82,#87,.T.);
#89=ORIENTED_EDGE('',*,*,#88,.F.);
#90=EDGE_LOOP('',(#89));
#91=FACE_BOUND('',#90,.T.);
#92=ADVANCED_FACE('',(#80,#91),#69,.F.);
#93=CARTESIAN_POINT('',(-18.750000000000000,12.500000000000004,2.500000000000000));
#94=CARTESIAN_POINT('',(-18.750000000000000,12.500000000000004,-2.500000000000000));
#95=CARTESIAN_POINT('',(-18.750000000000000,6.250000000000004,2.500000000000000));
#96=CARTESIAN_POINT('',(-18.750000000000000,6.250000000000004,-2.500000000000000));
#97=CARTESIAN_POINT('',(-12.500000000000000,6.250000000000004,2.500000000000000));
#98=CARTESIAN_POINT('',(-12.500000000000000,6.250000000000004,-2.500000000000000));
#99=CARTESIAN_POINT('',(-6.250000000000003,6.250000000000004,2.500000000000000));
#100=CARTESIAN_POINT('',(-6.250000000000003,6.250000000000004,-2.500000000000000));
#101=CARTESIAN_POINT('',(-6.250000000000000,12.500000000000004,2.500000000000000));
#102=CARTESIAN_POINT('',(-6.250000000000000,12.500000000000004,-2.500000000000000));
#103=CARTESIAN_POINT('',(-6.250000000000003,18.750000000000000,2.500000000000000));
#104=CARTESIAN_POINT('',(-6.250000000000003,18.750000000000000,-2.500000000000000));
#105=CARTESIAN_POINT('',(-12.500000000000000,18.750000000000004,2.500000000000000));
#106=CARTESIAN_POINT('',(-12.500000000000000,18.750000000000004,-2.500000000000000));
#107=CARTESIAN_POINT('',(-18.750000000000000,18.750000000000000,2.500000000000000));
#108=CARTESIAN_POINT('',(-18.750000000000000,18.750000000000000,-2.500000000000000));
#109=CARTESIAN_POINT('',(-18.750000000000000,12.500000000000004,2.500000000000000));
#110=CARTESIAN_POINT('',(-18.750000000000000,12.500000000000004,-2.500000000000000));
#118=(BOUNDED_SURFACE()B_SPLINE_SURFACE(1,2,((#93,#95,#97,#99,#101,#103,#105,#107,#109),(#94,#96,#98,#100,#102,#104,#106,#108,#110)),.UNSPECIFIED.,.F.,.T.,.U.)B_SPLINE_SURFACE_WITH_KNOTS((2,2),(3,2,2,2,3),(-9.537127450128788,-8.737127450128787),(0.0,9.817477042468104,19.634954084936208,29.452431127404310,39.269908169872416),.UNSPECIFIED.)GEOMETRIC_REPRESENTATION_ITEM()RATIONAL_B_SPLINE_SURFACE(((1.0,0.707106781186548,1.0,0.707106781186548,1.0,0.707106781186548,1.0,0.707106781186548,1.0),(1.0,0.707106781186548,1.0,0.707106781186548,1.0,0.707106781186548,1.0,0.707106781186548,1.0)))REPRESENTATION_ITEM('')SURFACE());
#119=CARTESIAN_POINT('',(-18.750000000000000,12.500000000000004,-2.500000000000000));
#120=VERTEX_POINT('',#119);
#121=CARTESIAN_POINT('',(-12.500000000000000,12.500000000000004,-2.500000000000000));
#122=DIRECTION('',(0.0,0.0,1.0));
#123=DIRECTION('',(1.0,0.0,0.0));
#124=AXIS2_PLACEMENT_3D('',#121,#122,#123);
#125=CIRCLE('',#124,6.250000000000000);
#126=EDGE_CURVE('',#120,#120,#125,.T.);
#127=ORIENTED_EDGE('',*,*,#126,.F.);
#128=EDGE_LOOP('',(#127));
#129=FACE_OUTER_BOUND('',#128,.T.);
#130=CARTESIAN_POINT('',(-6.250000000000000,12.500000000000004,2.500000000000000));
#131=VERTEX_POINT('',#130);
#132=CARTESIAN_POINT('',(-12.500000000000000,12.500000000000004,2.500000000000000));
#133=DIRECTION('',(0.0,0.0,-1.0));
#134=DIRECTION('',(1.0,0.0,0.0));
#135=AXIS2_PLACEMENT_3D('',#132,#133,#134);
#136=CIRCLE('',#135,6.250000000000000);
#137=EDGE_CURVE('',#131,#131,#136,.T.);
#138=ORIENTED_EDGE('',*,*,#137,.F.);
#139=EDGE_LOOP('',(#138));
#140=FACE_BOUND('',#139,.T.);
#141=ADVANCED_FACE('',(#129,#140),#118,.F.);
#142=CARTESIAN_POINT('',(6.250000000000000,-12.499999999999991,2.500000000000000));
#143=CARTESIAN_POINT('',(6.250000000000000,-12.499999999999991,-2.500000000000000));
#144=CARTESIAN_POINT('',(6.250000000000003,-18.749999999999989,2.500000000000000));
#145=CARTESIAN_POINT('',(6.250000000000003,-18.749999999999989,-2.500000000000000));
#146=CARTESIAN_POINT('',(12.500000000000000,-18.749999999999993,2.500000000000000));
#147=CARTESIAN_POINT('',(12.500000000000000,-18.749999999999993,-2.500000000000000));
#148=CARTESIAN_POINT('',(18.750000000000000,-18.749999999999989,2.500000000000000));
#149=CARTESIAN_POINT('',(18.750000000000000,-18.749999999999989,-2.500000000000000));
#150=CARTESIAN_POINT('',(18.750000000000000,-12.499999999999991,2.500000000000000));
#151=CARTESIAN_POINT('',(18.750000000000000,-12.499999999999991,-2.500000000000000));
#152=CARTESIAN_POINT('',(18.750000000000000,-6.249999999999992,2.500000000000000));
#153=CARTESIAN_POINT('',(18.750000000000000,-6.249999999999992,-2.500000000000000));
#154=CARTESIAN_POINT('',(12.500000000000000,-6.249999999999991,2.500000000000000));
#155=CARTESIAN_POINT('',(12.500000000000000,-6.249999999999991,-2.500000000000000));
#156=CARTESIAN_POINT('',(6.250000000000003,-6.249999999999992,2.500000000000000));
#157=CARTESIAN_POINT('',(6.250000000000003,-6.249999999999992,-2.500000000000000));
#158=CARTESIAN_POINT('',(6.250000000000000,-12.499999999999991,2.500000000000000));
#159=CARTESIAN_POINT('',(6.250000000000000,-12.499999999999991,-2.500000000000000));
#167=(BOUNDED_SURFACE()B_SPLINE_SURFACE(1,2,((#142,#144,#146,#148,#150,#152,#154,#156,#158),(#143,#145,#147,#149,#151,#153,#155,#157,#159)),.UNSPECIFIED.,.F.,.T.,.U.)B_SPLINE_SURFACE_WITH_KNOTS((2,2),(3,2,2,2,3),(-9.537127450128788,-8.737127450128787),(0.0,9.817477042468104,19.634954084936208,29.452431127404310,39.269908169872416),.UNSPECIFIED.)GEOMETRIC_REPRESENTATION_ITEM()RATIONAL_B_SPLINE_SURFACE(((1.0,0.707106781186548,1.0,0.707106781186548,1.0,0.707106781186548,1.0,0.707106781186548,1.0),(1.0,0.707106781186548,1.0,0.707106781186548,1.0,0.707106781186548,1.0,0.707106781186548,1.0)))REPRESENTATION_ITEM('')SURFACE());
#168=CARTESIAN_POINT('',(6.250000000000000,-12.499999999999991,-2.500000000000000));
#169=VERTEX_POINT('',#168);
#170=CARTESIAN_POINT('',(12.500000000000000,-12.499999999999991,-2.500000000000000));
#171=DIRECTION('',(0.0,0.0,1.0));
#172=DIRECTION('',(1.0,0.0,0.0));
#173=AXIS2_PLACEMENT_3D('',#170,#171,#172);
#174=CIRCLE('',#173,6.250000000000000);
#175=EDGE_CURVE('',#169,#169,#174,.T.);
#176=ORIENTED_EDGE('',*,*,#175,.F.);
#177=EDGE_LOOP('',(#176));
#178=FACE_OUTER_BOUND('',#177,.T.);
#179=CARTESIAN_POINT('',(18.750000000000000,-12.499999999999991,2.500000000000000));
#180=VERTEX_POINT('',#179);
#181=CARTESIAN_POINT('',(12.500000000000000,-12.499999999999991,2.500000000000000));
#182=DIRECTION('',(0.0,0.0,-1.0));
#183=DIRECTION('',(1.0,0.0,0.0));
#184=AXIS2_PLACEMENT_3D('',#181,#182,#183);
#185=CIRCLE('',#184,6.250000000000000);
#186=EDGE_CURVE('',#180,#180,#185,.T.);
#187=ORIENTED_EDGE('',*,*,#186,.F.);
#188=EDGE_LOOP('',(#187));
#189=FACE_BOUND('',#188,.T.);
#190=ADVANCED_FACE('',(#178,#189),#167,.F.);
#191=CARTESIAN_POINT('',(-18.999999999999996,19.0,0.0));
#192=DIRECTION('',(-0.707106781186548,0.707106781186548,0.0));
#193=DIRECTION('',(0.0,0.0,1.0));
#194=AXIS2_PLACEMENT_3D('',#191,#192,#193);
#195=PLANE('',#194);
#196=CARTESIAN_POINT('',(-20.999999999999996,17.0,2.500000000000000));
#197=VERTEX_POINT('',#196);
#198=CARTESIAN_POINT('',(-16.999999999999996,21.0,2.500000000000000));
#199=VERTEX_POINT('',#198);
#200=CARTESIAN_POINT('',(-20.999999999999996,17.0,2.500000000000000));
#201=DIRECTION('',(0.707106781186547,0.707106781186547,0.0));
#202=VECTOR('',#201,5.656854249492381);
#203=LINE('',#200,#202);
#204=EDGE_CURVE('',#197,#199,#203,.T.);
#205=ORIENTED_EDGE('',*,*,#204,.T.);
#206=CARTESIAN_POINT('',(-16.999999999999996,21.0,-2.500000000000000));
#207=VERTEX_POINT('',#206);
#208=CARTESIAN_POINT('',(-16.999999999999996,21.0,2.500000000000000));
#209=DIRECTION('',(0.0,0.0,-1.0));
#210=VECTOR('',#209,5.0);
#211=LINE('',#208,#210);
#212=EDGE_CURVE('',#199,#207,#211,.T.);
#213=ORIENTED_EDGE('',*,*,#212,.T.);
#214=CARTESIAN_POINT('',(-20.999999999999996,17.0,-2.500000000000000));
#215=VERTEX_POINT('',#214);
#216=CARTESIAN_POINT('',(-16.999999999999996,21.0,-2.500000000000000));
#217=DIRECTION('',(-0.707106781186547,-0.707106781186547,0.0));
#218=VECTOR('',#217,5.656854249492381);
#219=LINE('',#216,#218);
#220=EDGE_CURVE('',#207,#215,#219,.T.);
#221=ORIENTED_EDGE('',*,*,#220,.T.);
#222=CARTESIAN_POINT('',(-20.999999999999996,17.0,-2.500000000000000));
#223=DIRECTION('',(0.0,0.0,1.0));
#224=VECTOR('',#223,5.0);
#225=LINE('',#222,#224);
#226=EDGE_CURVE('',#215,#197,#225,.T.);
#227=ORIENTED_EDGE('',*,*,#226,.T.);
#228=EDGE_LOOP('',(#205,#213,#221,#227));
#229=FACE_OUTER_BOUND('',#228,.T.);
#230=ADVANCED_FACE('',(#229),#195,.T.);
#231=CARTESIAN_POINT('',(1.110223E-015,-3.027881E-015,-2.500000000000000));
#232=DIRECTION('',(0.0,0.0,1.0));
#233=DIRECTION('',(1.0,0.0,0.0));
#234=AXIS2_PLACEMENT_3D('',#231,#232,#233);
#235=PLANE('',#234);
#236=ORIENTED_EDGE('',*,*,#220,.F.);
#237=CARTESIAN_POINT('',(17.000000000000007,20.999999999999993,-2.500000000000000));
#238=VERTEX_POINT('',#237);
#239=CARTESIAN_POINT('',(17.000000000000007,20.999999999999993,-2.500000000000000));
#240=DIRECTION('',(-1.0,0.0,0.0));
#241=VECTOR('',#240,34.0);
#242=LINE('',#239,#241);
#243=EDGE_CURVE('',#238,#207,#242,.T.);
#244=ORIENTED_EDGE('',*,*,#243,.F.);
#245=CARTESIAN_POINT('',(21.000000000000007,16.999999999999993,-2.500000000000000));
#246=VERTEX_POINT('',#245);
#247=CARTESIAN_POINT('',(21.000000000000007,16.999999999999993,-2.500000000000000));
#248=DIRECTION('',(-0.707106781186547,0.707106781186547,0.0));
#249=VECTOR('',#248,5.656854249492381);
#250=LINE('',#247,#249);
#251=EDGE_CURVE('',#246,#238,#250,.T.);
#252=ORIENTED_EDGE('',*,*,#251,.F.);
#253=CARTESIAN_POINT('',(21.000000000000007,-16.999999999999993,-2.500000000000000));
#254=VERTEX_POINT('',#253);
#255=CARTESIAN_POINT('',(21.000000000000007,-16.999999999999993,-2.500000000000000));
#256=DIRECTION('',(0.0,1.0,0.0));
#257=VECTOR('',#256,33.999999999999986);
#258=LINE('',#255,#257);
#259=EDGE_CURVE('',#254,#246,#258,.T.);
#260=ORIENTED_EDGE('',*,*,#259,.F.);
#261=CARTESIAN_POINT('',(17.000000000000007,-20.999999999999993,-2.500000000000000));
#262=VERTEX_POINT('',#261);
#263=CARTESIAN_POINT('',(17.000000000000007,-20.999999999999993,-2.500000000000000));
#264=DIRECTION('',(0.707106781186547,0.707106781186547,0.0));
#265=VECTOR('',#264,5.656854249492381);
#266=LINE('',#263,#265);
#267=EDGE_CURVE('',#262,#254,#266,.T.);
#268=ORIENTED_EDGE('',*,*,#267,.F.);
#269=CARTESIAN_POINT('',(-17.0,-21.0,-2.500000000000000));
#270=VERTEX_POINT('',#269);
#271=CARTESIAN_POINT('',(-17.0,-21.0,-2.500000000000000));
#272=DIRECTION('',(1.0,0.0,0.0));
#273=VECTOR('',#272,34.000000000000007);
#274=LINE('',#271,#273);
#275=EDGE_CURVE('',#270,#262,#274,.T.);
#276=ORIENTED_EDGE('',*,*,#275,.F.);
#277=CARTESIAN_POINT('',(-21.0,-17.0,-2.500000000000000));
#278=VERTEX_POINT('',#277);
#279=CARTESIAN_POINT('',(-21.0,-17.0,-2.500000000000000));
#280=DIRECTION('',(0.707106781186547,-0.707106781186547,0.0));
#281=VECTOR('',#280,5.656854249492381);
#282=LINE('',#279,#281);
#283=EDGE_CURVE('',#278,#270,#282,.T.);
#284=ORIENTED_EDGE('',*,*,#283,.F.);
#285=CARTESIAN_POINT('',(-20.999999999999996,17.0,-2.500000000000000));
#286=DIRECTION('',(0.0,-1.0,0.0));
#287=VECTOR('',#286,34.0);
#288=LINE('',#285,#287);
#289=EDGE_CURVE('',#215,#278,#288,.T.);
#290=ORIENTED_EDGE('',*,*,#289,.F.);
#291=EDGE_LOOP('',(#236,#244,#252,#260,#268,#276,#284,#290));
#292=FACE_OUTER_BOUND('',#291,.T.);
#293=ORIENTED_EDGE('',*,*,#77,.T.);
#294=EDGE_LOOP('',(#293));
#295=FACE_BOUND('',#294,.T.);
#296=ORIENTED_EDGE('',*,*,#126,.T.);
#297=EDGE_LOOP('',(#296));
#298=FACE_BOUND('',#297,.T.);
#299=ORIENTED_EDGE('',*,*,#175,.T.);
#300=EDGE_LOOP('',(#299));
#301=FACE_BOUND('',#300,.T.);
#302=CARTESIAN_POINT('',(-18.750000000000000,-12.499999999999998,-2.500000000000000));
#303=VERTEX_POINT('',#302);
#304=CARTESIAN_POINT('',(-12.500000000000000,-12.499999999999998,-2.500000000000000));
#305=DIRECTION('',(0.0,0.0,1.0));
#306=DIRECTION('',(1.0,0.0,0.0));
#307=AXIS2_PLACEMENT_3D('',#304,#305,#306);
#308=CIRCLE('',#307,6.250000000000000);
#309=EDGE_CURVE('',#303,#303,#308,.T.);
#310=ORIENTED_EDGE('',*,*,#309,.T.);
#311=EDGE_LOOP('',(#310));
#312=FACE_BOUND('',#311,.T.);
#313=ADVANCED_FACE('',(#292,#295,#298,#301,#312),#235,.F.);
#314=CARTESIAN_POINT('',(-20.999999999999996,21.0,0.0));
#315=DIRECTION('',(0.0,1.0,0.0));
#316=DIRECTION('',(0.0,0.0,1.0));
#317=AXIS2_PLACEMENT_3D('',#314,#315,#316);
#318=PLANE('',#317);
#319=ORIENTED_EDGE('',*,*,#212,.F.);
#320=CARTESIAN_POINT('',(17.000000000000007,20.999999999999993,2.500000000000000));
#321=VERTEX_POINT('',#320);
#322=CARTESIAN_POINT('',(-16.999999999999996,21.0,2.500000000000000));
#323=DIRECTION('',(1.0,0.0,0.0));
#324=VECTOR('',#323,34.0);
#325=LINE('',#322,#324);
#326=EDGE_CURVE('',#199,#321,#325,.T.);
#327=ORIENTED_EDGE('',*,*,#326,.T.);
#328=CARTESIAN_POINT('',(17.000000000000007,20.999999999999993,-2.500000000000000));
#329=DIRECTION('',(0.0,0.0,1.0));
#330=VECTOR('',#329,5.0);
#331=LINE('',#328,#330);
#332=EDGE_CURVE('',#238,#321,#331,.T.);
#333=ORIENTED_EDGE('',*,*,#332,.F.);
#334=ORIENTED_EDGE('',*,*,#243,.T.);
#335=EDGE_LOOP('',(#319,#327,#333,#334));
#336=FACE_OUTER_BOUND('',#335,.T.);
#337=ADVANCED_FACE('',(#336),#318,.T.);
#338=CARTESIAN_POINT('',(19.000000000000007,18.999999999999993,0.0));
#339=DIRECTION('',(0.707106781186548,0.707106781186548,0.0));
#340=DIRECTION('',(0.0,0.0,-1.0));
#341=AXIS2_PLACEMENT_3D('',#338,#339,#340);
#342=PLANE('',#341);
#343=ORIENTED_EDGE('',*,*,#251,.T.);
#344=ORIENTED_EDGE('',*,*,#332,.T.);
#345=CARTESIAN_POINT('',(21.000000000000007,16.999999999999993,2.500000000000000));
#346=VERTEX_POINT('',#345);
#347=CARTESIAN_POINT('',(17.000000000000007,20.999999999999993,2.500000000000000));
#348=DIRECTION('',(0.707106781186547,-0.707106781186547,0.0));
#349=VECTOR('',#348,5.656854249492381);
#350=LINE('',#347,#349);
#351=EDGE_CURVE('',#321,#346,#350,.T.);
#352=ORIENTED_EDGE('',*,*,#351,.T.);
#353=CARTESIAN_POINT('',(21.000000000000007,16.999999999999993,2.500000000000000));
#354=DIRECTION('',(0.0,0.0,-1.0));
#355=VECTOR('',#354,5.0);
#356=LINE('',#353,#355);
#357=EDGE_CURVE('',#346,#246,#356,.T.);
#358=ORIENTED_EDGE('',*,*,#357,.T.);
#359=EDGE_LOOP('',(#343,#344,#352,#358));
#360=FACE_OUTER_BOUND('',#359,.T.);
#361=ADVANCED_FACE('',(#360),#342,.T.);
#362=CARTESIAN_POINT('',(19.000000000000007,-18.999999999999993,0.0));
#363=DIRECTION('',(0.707106781186548,-0.707106781186548,0.0));
#364=DIRECTION('',(0.0,0.0,-1.0));
#365=AXIS2_PLACEMENT_3D('',#362,#363,#364);
#366=PLANE('',#365);
#367=ORIENTED_EDGE('',*,*,#267,.T.);
#368=CARTESIAN_POINT('',(21.000000000000007,-16.999999999999993,2.500000000000000));
#369=VERTEX_POINT('',#368);
#370=CARTESIAN_POINT('',(21.000000000000007,-16.999999999999993,-2.500000000000000));
#371=DIRECTION('',(0.0,0.0,1.0));
#372=VECTOR('',#371,5.0);
#373=LINE('',#370,#372);
#374=EDGE_CURVE('',#254,#369,#373,.T.);
#375=ORIENTED_EDGE('',*,*,#374,.T.);
#376=CARTESIAN_POINT('',(17.000000000000007,-20.999999999999993,2.500000000000000));
#377=VERTEX_POINT('',#376);
#378=CARTESIAN_POINT('',(21.000000000000007,-16.999999999999993,2.500000000000000));
#379=DIRECTION('',(-0.707106781186547,-0.707106781186547,0.0));
#380=VECTOR('',#379,5.656854249492381);
#381=LINE('',#378,#380);
#382=EDGE_CURVE('',#369,#377,#381,.T.);
#383=ORIENTED_EDGE('',*,*,#382,.T.);
#384=CARTESIAN_POINT('',(17.000000000000007,-20.999999999999993,2.500000000000000));
#385=DIRECTION('',(0.0,0.0,-1.0));
#386=VECTOR('',#385,5.0);
#387=LINE('',#384,#386);
#388=EDGE_CURVE('',#377,#262,#387,.T.);
#389=ORIENTED_EDGE('',*,*,#388,.T.);
#390=EDGE_LOOP('',(#367,#375,#383,#389));
#391=FACE_OUTER_BOUND('',#390,.T.);
#392=ADVANCED_FACE('',(#391),#366,.T.);
#393=CARTESIAN_POINT('',(21.000000000000007,-20.999999999999993,0.0));
#394=DIRECTION('',(0.0,-1.0,0.0));
#395=DIRECTION('',(0.0,0.0,-1.0));
#396=AXIS2_PLACEMENT_3D('',#393,#394,#395);
#397=PLANE('',#396);
#398=ORIENTED_EDGE('',*,*,#388,.F.);
#399=CARTESIAN_POINT('',(-17.0,-21.0,2.500000000000000));
#400=VERTEX_POINT('',#399);
#401=CARTESIAN_POINT('',(17.000000000000007,-20.999999999999993,2.500000000000000));
#402=DIRECTION('',(-1.0,0.0,0.0));
#403=VECTOR('',#402,34.000000000000007);
#404=LINE('',#401,#403);
#405=EDGE_CURVE('',#377,#400,#404,.T.);
#406=ORIENTED_EDGE('',*,*,#405,.T.);
#407=CARTESIAN_POINT('',(-17.0,-21.0,-2.500000000000000));
#408=DIRECTION('',(0.0,0.0,1.0));
#409=VECTOR('',#408,5.0);
#410=LINE('',#407,#409);
#411=EDGE_CURVE('',#270,#400,#410,.T.);
#412=ORIENTED_EDGE('',*,*,#411,.F.);
#413=ORIENTED_EDGE('',*,*,#275,.T.);
#414=EDGE_LOOP('',(#398,#406,#412,#413));
#415=FACE_OUTER_BOUND('',#414,.T.);
#416=ADVANCED_FACE('',(#415),#397,.T.);
#417=CARTESIAN_POINT('',(-19.0,-19.0,0.0));
#418=DIRECTION('',(-0.707106781186548,-0.707106781186548,0.0));
#419=DIRECTION('',(0.0,0.0,1.0));
#420=AXIS2_PLACEMENT_3D('',#417,#418,#419);
#421=PLANE('',#420);
#422=ORIENTED_EDGE('',*,*,#283,.T.);
#423=ORIENTED_EDGE('',*,*,#411,.T.);
#424=CARTESIAN_POINT('',(-21.0,-17.0,2.500000000000000));
#425=VERTEX_POINT('',#424);
#426=CARTESIAN_POINT('',(-17.0,-21.0,2.500000000000000));
#427=DIRECTION('',(-0.707106781186547,0.707106781186547,0.0));
#428=VECTOR('',#427,5.656854249492381);
#429=LINE('',#426,#428);
#430=EDGE_CURVE('',#400,#425,#429,.T.);
#431=ORIENTED_EDGE('',*,*,#430,.T.);
#432=CARTESIAN_POINT('',(-21.0,-17.0,2.500000000000000));
#433=DIRECTION('',(0.0,0.0,-1.0));
#434=VECTOR('',#433,5.0);
#435=LINE('',#432,#434);
#436=EDGE_CURVE('',#425,#278,#435,.T.);
#437=ORIENTED_EDGE('',*,*,#436,.T.);
#438=EDGE_LOOP('',(#422,#423,#431,#437));
#439=FACE_OUTER_BOUND('',#438,.T.);
#440=ADVANCED_FACE('',(#439),#421,.T.);
#441=CARTESIAN_POINT('',(-18.750000000000000,-12.499999999999998,2.500000000000000));
#442=CARTESIAN_POINT('',(-18.750000000000000,-12.499999999999998,-2.500000000000000));
#443=CARTESIAN_POINT('',(-18.750000000000000,-18.749999999999996,2.500000000000000));
#444=CARTESIAN_POINT('',(-18.750000000000000,-18.749999999999996,-2.500000000000000));
#445=CARTESIAN_POINT('',(-12.500000000000000,-18.750000000000000,2.500000000000000));
#446=CARTESIAN_POINT('',(-12.500000000000000,-18.750000000000000,-2.500000000000000));
#447=CARTESIAN_POINT('',(-6.250000000000003,-18.749999999999996,2.500000000000000));
#448=CARTESIAN_POINT('',(-6.250000000000003,-18.749999999999996,-2.500000000000000));
#449=CARTESIAN_POINT('',(-6.250000000000000,-12.499999999999998,2.500000000000000));
#450=CARTESIAN_POINT('',(-6.250000000000000,-12.499999999999998,-2.500000000000000));
#451=CARTESIAN_POINT('',(-6.250000000000003,-6.250000000000000,2.500000000000000));
#452=CARTESIAN_POINT('',(-6.250000000000003,-6.250000000000000,-2.500000000000000));
#453=CARTESIAN_POINT('',(-12.500000000000000,-6.249999999999998,2.500000000000000));
#454=CARTESIAN_POINT('',(-12.500000000000000,-6.249999999999998,-2.500000000000000));
#455=CARTESIAN_POINT('',(-18.750000000000000,-6.250000000000000,2.500000000000000));
#456=CARTESIAN_POINT('',(-18.750000000000000,-6.250000000000000,-2.500000000000000));
#457=CARTESIAN_POINT('',(-18.750000000000000,-12.499999999999998,2.500000000000000));
#458=CARTESIAN_POINT('',(-18.750000000000000,-12.499999999999998,-2.500000000000000));
#466=(BOUNDED_SURFACE()B_SPLINE_SURFACE(1,2,((#441,#443,#445,#447,#449,#451,#453,#455,#457),(#442,#444,#446,#448,#450,#452,#454,#456,#458)),.UNSPECIFIED.,.F.,.T.,.U.)B_SPLINE_SURFACE_WITH_KNOTS((2,2),(3,2,2,2,3),(-9.537127450128788,-8.737127450128787),(0.0,9.817477042468104,19.634954084936208,29.452431127404310,39.269908169872416),.UNSPECIFIED.)GEOMETRIC_REPRESENTATION_ITEM()RATIONAL_B_SPLINE_SURFACE(((1.0,0.707106781186548,1.0,0.707106781186548,1.0,0.707106781186548,1.0,0.707106781186548,1.0),(1.0,0.707106781186548,1.0,0.707106781186548,1.0,0.707106781186548,1.0,0.707106781186548,1.0)))REPRESENTATION_ITEM('')SURFACE());
#467=ORIENTED_EDGE('',*,*,#309,.F.);
#468=EDGE_LOOP('',(#467));
#469=FACE_OUTER_BOUND('',#468,.T.);
#470=CARTESIAN_POINT('',(-6.250000000000000,-12.499999999999998,2.500000000000000));
#471=VERTEX_POINT('',#470);
#472=CARTESIAN_POINT('',(-12.500000000000000,-12.499999999999998,2.500000000000000));
#473=DIRECTION('',(0.0,0.0,-1.0));
#474=DIRECTION('',(1.0,0.0,0.0));
#475=AXIS2_PLACEMENT_3D('',#472,#473,#474);
#476=CIRCLE('',#475,6.250000000000000);
#477=EDGE_CURVE('',#471,#471,#476,.T.);
#478=ORIENTED_EDGE('',*,*,#477,.F.);
#479=EDGE_LOOP('',(#478));
#480=FACE_BOUND('',#479,.T.);
#481=ADVANCED_FACE('',(#469,#480),#466,.F.);
#482=CARTESIAN_POINT('',(21.000000000000007,20.999999999999993,0.0));
#483=DIRECTION('',(1.0,0.0,0.0));
#484=DIRECTION('',(0.0,0.0,-1.0));
#485=AXIS2_PLACEMENT_3D('',#482,#483,#484);
#486=PLANE('',#485);
#487=ORIENTED_EDGE('',*,*,#357,.F.);
#488=CARTESIAN_POINT('',(21.000000000000007,16.999999999999993,2.500000000000000));
#489=DIRECTION('',(0.0,-1.0,0.0));
#490=VECTOR('',#489,33.999999999999986);
#491=LINE('',#488,#490);
#492=EDGE_CURVE('',#346,#369,#491,.T.);
#493=ORIENTED_EDGE('',*,*,#492,.T.);
#494=ORIENTED_EDGE('',*,*,#374,.F.);
#495=ORIENTED_EDGE('',*,*,#259,.T.);
#496=EDGE_LOOP('',(#487,#493,#494,#495));
#497=FACE_OUTER_BOUND('',#496,.T.);
#498=ADVANCED_FACE('',(#497),#486,.T.);
#499=CARTESIAN_POINT('',(-21.0,-21.0,0.0));
#500=DIRECTION('',(-1.0,0.0,0.0));
#501=DIRECTION('',(0.0,0.0,1.0));
#502=AXIS2_PLACEMENT_3D('',#499,#500,#501);
#503=PLANE('',#502);
#504=ORIENTED_EDGE('',*,*,#226,.F.);
#505=ORIENTED_EDGE('',*,*,#289,.T.);
#506=ORIENTED_EDGE('',*,*,#436,.F.);
#507=CARTESIAN_POINT('',(-21.0,-17.0,2.500000000000000));
#508=DIRECTION('',(0.0,1.0,0.0));
#509=VECTOR('',#508,34.0);
#510=LINE('',#507,#509);
#511=EDGE_CURVE('',#425,#197,#510,.T.);
#512=ORIENTED_EDGE('',*,*,#511,.T.);
#513=EDGE_LOOP('',(#504,#505,#506,#512));
#514=FACE_OUTER_BOUND('',#513,.T.);
#515=ADVANCED_FACE('',(#514),#503,.T.);
#516=CARTESIAN_POINT('',(1.110223E-015,-3.027881E-015,2.500000000000000));
#517=DIRECTION('',(0.0,0.0,1.0));
#518=DIRECTION('',(1.0,0.0,0.0));
#519=AXIS2_PLACEMENT_3D('',#516,#517,#518);
#520=PLANE('',#519);
#521=ORIENTED_EDGE('',*,*,#204,.F.);
#522=ORIENTED_EDGE('',*,*,#511,.F.);
#523=ORIENTED_EDGE('',*,*,#430,.F.);
#524=ORIENTED_EDGE('',*,*,#405,.F.);
#525=ORIENTED_EDGE('',*,*,#382,.F.);
#526=ORIENTED_EDGE('',*,*,#492,.F.);
#527=ORIENTED_EDGE('',*,*,#351,.F.);
#528=ORIENTED_EDGE('',*,*,#326,.F.);
#529=EDGE_LOOP('',(#521,#522,#523,#524,#525,#526,#527,#528));
#530=FACE_OUTER_BOUND('',#529,.T.);
#531=ORIENTED_EDGE('',*,*,#88,.T.);
#532=EDGE_LOOP('',(#531));
#533=FACE_BOUND('',#532,.T.);
#534=ORIENTED_EDGE('',*,*,#137,.T.);
#535=EDGE_LOOP('',(#534));
#536=FACE_BOUND('',#535,.T.);
#537=ORIENTED_EDGE('',*,*,#186,.T.);
#538=EDGE_LOOP('',(#537));
#539=FACE_BOUND('',#538,.T.);
#540=ORIENTED_EDGE('',*,*,#477,.T.);
#541=EDGE_LOOP('',(#540));
#542=FACE_BOUND('',#541,.T.);
#543=ADVANCED_FACE('',(#530,#533,#536,#539,#542),#520,.T.);
#544=CLOSED_SHELL('',(#92,#141,#190,#230,#313,#337,#361,#392,#416,#440,#481,#498,#515,#543));
#545=MANIFOLD_SOLID_BREP('',#544);
#546=COLOUR_RGB('Aluminium (gleichmig)',0.847058832645416,0.839215695858002,0.839215695858002);
#547=FILL_AREA_STYLE_COLOUR('Aluminium (gleichmig)',#546);
#548=FILL_AREA_STYLE('Aluminium (gleichmig)',(#547));
#549=SURFACE_STYLE_FILL_AREA(#548);
#550=SURFACE_SIDE_STYLE('Aluminium (gleichmig)',(#549));
#551=SURFACE_STYLE_USAGE(.BOTH.,#550);
#552=PRESENTATION_STYLE_ASSIGNMENT((#551));
#553=STYLED_ITEM('',(#552),#545);
#554=MECHANICAL_DESIGN_GEOMETRIC_PRESENTATION_REPRESENTATION('',(#553),#36);
#555=ADVANCED_BREP_SHAPE_REPRESENTATION('ABSR',(#545),#36);
#556=SHAPE_REPRESENTATION_RELATIONSHIP('SRR','None',#555,#41);
ENDSEC;
END-ISO-10303-21;
