ISO-10303-21;
HEADER;
/****************************************************************
 * Generated by software with PDElib inside                    *
 * PDElib Version v51a, created Wed 07/06/2011                  *
 * ITI Transcendata (http://www.transcendata.com/)              *
 ****************************************************************/
FILE_DESCRIPTION((''),'2;1');
FILE_NAME('Q:\\ExterneArtikel_Webseite_Palkat\\SZ\\SZ5610S.stp','2013-01-02T14:09:29',('marina kaa'),(''),'Autodesk Inventor 2012','Autodesk Inventor 2012','');
FILE_SCHEMA(('AUTOMOTIVE_DESIGN { 1 0 10303 214 1 1 1 1 }'));
ENDSEC;
DATA;
#5=APPLICATION_CONTEXT('automotive design');
#6=APPLICATION_PROTOCOL_DEFINITION('International Standard','automotive_design',2001,#5);
#7=PRODUCT_CONTEXT('',#5,'mechanical');
#8=PRODUCT('SZ5610S_A','SZ5610S_A',$,(#7));
#9=PRODUCT_RELATED_PRODUCT_CATEGORY('part',$,(#8));
#10=PRODUCT_DEFINITION_FORMATION('',$,#8);
#11=PRODUCT_DEFINITION_CONTEXT('part definition',#5,'design');
#12=PRODUCT_DEFINITION('',$,#10,#11);
#18=(NAMED_UNIT(*)PLANE_ANGLE_UNIT()SI_UNIT($,.RADIAN.));
#19=DIMENSIONAL_EXPONENTS(0.0,0.0,0.0,0.0,0.0,0.0,0.0);
#20=PLANE_ANGLE_MEASURE_WITH_UNIT(PLANE_ANGLE_MEASURE(0.0174532925),#18);
#24=(CONVERSION_BASED_UNIT('DEGREE',#20)NAMED_UNIT(#19)PLANE_ANGLE_UNIT());
#28=(NAMED_UNIT(*)SI_UNIT($,.STERADIAN.)SOLID_ANGLE_UNIT());
#32=(LENGTH_UNIT()NAMED_UNIT(*)SI_UNIT(.MILLI.,.METRE.));
#34=UNCERTAINTY_MEASURE_WITH_UNIT(LENGTH_MEASURE(0.01),#32,'DISTANCE_ACCURACY_VALUE','');
#36=(GEOMETRIC_REPRESENTATION_CONTEXT(3)GLOBAL_UNCERTAINTY_ASSIGNED_CONTEXT((#34))GLOBAL_UNIT_ASSIGNED_CONTEXT((#24,#28,#32))REPRESENTATION_CONTEXT('None','None'));
#37=AXIS2_PLACEMENT_3D('',#38,#39,#40);
#38=CARTESIAN_POINT('',(0.0,0.0,0.0));
#39=DIRECTION('',(0.0,0.0,1.0));
#40=DIRECTION('',(1.0,0.0,0.0));
#41=SHAPE_REPRESENTATION('',(#37),#36);
#42=PRODUCT_DEFINITION_SHAPE('','',#12);
#43=SHAPE_DEFINITION_REPRESENTATION(#42,#41);
#49=(NAMED_UNIT(*)PLANE_ANGLE_UNIT()SI_UNIT($,.RADIAN.));
#50=DIMENSIONAL_EXPONENTS(0.0,0.0,0.0,0.0,0.0,0.0,0.0);
#51=PLANE_ANGLE_MEASURE_WITH_UNIT(PLANE_ANGLE_MEASURE(0.0174532925),#49);
#55=(CONVERSION_BASED_UNIT('DEGREE',#51)NAMED_UNIT(#50)PLANE_ANGLE_UNIT());
#59=(NAMED_UNIT(*)SI_UNIT($,.STERADIAN.)SOLID_ANGLE_UNIT());
#63=(LENGTH_UNIT()NAMED_UNIT(*)SI_UNIT(.MILLI.,.METRE.));
#65=UNCERTAINTY_MEASURE_WITH_UNIT(LENGTH_MEASURE(0.000001),#63,'DISTANCE_ACCURACY_VALUE','');
#67=(GEOMETRIC_REPRESENTATION_CONTEXT(3)GLOBAL_UNCERTAINTY_ASSIGNED_CONTEXT((#65))GLOBAL_UNIT_ASSIGNED_CONTEXT((#55,#59,#63))REPRESENTATION_CONTEXT('','3D'));
#68=CARTESIAN_POINT('',(12.5,19.75,28.5));
#69=DIRECTION('',(0.0,-1.0,0.0));
#70=DIRECTION('',(0.707106781186547,0.0,-0.707106781186547));
#71=AXIS2_PLACEMENT_3D('',#68,#69,#70);
#72=CYLINDRICAL_SURFACE('',#71,2.5);
#73=CARTESIAN_POINT('',(15.0,-8.250000000000002,28.5));
#74=VERTEX_POINT('',#73);
#75=CARTESIAN_POINT('',(12.5,-8.250000000000002,26.0));
#76=VERTEX_POINT('',#75);
#77=CARTESIAN_POINT('',(12.5,-8.250000000000002,28.5));
#78=DIRECTION('',(0.0,1.0,0.0));
#79=DIRECTION('',(0.707106781186547,0.0,-0.707106781186547));
#80=AXIS2_PLACEMENT_3D('',#77,#78,#79);
#81=CIRCLE('',#80,2.5);
#82=EDGE_CURVE('',#74,#76,#81,.T.);
#83=ORIENTED_EDGE('',*,*,#82,.F.);
#84=CARTESIAN_POINT('',(15.0,12.847665157529597,28.5));
#85=VERTEX_POINT('',#84);
#86=CARTESIAN_POINT('',(15.0,-8.250000000000004,28.5));
#87=DIRECTION('',(0.0,1.0,0.0));
#88=VECTOR('',#87,21.097665157529601);
#89=LINE('',#86,#88);
#90=EDGE_CURVE('',#74,#85,#89,.T.);
#91=ORIENTED_EDGE('',*,*,#90,.T.);
#92=CARTESIAN_POINT('',(12.5,15.290928683373028,26.0));
#93=VERTEX_POINT('',#92);
#94=CARTESIAN_POINT('',(15.0,12.847665157529597,28.5));
#95=CARTESIAN_POINT('',(15.0,12.847665157529597,28.341489234693292));
#96=CARTESIAN_POINT('',(14.984700700558857,12.865587943501053,28.181700940457425));
#97=CARTESIAN_POINT('',(14.924718542311822,12.93512213498704,27.870880093228788));
#98=CARTESIAN_POINT('',(14.880068702365534,12.986660464762345,27.719824825966988));
#99=CARTESIAN_POINT('',(14.71075505763794,13.178974323760421,27.293283619906092));
#100=CARTESIAN_POINT('',(14.54906245825001,13.358509332989541,27.044414732414438));
#101=CARTESIAN_POINT('',(14.140936960358177,13.791868575871984,26.580129237551343));
#102=CARTESIAN_POINT('',(13.844588977961932,14.09216223425004,26.362470237031765));
#103=CARTESIAN_POINT('',(13.193892892069259,14.703158534305306,26.071941995160664));
#104=CARTESIAN_POINT('',(12.839043643234637,15.01376791516924,26.0));
#105=CARTESIAN_POINT('',(12.5,15.290928683373028,26.0));
#106=B_SPLINE_CURVE_WITH_KNOTS('',3,(#94,#95,#96,#97,#98,#99,#100,#101,#102,#103,#104,#105),.UNSPECIFIED.,.F.,.U.,(4,2,2,2,2,4),(0.0,0.047553229592012,0.095106459184023,0.190212918368047,0.321587122496641,0.452961326625236),.UNSPECIFIED.);
#107=EDGE_CURVE('',#85,#93,#106,.T.);
#108=ORIENTED_EDGE('',*,*,#107,.T.);
#109=CARTESIAN_POINT('',(12.5,15.290928683373028,26.0));
#110=DIRECTION('',(0.0,-1.0,0.0));
#111=VECTOR('',#110,23.540928683373032);
#112=LINE('',#109,#111);
#113=EDGE_CURVE('',#93,#76,#112,.T.);
#114=ORIENTED_EDGE('',*,*,#113,.T.);
#115=EDGE_LOOP('',(#83,#91,#108,#114));
#116=FACE_OUTER_BOUND('',#115,.T.);
#117=ADVANCED_FACE('',(#116),#72,.F.);
#118=CARTESIAN_POINT('',(15.0,19.75,26.0));
#119=DIRECTION('',(0.0,0.0,-1.0));
#120=DIRECTION('',(-1.0,0.0,0.0));
#121=AXIS2_PLACEMENT_3D('',#118,#119,#120);
#122=PLANE('',#121);
#123=ORIENTED_EDGE('',*,*,#113,.F.);
#124=CARTESIAN_POINT('',(-12.5,15.290928683373028,26.0));
#125=VERTEX_POINT('',#124);
#126=CARTESIAN_POINT('',(0.0,0.0,26.0));
#127=DIRECTION('',(0.0,0.0,-1.0));
#128=DIRECTION('',(-1.0,0.0,0.0));
#129=AXIS2_PLACEMENT_3D('',#126,#127,#128);
#130=CIRCLE('',#129,19.75);
#131=EDGE_CURVE('',#125,#93,#130,.T.);
#132=ORIENTED_EDGE('',*,*,#131,.F.);
#133=CARTESIAN_POINT('',(-12.5,-8.250000000000002,26.0));
#134=VERTEX_POINT('',#133);
#135=CARTESIAN_POINT('',(-12.5,-8.250000000000004,26.0));
#136=DIRECTION('',(0.0,1.0,0.0));
#137=VECTOR('',#136,23.540928683373032);
#138=LINE('',#135,#137);
#139=EDGE_CURVE('',#134,#125,#138,.T.);
#140=ORIENTED_EDGE('',*,*,#139,.F.);
#141=CARTESIAN_POINT('',(12.5,-8.250000000000002,26.0));
#142=DIRECTION('',(-1.0,0.0,0.0));
#143=VECTOR('',#142,25.0);
#144=LINE('',#141,#143);
#145=EDGE_CURVE('',#76,#134,#144,.T.);
#146=ORIENTED_EDGE('',*,*,#145,.F.);
#147=EDGE_LOOP('',(#123,#132,#140,#146));
#148=FACE_OUTER_BOUND('',#147,.T.);
#149=CARTESIAN_POINT('',(4.1,5.021052E-016,26.0));
#150=VERTEX_POINT('',#149);
#151=CARTESIAN_POINT('',(0.0,0.0,26.0));
#152=DIRECTION('',(0.0,0.0,1.0));
#153=DIRECTION('',(-1.0,0.0,0.0));
#154=AXIS2_PLACEMENT_3D('',#151,#152,#153);
#155=CIRCLE('',#154,4.1);
#156=EDGE_CURVE('',#150,#150,#155,.T.);
#157=ORIENTED_EDGE('',*,*,#156,.F.);
#158=EDGE_LOOP('',(#157));
#159=FACE_BOUND('',#158,.T.);
#160=ADVANCED_FACE('',(#148,#159),#122,.F.);
#161=CARTESIAN_POINT('',(12.5,19.75,36.5));
#162=DIRECTION('',(0.0,-1.0,0.0));
#163=DIRECTION('',(0.707106781186547,0.0,0.707106781186547));
#164=AXIS2_PLACEMENT_3D('',#161,#162,#163);
#165=CYLINDRICAL_SURFACE('',#164,2.5);
#166=CARTESIAN_POINT('',(12.5,-8.250000000000002,39.0));
#167=VERTEX_POINT('',#166);
#168=CARTESIAN_POINT('',(15.0,-8.250000000000002,36.5));
#169=VERTEX_POINT('',#168);
#170=CARTESIAN_POINT('',(12.5,-8.250000000000002,36.5));
#171=DIRECTION('',(0.0,1.0,0.0));
#172=DIRECTION('',(0.707106781186547,0.0,0.707106781186547));
#173=AXIS2_PLACEMENT_3D('',#170,#171,#172);
#174=CIRCLE('',#173,2.5);
#175=EDGE_CURVE('',#167,#169,#174,.T.);
#176=ORIENTED_EDGE('',*,*,#175,.F.);
#177=CARTESIAN_POINT('',(12.5,15.290928683373028,39.0));
#178=VERTEX_POINT('',#177);
#179=CARTESIAN_POINT('',(12.5,-8.250000000000004,39.0));
#180=DIRECTION('',(0.0,1.0,0.0));
#181=VECTOR('',#180,23.540928683373032);
#182=LINE('',#179,#181);
#183=EDGE_CURVE('',#167,#178,#182,.T.);
#184=ORIENTED_EDGE('',*,*,#183,.T.);
#185=CARTESIAN_POINT('',(15.0,12.847665157529597,36.5));
#186=VERTEX_POINT('',#185);
#187=CARTESIAN_POINT('',(12.5,15.290928683373028,39.0));
#188=CARTESIAN_POINT('',(12.839043643234637,15.013767915169243,39.0));
#189=CARTESIAN_POINT('',(13.193892892069259,14.703158534305301,38.928058004839336));
#190=CARTESIAN_POINT('',(13.844588977961934,14.092162234250035,38.637529762968235));
#191=CARTESIAN_POINT('',(14.140936960358177,13.791868575871982,38.419870762448653));
#192=CARTESIAN_POINT('',(14.54906245825001,13.358509332989543,37.955585267585555));
#193=CARTESIAN_POINT('',(14.710755057637936,13.178974323760427,37.706716380093916));
#194=CARTESIAN_POINT('',(14.880068702365531,12.98666046476235,37.280175174033026));
#195=CARTESIAN_POINT('',(14.924718542311821,12.935122134987044,37.129119906771216));
#196=CARTESIAN_POINT('',(14.984700700558859,12.865587943501055,36.818299059542568));
#197=CARTESIAN_POINT('',(15.0,12.847665157529597,36.658510765306708));
#198=CARTESIAN_POINT('',(15.0,12.847665157529597,36.5));
#199=B_SPLINE_CURVE_WITH_KNOTS('',3,(#187,#188,#189,#190,#191,#192,#193,#194,#195,#196,#197,#198),.UNSPECIFIED.,.F.,.U.,(4,2,2,2,2,4),(-0.452961326625235,-0.321587122496641,-0.190212918368047,-0.095106459184023,-0.047553229592012,0.0),.UNSPECIFIED.);
#200=EDGE_CURVE('',#178,#186,#199,.T.);
#201=ORIENTED_EDGE('',*,*,#200,.T.);
#202=CARTESIAN_POINT('',(15.0,12.847665157529597,36.5));
#203=DIRECTION('',(0.0,-1.0,0.0));
#204=VECTOR('',#203,21.097665157529601);
#205=LINE('',#202,#204);
#206=EDGE_CURVE('',#186,#169,#205,.T.);
#207=ORIENTED_EDGE('',*,*,#206,.T.);
#208=EDGE_LOOP('',(#176,#184,#201,#207));
#209=FACE_OUTER_BOUND('',#208,.T.);
#210=ADVANCED_FACE('',(#209),#165,.F.);
#211=CARTESIAN_POINT('',(15.0,19.75,39.0));
#212=DIRECTION('',(1.0,0.0,0.0));
#213=DIRECTION('',(0.0,0.0,-1.0));
#214=AXIS2_PLACEMENT_3D('',#211,#212,#213);
#215=PLANE('',#214);
#216=ORIENTED_EDGE('',*,*,#90,.F.);
#217=CARTESIAN_POINT('',(15.0,-8.250000000000002,36.5));
#218=DIRECTION('',(0.0,0.0,-1.0));
#219=VECTOR('',#218,8.000000000000004);
#220=LINE('',#217,#219);
#221=EDGE_CURVE('',#169,#74,#220,.T.);
#222=ORIENTED_EDGE('',*,*,#221,.F.);
#223=ORIENTED_EDGE('',*,*,#206,.F.);
#224=CARTESIAN_POINT('',(15.0,12.847665157529597,28.5));
#225=DIRECTION('',(0.0,0.0,1.0));
#226=VECTOR('',#225,8.0);
#227=LINE('',#224,#226);
#228=EDGE_CURVE('',#85,#186,#227,.T.);
#229=ORIENTED_EDGE('',*,*,#228,.F.);
#230=EDGE_LOOP('',(#216,#222,#223,#229));
#231=FACE_OUTER_BOUND('',#230,.T.);
#232=ADVANCED_FACE('',(#231),#215,.F.);
#233=CARTESIAN_POINT('',(-12.5,19.75,36.5));
#234=DIRECTION('',(0.0,-1.0,0.0));
#235=DIRECTION('',(-0.707106781186547,0.0,0.707106781186547));
#236=AXIS2_PLACEMENT_3D('',#233,#234,#235);
#237=CYLINDRICAL_SURFACE('',#236,2.5);
#238=CARTESIAN_POINT('',(-15.0,-8.250000000000002,36.5));
#239=VERTEX_POINT('',#238);
#240=CARTESIAN_POINT('',(-12.5,-8.250000000000002,39.0));
#241=VERTEX_POINT('',#240);
#242=CARTESIAN_POINT('',(-12.5,-8.250000000000002,36.5));
#243=DIRECTION('',(0.0,1.0,0.0));
#244=DIRECTION('',(-0.707106781186547,0.0,0.707106781186547));
#245=AXIS2_PLACEMENT_3D('',#242,#243,#244);
#246=CIRCLE('',#245,2.5);
#247=EDGE_CURVE('',#239,#241,#246,.T.);
#248=ORIENTED_EDGE('',*,*,#247,.F.);
#249=CARTESIAN_POINT('',(-15.0,12.847665157529597,36.5));
#250=VERTEX_POINT('',#249);
#251=CARTESIAN_POINT('',(-15.0,-8.250000000000004,36.5));
#252=DIRECTION('',(0.0,1.0,0.0));
#253=VECTOR('',#252,21.097665157529601);
#254=LINE('',#251,#253);
#255=EDGE_CURVE('',#239,#250,#254,.T.);
#256=ORIENTED_EDGE('',*,*,#255,.T.);
#257=CARTESIAN_POINT('',(-12.5,15.290928683373028,39.0));
#258=VERTEX_POINT('',#257);
#259=CARTESIAN_POINT('',(-15.0,12.847665157529597,36.5));
#260=CARTESIAN_POINT('',(-15.0,12.847665157529597,36.658510765306708));
#261=CARTESIAN_POINT('',(-14.984700700558857,12.865587943501053,36.818299059542582));
#262=CARTESIAN_POINT('',(-14.924718542311822,12.93512213498704,37.129119906771223));
#263=CARTESIAN_POINT('',(-14.880068702365534,12.986660464762348,37.280175174033012));
#264=CARTESIAN_POINT('',(-14.710755057637941,13.178974323760421,37.706716380093908));
#265=CARTESIAN_POINT('',(-14.54906245825001,13.358509332989543,37.955585267585562));
#266=CARTESIAN_POINT('',(-14.140936960358177,13.791868575871982,38.419870762448653));
#267=CARTESIAN_POINT('',(-13.844588977961934,14.092162234250036,38.637529762968235));
#268=CARTESIAN_POINT('',(-13.193892892069261,14.703158534305299,38.928058004839336));
#269=CARTESIAN_POINT('',(-12.839043643234639,15.013767915169238,39.0));
#270=CARTESIAN_POINT('',(-12.500000000000004,15.290928683373025,39.0));
#271=B_SPLINE_CURVE_WITH_KNOTS('',3,(#259,#260,#261,#262,#263,#264,#265,#266,#267,#268,#269,#270),.UNSPECIFIED.,.F.,.U.,(4,2,2,2,2,4),(0.873824322785732,0.921377552377743,0.968930781969755,1.064037241153778,1.195411445282372,1.326785649410966),.UNSPECIFIED.);
#272=EDGE_CURVE('',#250,#258,#271,.T.);
#273=ORIENTED_EDGE('',*,*,#272,.T.);
#274=CARTESIAN_POINT('',(-12.5,15.290928683373028,39.0));
#275=DIRECTION('',(0.0,-1.0,0.0));
#276=VECTOR('',#275,23.540928683373032);
#277=LINE('',#274,#276);
#278=EDGE_CURVE('',#258,#241,#277,.T.);
#279=ORIENTED_EDGE('',*,*,#278,.T.);
#280=EDGE_LOOP('',(#248,#256,#273,#279));
#281=FACE_OUTER_BOUND('',#280,.T.);
#282=ADVANCED_FACE('',(#281),#237,.F.);
#283=CARTESIAN_POINT('',(-15.0,19.75,39.0));
#284=DIRECTION('',(0.0,0.0,1.0));
#285=DIRECTION('',(1.0,0.0,0.0));
#286=AXIS2_PLACEMENT_3D('',#283,#284,#285);
#287=PLANE('',#286);
#288=ORIENTED_EDGE('',*,*,#183,.F.);
#289=CARTESIAN_POINT('',(-12.5,-8.250000000000002,39.0));
#290=DIRECTION('',(1.0,0.0,0.0));
#291=VECTOR('',#290,25.0);
#292=LINE('',#289,#291);
#293=EDGE_CURVE('',#241,#167,#292,.T.);
#294=ORIENTED_EDGE('',*,*,#293,.F.);
#295=ORIENTED_EDGE('',*,*,#278,.F.);
#296=CARTESIAN_POINT('',(0.0,0.0,39.0));
#297=DIRECTION('',(0.0,0.0,1.0));
#298=DIRECTION('',(-1.0,0.0,0.0));
#299=AXIS2_PLACEMENT_3D('',#296,#297,#298);
#300=CIRCLE('',#299,19.75);
#301=EDGE_CURVE('',#178,#258,#300,.T.);
#302=ORIENTED_EDGE('',*,*,#301,.F.);
#303=EDGE_LOOP('',(#288,#294,#295,#302));
#304=FACE_OUTER_BOUND('',#303,.T.);
#305=ADVANCED_FACE('',(#304),#287,.F.);
#306=CARTESIAN_POINT('',(-12.5,19.75,28.5));
#307=DIRECTION('',(0.0,-1.0,0.0));
#308=DIRECTION('',(-0.707106781186547,0.0,-0.707106781186547));
#309=AXIS2_PLACEMENT_3D('',#306,#307,#308);
#310=CYLINDRICAL_SURFACE('',#309,2.5);
#311=CARTESIAN_POINT('',(-15.0,-8.250000000000002,28.5));
#312=VERTEX_POINT('',#311);
#313=CARTESIAN_POINT('',(-12.5,-8.250000000000002,28.5));
#314=DIRECTION('',(0.0,1.0,0.0));
#315=DIRECTION('',(-0.707106781186547,0.0,-0.707106781186547));
#316=AXIS2_PLACEMENT_3D('',#313,#314,#315);
#317=CIRCLE('',#316,2.5);
#318=EDGE_CURVE('',#134,#312,#317,.T.);
#319=ORIENTED_EDGE('',*,*,#318,.F.);
#320=ORIENTED_EDGE('',*,*,#139,.T.);
#321=CARTESIAN_POINT('',(-15.0,12.847665157529597,28.5));
#322=VERTEX_POINT('',#321);
#323=CARTESIAN_POINT('',(-12.5,15.290928683373028,26.0));
#324=CARTESIAN_POINT('',(-12.839043643234636,15.013767915169243,26.0));
#325=CARTESIAN_POINT('',(-13.193892892069258,14.703158534305308,26.071941995160664));
#326=CARTESIAN_POINT('',(-13.844588977961932,14.09216223425004,26.362470237031765));
#327=CARTESIAN_POINT('',(-14.140936960358177,13.791868575871984,26.580129237551343));
#328=CARTESIAN_POINT('',(-14.54906245825001,13.358509332989541,27.044414732414438));
#329=CARTESIAN_POINT('',(-14.710755057637941,13.17897432376042,27.293283619906092));
#330=CARTESIAN_POINT('',(-14.880068702365534,12.986660464762343,27.719824825966985));
#331=CARTESIAN_POINT('',(-14.924718542311822,12.935122134987044,27.870880093228788));
#332=CARTESIAN_POINT('',(-14.984700700558857,12.865587943501055,28.181700940457425));
#333=CARTESIAN_POINT('',(-15.0,12.847665157529597,28.341489234693292));
#334=CARTESIAN_POINT('',(-15.0,12.847665157529597,28.5));
#335=B_SPLINE_CURVE_WITH_KNOTS('',3,(#323,#324,#325,#326,#327,#328,#329,#330,#331,#332,#333,#334),.UNSPECIFIED.,.F.,.U.,(4,2,2,2,2,4),(0.420862996160496,0.552237200289091,0.683611404417685,0.778717863601708,0.82627109319372,0.873824322785732),.UNSPECIFIED.);
#336=EDGE_CURVE('',#125,#322,#335,.T.);
#337=ORIENTED_EDGE('',*,*,#336,.T.);
#338=CARTESIAN_POINT('',(-15.0,12.847665157529597,28.5));
#339=DIRECTION('',(0.0,-1.0,0.0));
#340=VECTOR('',#339,21.097665157529601);
#341=LINE('',#338,#340);
#342=EDGE_CURVE('',#322,#312,#341,.T.);
#343=ORIENTED_EDGE('',*,*,#342,.T.);
#344=EDGE_LOOP('',(#319,#320,#337,#343));
#345=FACE_OUTER_BOUND('',#344,.T.);
#346=ADVANCED_FACE('',(#345),#310,.F.);
#347=CARTESIAN_POINT('',(-15.0,19.75,26.0));
#348=DIRECTION('',(-1.0,0.0,0.0));
#349=DIRECTION('',(0.0,0.0,1.0));
#350=AXIS2_PLACEMENT_3D('',#347,#348,#349);
#351=PLANE('',#350);
#352=ORIENTED_EDGE('',*,*,#255,.F.);
#353=CARTESIAN_POINT('',(-15.0,-8.250000000000002,28.5));
#354=DIRECTION('',(0.0,0.0,1.0));
#355=VECTOR('',#354,8.0);
#356=LINE('',#353,#355);
#357=EDGE_CURVE('',#312,#239,#356,.T.);
#358=ORIENTED_EDGE('',*,*,#357,.F.);
#359=ORIENTED_EDGE('',*,*,#342,.F.);
#360=CARTESIAN_POINT('',(-15.0,12.847665157529597,36.5));
#361=DIRECTION('',(0.0,0.0,-1.0));
#362=VECTOR('',#361,8.0);
#363=LINE('',#360,#362);
#364=EDGE_CURVE('',#250,#322,#363,.T.);
#365=ORIENTED_EDGE('',*,*,#364,.F.);
#366=EDGE_LOOP('',(#352,#358,#359,#365));
#367=FACE_OUTER_BOUND('',#366,.T.);
#368=ADVANCED_FACE('',(#367),#351,.F.);
#369=CARTESIAN_POINT('',(0.0,-8.250000000000002,32.5));
#370=DIRECTION('',(0.0,1.0,0.0));
#371=DIRECTION('',(0.0,0.0,1.0));
#372=AXIS2_PLACEMENT_3D('',#369,#370,#371);
#373=PLANE('',#372);
#374=ORIENTED_EDGE('',*,*,#82,.T.);
#375=ORIENTED_EDGE('',*,*,#145,.T.);
#376=ORIENTED_EDGE('',*,*,#318,.T.);
#377=ORIENTED_EDGE('',*,*,#357,.T.);
#378=ORIENTED_EDGE('',*,*,#247,.T.);
#379=ORIENTED_EDGE('',*,*,#293,.T.);
#380=ORIENTED_EDGE('',*,*,#175,.T.);
#381=ORIENTED_EDGE('',*,*,#221,.T.);
#382=EDGE_LOOP('',(#374,#375,#376,#377,#378,#379,#380,#381));
#383=FACE_OUTER_BOUND('',#382,.T.);
#384=ADVANCED_FACE('',(#383),#373,.T.);
#385=CARTESIAN_POINT('',(0.0,0.0,0.5));
#386=DIRECTION('',(0.0,0.0,-1.0));
#387=DIRECTION('',(1.0,0.0,0.0));
#388=AXIS2_PLACEMENT_3D('',#385,#386,#387);
#389=CONICAL_SURFACE('',#388,4.6,44.999999999999986);
#390=CARTESIAN_POINT('',(-4.1,-5.021052E-016,1.000000000000001));
#391=VERTEX_POINT('',#390);
#392=CARTESIAN_POINT('',(0.0,0.0,1.000000000000001));
#393=DIRECTION('',(0.0,0.0,1.0));
#394=DIRECTION('',(1.0,0.0,0.0));
#395=AXIS2_PLACEMENT_3D('',#392,#393,#394);
#396=CIRCLE('',#395,4.1);
#397=EDGE_CURVE('',#391,#391,#396,.T.);
#398=ORIENTED_EDGE('',*,*,#397,.T.);
#399=EDGE_LOOP('',(#398));
#400=FACE_OUTER_BOUND('',#399,.T.);
#401=CARTESIAN_POINT('',(-5.1,6.245699E-016,0.0));
#402=VERTEX_POINT('',#401);
#403=CARTESIAN_POINT('',(0.0,0.0,0.0));
#404=DIRECTION('',(0.0,0.0,-1.0));
#405=DIRECTION('',(1.0,0.0,0.0));
#406=AXIS2_PLACEMENT_3D('',#403,#404,#405);
#407=CIRCLE('',#406,5.1);
#408=EDGE_CURVE('',#402,#402,#407,.T.);
#409=ORIENTED_EDGE('',*,*,#408,.T.);
#410=EDGE_LOOP('',(#409));
#411=FACE_BOUND('',#410,.T.);
#412=ADVANCED_FACE('',(#400,#411),#389,.F.);
#413=CARTESIAN_POINT('',(0.0,0.0,14.000000000000002));
#414=DIRECTION('',(0.0,0.0,-1.0));
#415=DIRECTION('',(-1.0,0.0,0.0));
#416=AXIS2_PLACEMENT_3D('',#413,#414,#415);
#417=CYLINDRICAL_SURFACE('',#416,4.1);
#418=ORIENTED_EDGE('',*,*,#156,.T.);
#419=EDGE_LOOP('',(#418));
#420=FACE_OUTER_BOUND('',#419,.T.);
#421=ORIENTED_EDGE('',*,*,#397,.F.);
#422=EDGE_LOOP('',(#421));
#423=FACE_BOUND('',#422,.T.);
#424=ADVANCED_FACE('',(#420,#423),#417,.F.);
#425=CARTESIAN_POINT('',(0.0,0.0,0.0));
#426=DIRECTION('',(0.0,0.0,-1.0));
#427=DIRECTION('',(-1.0,0.0,0.0));
#428=AXIS2_PLACEMENT_3D('',#425,#426,#427);
#429=PLANE('',#428);
#430=CARTESIAN_POINT('',(19.75,2.418677E-015,0.0));
#431=VERTEX_POINT('',#430);
#432=CARTESIAN_POINT('',(0.0,0.0,0.0));
#433=DIRECTION('',(0.0,0.0,-1.0));
#434=DIRECTION('',(-1.0,0.0,0.0));
#435=AXIS2_PLACEMENT_3D('',#432,#433,#434);
#436=CIRCLE('',#435,19.75);
#437=EDGE_CURVE('',#431,#431,#436,.T.);
#438=ORIENTED_EDGE('',*,*,#437,.T.);
#439=EDGE_LOOP('',(#438));
#440=FACE_OUTER_BOUND('',#439,.T.);
#441=ORIENTED_EDGE('',*,*,#408,.F.);
#442=EDGE_LOOP('',(#441));
#443=FACE_BOUND('',#442,.T.);
#444=ADVANCED_FACE('',(#440,#443),#429,.T.);
#445=CARTESIAN_POINT('',(0.0,0.0,40.500000000000007));
#446=DIRECTION('',(0.0,0.0,-1.0));
#447=DIRECTION('',(-1.0,0.0,0.0));
#448=AXIS2_PLACEMENT_3D('',#445,#446,#447);
#449=TOROIDAL_SURFACE('',#448,16.25,3.5);
#450=CARTESIAN_POINT('',(16.25,-1.990051E-015,44.0));
#451=VERTEX_POINT('',#450);
#452=CARTESIAN_POINT('',(0.0,0.0,44.0));
#453=DIRECTION('',(0.0,0.0,-1.0));
#454=DIRECTION('',(-1.0,0.0,0.0));
#455=AXIS2_PLACEMENT_3D('',#452,#453,#454);
#456=CIRCLE('',#455,16.25);
#457=EDGE_CURVE('',#451,#451,#456,.T.);
#458=ORIENTED_EDGE('',*,*,#457,.T.);
#459=EDGE_LOOP('',(#458));
#460=FACE_OUTER_BOUND('',#459,.T.);
#461=CARTESIAN_POINT('',(19.75,2.418677E-015,40.500000000000007));
#462=VERTEX_POINT('',#461);
#463=CARTESIAN_POINT('',(0.0,0.0,40.500000000000007));
#464=DIRECTION('',(0.0,0.0,1.0));
#465=DIRECTION('',(-1.0,0.0,0.0));
#466=AXIS2_PLACEMENT_3D('',#463,#464,#465);
#467=CIRCLE('',#466,19.75);
#468=EDGE_CURVE('',#462,#462,#467,.T.);
#469=ORIENTED_EDGE('',*,*,#468,.T.);
#470=EDGE_LOOP('',(#469));
#471=FACE_BOUND('',#470,.T.);
#472=ADVANCED_FACE('',(#460,#471),#449,.T.);
#473=CARTESIAN_POINT('',(0.0,0.0,0.0));
#474=DIRECTION('',(0.0,0.0,1.0));
#475=DIRECTION('',(-1.0,0.0,0.0));
#476=AXIS2_PLACEMENT_3D('',#473,#474,#475);
#477=CYLINDRICAL_SURFACE('',#476,19.75);
#478=ORIENTED_EDGE('',*,*,#437,.F.);
#479=EDGE_LOOP('',(#478));
#480=FACE_OUTER_BOUND('',#479,.T.);
#481=ORIENTED_EDGE('',*,*,#301,.T.);
#482=ORIENTED_EDGE('',*,*,#272,.F.);
#483=ORIENTED_EDGE('',*,*,#364,.T.);
#484=ORIENTED_EDGE('',*,*,#336,.F.);
#485=ORIENTED_EDGE('',*,*,#131,.T.);
#486=ORIENTED_EDGE('',*,*,#107,.F.);
#487=ORIENTED_EDGE('',*,*,#228,.T.);
#488=ORIENTED_EDGE('',*,*,#200,.F.);
#489=EDGE_LOOP('',(#481,#482,#483,#484,#485,#486,#487,#488));
#490=FACE_BOUND('',#489,.T.);
#491=ORIENTED_EDGE('',*,*,#468,.F.);
#492=EDGE_LOOP('',(#491));
#493=FACE_BOUND('',#492,.T.);
#494=ADVANCED_FACE('',(#480,#490,#493),#477,.T.);
#495=CARTESIAN_POINT('',(0.0,0.0,44.0));
#496=DIRECTION('',(0.0,0.0,-1.0));
#497=DIRECTION('',(-1.0,0.0,0.0));
#498=AXIS2_PLACEMENT_3D('',#495,#496,#497);
#499=PLANE('',#498);
#500=ORIENTED_EDGE('',*,*,#457,.F.);
#501=EDGE_LOOP('',(#500));
#502=FACE_OUTER_BOUND('',#501,.T.);
#503=ADVANCED_FACE('',(#502),#499,.F.);
#504=CLOSED_SHELL('',(#117,#160,#210,#232,#282,#305,#346,#368,#384,#412,#424,#444,#472,#494,#503));
#505=MANIFOLD_SOLID_BREP('Volumenk\S\vrper1',#504);
#506=DRAUGHTING_PRE_DEFINED_COLOUR('black');
#507=FILL_AREA_STYLE_COLOUR('Schwarz',#506);
#508=FILL_AREA_STYLE('Schwarz',(#507));
#509=SURFACE_STYLE_FILL_AREA(#508);
#510=SURFACE_SIDE_STYLE('Schwarz',(#509));
#511=SURFACE_STYLE_USAGE(.BOTH.,#510);
#512=PRESENTATION_STYLE_ASSIGNMENT((#511));
#513=STYLED_ITEM('',(#512),#505);
#514=MECHANICAL_DESIGN_GEOMETRIC_PRESENTATION_REPRESENTATION('',(#513),#36);
#515=ADVANCED_BREP_SHAPE_REPRESENTATION('ABSR',(#505),#36);
#516=SHAPE_REPRESENTATION_RELATIONSHIP('SRR','None',#515,#41);
ENDSEC;
END-ISO-10303-21;
