ISO-10303-21;
HEADER;
/****************************************************************
 * Generated by software with PDElib inside                    *
 * PDElib Version v51a, created Wed 07/06/2011                  *
 * ITI Transcendata (http://www.transcendata.com/)              *
 ****************************************************************/
FILE_DESCRIPTION((''),'2;1');
FILE_NAME('U:\\Paletti Norm\\Paletti Artikel\\SZ\\SZ0310S-A.stp','2013-08-22T11:01:52',('janine behrens'),(''),'Autodesk Inventor 2012','Autodesk Inventor 2012','');
FILE_SCHEMA(('AUTOMOTIVE_DESIGN { 1 0 10303 214 1 1 1 1 }'));
ENDSEC;
DATA;
#5=APPLICATION_CONTEXT('automotive design');
#6=APPLICATION_PROTOCOL_DEFINITION('International Standard','automotive_design',2001,#5);
#7=PRODUCT_CONTEXT('',#5,'mechanical');
#8=PRODUCT('SZ0310S-A','SZ0310S-A',$,(#7));
#9=PRODUCT_RELATED_PRODUCT_CATEGORY('part',$,(#8));
#10=PRODUCT_DEFINITION_FORMATION('',$,#8);
#11=PRODUCT_DEFINITION_CONTEXT('part definition',#5,'design');
#12=PRODUCT_DEFINITION('',$,#10,#11);
#18=(NAMED_UNIT(*)PLANE_ANGLE_UNIT()SI_UNIT($,.RADIAN.));
#19=DIMENSIONAL_EXPONENTS(0.0,0.0,0.0,0.0,0.0,0.0,0.0);
#20=PLANE_ANGLE_MEASURE_WITH_UNIT(PLANE_ANGLE_MEASURE(0.0174532925),#18);
#24=(CONVERSION_BASED_UNIT('DEGREE',#20)NAMED_UNIT(#19)PLANE_ANGLE_UNIT());
#28=(NAMED_UNIT(*)SI_UNIT($,.STERADIAN.)SOLID_ANGLE_UNIT());
#32=(LENGTH_UNIT()NAMED_UNIT(*)SI_UNIT(.MILLI.,.METRE.));
#34=UNCERTAINTY_MEASURE_WITH_UNIT(LENGTH_MEASURE(0.01),#32,'DISTANCE_ACCURACY_VALUE','');
#36=(GEOMETRIC_REPRESENTATION_CONTEXT(3)GLOBAL_UNCERTAINTY_ASSIGNED_CONTEXT((#34))GLOBAL_UNIT_ASSIGNED_CONTEXT((#24,#28,#32))REPRESENTATION_CONTEXT('None','None'));
#37=AXIS2_PLACEMENT_3D('',#38,#39,#40);
#38=CARTESIAN_POINT('',(0.0,0.0,0.0));
#39=DIRECTION('',(0.0,0.0,1.0));
#40=DIRECTION('',(1.0,0.0,0.0));
#41=SHAPE_REPRESENTATION('',(#37),#36);
#42=PRODUCT_DEFINITION_SHAPE('','',#12);
#43=SHAPE_DEFINITION_REPRESENTATION(#42,#41);
#49=(NAMED_UNIT(*)PLANE_ANGLE_UNIT()SI_UNIT($,.RADIAN.));
#50=DIMENSIONAL_EXPONENTS(0.0,0.0,0.0,0.0,0.0,0.0,0.0);
#51=PLANE_ANGLE_MEASURE_WITH_UNIT(PLANE_ANGLE_MEASURE(0.0174532925),#49);
#55=(CONVERSION_BASED_UNIT('DEGREE',#51)NAMED_UNIT(#50)PLANE_ANGLE_UNIT());
#59=(NAMED_UNIT(*)SI_UNIT($,.STERADIAN.)SOLID_ANGLE_UNIT());
#63=(LENGTH_UNIT()NAMED_UNIT(*)SI_UNIT(.MILLI.,.METRE.));
#65=UNCERTAINTY_MEASURE_WITH_UNIT(LENGTH_MEASURE(0.000001),#63,'DISTANCE_ACCURACY_VALUE','');
#67=(GEOMETRIC_REPRESENTATION_CONTEXT(3)GLOBAL_UNCERTAINTY_ASSIGNED_CONTEXT((#65))GLOBAL_UNIT_ASSIGNED_CONTEXT((#55,#59,#63))REPRESENTATION_CONTEXT('','3D'));
#68=CARTESIAN_POINT('',(0.0,0.0,2.0));
#69=DIRECTION('',(0.0,0.0,1.0));
#70=DIRECTION('',(1.0,0.0,0.0));
#71=AXIS2_PLACEMENT_3D('',#68,#69,#70);
#72=PLANE('',#71);
#73=CARTESIAN_POINT('',(16.5,0.0,2.0));
#74=VERTEX_POINT('',#73);
#75=CARTESIAN_POINT('',(0.0,0.0,2.0));
#76=DIRECTION('',(0.0,0.0,1.0));
#77=DIRECTION('',(1.0,0.0,0.0));
#78=AXIS2_PLACEMENT_3D('',#75,#76,#77);
#79=CIRCLE('',#78,16.5);
#80=EDGE_CURVE('',#74,#74,#79,.T.);
#81=ORIENTED_EDGE('',*,*,#80,.T.);
#82=EDGE_LOOP('',(#81));
#83=FACE_OUTER_BOUND('',#82,.T.);
#84=CARTESIAN_POINT('',(-10.0,-1.224606E-015,1.999999999999993));
#85=VERTEX_POINT('',#84);
#86=CARTESIAN_POINT('',(0.0,0.0,1.999999999999993));
#87=DIRECTION('',(0.0,0.0,1.0));
#88=DIRECTION('',(1.0,0.0,0.0));
#89=AXIS2_PLACEMENT_3D('',#86,#87,#88);
#90=CIRCLE('',#89,10.0);
#91=EDGE_CURVE('',#85,#85,#90,.T.);
#92=ORIENTED_EDGE('',*,*,#91,.F.);
#93=EDGE_LOOP('',(#92));
#94=FACE_BOUND('',#93,.T.);
#95=ADVANCED_FACE('',(#83,#94),#72,.T.);
#96=CARTESIAN_POINT('',(0.0,0.0,3.5));
#97=DIRECTION('',(0.0,0.0,1.0));
#98=DIRECTION('',(1.0,0.0,0.0));
#99=AXIS2_PLACEMENT_3D('',#96,#97,#98);
#100=CYLINDRICAL_SURFACE('',#99,16.5);
#101=CARTESIAN_POINT('',(16.5,0.0,5.0));
#102=VERTEX_POINT('',#101);
#103=CARTESIAN_POINT('',(0.0,0.0,5.0));
#104=DIRECTION('',(0.0,0.0,-1.0));
#105=DIRECTION('',(1.0,0.0,0.0));
#106=AXIS2_PLACEMENT_3D('',#103,#104,#105);
#107=CIRCLE('',#106,16.5);
#108=EDGE_CURVE('',#102,#102,#107,.T.);
#109=ORIENTED_EDGE('',*,*,#108,.F.);
#110=EDGE_LOOP('',(#109));
#111=FACE_OUTER_BOUND('',#110,.T.);
#112=ORIENTED_EDGE('',*,*,#80,.F.);
#113=EDGE_LOOP('',(#112));
#114=FACE_BOUND('',#113,.T.);
#115=ADVANCED_FACE('',(#111,#114),#100,.F.);
#116=CARTESIAN_POINT('',(0.0,0.0,-136.77446878757826));
#117=DIRECTION('',(0.0,0.0,1.0));
#118=DIRECTION('',(1.0,0.0,0.0));
#119=AXIS2_PLACEMENT_3D('',#116,#117,#118);
#120=CYLINDRICAL_SURFACE('',#119,10.0);
#121=CARTESIAN_POINT('',(-10.0,-1.224606E-015,-5.0));
#122=VERTEX_POINT('',#121);
#123=CARTESIAN_POINT('',(0.0,0.0,-5.0));
#124=DIRECTION('',(0.0,0.0,1.0));
#125=DIRECTION('',(1.0,0.0,0.0));
#126=AXIS2_PLACEMENT_3D('',#123,#124,#125);
#127=CIRCLE('',#126,10.0);
#128=EDGE_CURVE('',#122,#122,#127,.T.);
#129=ORIENTED_EDGE('',*,*,#128,.F.);
#130=EDGE_LOOP('',(#129));
#131=FACE_OUTER_BOUND('',#130,.T.);
#132=ORIENTED_EDGE('',*,*,#91,.T.);
#133=EDGE_LOOP('',(#132));
#134=FACE_BOUND('',#133,.T.);
#135=ADVANCED_FACE('',(#131,#134),#120,.F.);
#136=CARTESIAN_POINT('',(-4.440892E-015,0.0,-5.0));
#137=DIRECTION('',(0.0,0.0,1.0));
#138=DIRECTION('',(1.0,0.0,0.0));
#139=AXIS2_PLACEMENT_3D('',#136,#137,#138);
#140=PLANE('',#139);
#141=CARTESIAN_POINT('',(-50.000000000000007,49.999999999999993,-5.0));
#142=VERTEX_POINT('',#141);
#143=CARTESIAN_POINT('',(-50.0,-50.0,-5.0));
#144=VERTEX_POINT('',#143);
#145=CARTESIAN_POINT('',(-50.000000000000007,50.0,-5.0));
#146=DIRECTION('',(0.0,-1.0,0.0));
#147=VECTOR('',#146,100.0);
#148=LINE('',#145,#147);
#149=EDGE_CURVE('',#142,#144,#148,.T.);
#150=ORIENTED_EDGE('',*,*,#149,.F.);
#151=CARTESIAN_POINT('',(49.999999999999993,50.000000000000007,-5.0));
#152=VERTEX_POINT('',#151);
#153=CARTESIAN_POINT('',(49.999999999999993,50.000000000000014,-5.0));
#154=DIRECTION('',(-1.0,0.0,0.0));
#155=VECTOR('',#154,100.0);
#156=LINE('',#153,#155);
#157=EDGE_CURVE('',#152,#142,#156,.T.);
#158=ORIENTED_EDGE('',*,*,#157,.F.);
#159=CARTESIAN_POINT('',(49.999999999999993,-50.000000000000007,-5.0));
#160=VERTEX_POINT('',#159);
#161=CARTESIAN_POINT('',(49.999999999999993,-50.000000000000007,-5.0));
#162=DIRECTION('',(0.0,1.0,0.0));
#163=VECTOR('',#162,100.00000000000001);
#164=LINE('',#161,#163);
#165=EDGE_CURVE('',#160,#152,#164,.T.);
#166=ORIENTED_EDGE('',*,*,#165,.F.);
#167=CARTESIAN_POINT('',(-50.000000000000007,-50.0,-5.0));
#168=DIRECTION('',(1.0,0.0,0.0));
#169=VECTOR('',#168,100.0);
#170=LINE('',#167,#169);
#171=EDGE_CURVE('',#144,#160,#170,.T.);
#172=ORIENTED_EDGE('',*,*,#171,.F.);
#173=EDGE_LOOP('',(#150,#158,#166,#172));
#174=FACE_OUTER_BOUND('',#173,.T.);
#175=ORIENTED_EDGE('',*,*,#128,.T.);
#176=EDGE_LOOP('',(#175));
#177=FACE_BOUND('',#176,.T.);
#178=ADVANCED_FACE('',(#174,#177),#140,.F.);
#179=CARTESIAN_POINT('',(49.999999999999993,50.000000000000007,0.0));
#180=DIRECTION('',(1.0,0.0,0.0));
#181=DIRECTION('',(0.0,0.0,-1.0));
#182=AXIS2_PLACEMENT_3D('',#179,#180,#181);
#183=PLANE('',#182);
#184=CARTESIAN_POINT('',(49.999999999999993,50.000000000000007,5.0));
#185=VERTEX_POINT('',#184);
#186=CARTESIAN_POINT('',(49.999999999999993,-50.000000000000007,5.0));
#187=VERTEX_POINT('',#186);
#188=CARTESIAN_POINT('',(49.999999999999993,50.000000000000007,5.0));
#189=DIRECTION('',(0.0,-1.0,0.0));
#190=VECTOR('',#189,100.00000000000001);
#191=LINE('',#188,#190);
#192=EDGE_CURVE('',#185,#187,#191,.T.);
#193=ORIENTED_EDGE('',*,*,#192,.T.);
#194=CARTESIAN_POINT('',(49.999999999999993,-50.000000000000007,5.0));
#195=DIRECTION('',(0.0,0.0,-1.0));
#196=VECTOR('',#195,10.0);
#197=LINE('',#194,#196);
#198=EDGE_CURVE('',#187,#160,#197,.T.);
#199=ORIENTED_EDGE('',*,*,#198,.T.);
#200=ORIENTED_EDGE('',*,*,#165,.T.);
#201=CARTESIAN_POINT('',(49.999999999999993,50.000000000000007,5.0));
#202=DIRECTION('',(0.0,0.0,-1.0));
#203=VECTOR('',#202,10.0);
#204=LINE('',#201,#203);
#205=EDGE_CURVE('',#185,#152,#204,.T.);
#206=ORIENTED_EDGE('',*,*,#205,.F.);
#207=EDGE_LOOP('',(#193,#199,#200,#206));
#208=FACE_OUTER_BOUND('',#207,.T.);
#209=ADVANCED_FACE('',(#208),#183,.T.);
#210=CARTESIAN_POINT('',(49.999999999999993,-50.000000000000007,0.0));
#211=DIRECTION('',(0.0,-1.0,0.0));
#212=DIRECTION('',(0.0,0.0,-1.0));
#213=AXIS2_PLACEMENT_3D('',#210,#211,#212);
#214=PLANE('',#213);
#215=CARTESIAN_POINT('',(-50.0,-50.0,5.0));
#216=VERTEX_POINT('',#215);
#217=CARTESIAN_POINT('',(49.999999999999993,-50.000000000000007,5.0));
#218=DIRECTION('',(-1.0,0.0,0.0));
#219=VECTOR('',#218,100.0);
#220=LINE('',#217,#219);
#221=EDGE_CURVE('',#187,#216,#220,.T.);
#222=ORIENTED_EDGE('',*,*,#221,.T.);
#223=CARTESIAN_POINT('',(-50.0,-50.0,5.0));
#224=DIRECTION('',(0.0,0.0,-1.0));
#225=VECTOR('',#224,10.0);
#226=LINE('',#223,#225);
#227=EDGE_CURVE('',#216,#144,#226,.T.);
#228=ORIENTED_EDGE('',*,*,#227,.T.);
#229=ORIENTED_EDGE('',*,*,#171,.T.);
#230=ORIENTED_EDGE('',*,*,#198,.F.);
#231=EDGE_LOOP('',(#222,#228,#229,#230));
#232=FACE_OUTER_BOUND('',#231,.T.);
#233=ADVANCED_FACE('',(#232),#214,.T.);
#234=CARTESIAN_POINT('',(-50.0,-50.0,0.0));
#235=DIRECTION('',(-1.0,0.0,0.0));
#236=DIRECTION('',(0.0,0.0,1.0));
#237=AXIS2_PLACEMENT_3D('',#234,#235,#236);
#238=PLANE('',#237);
#239=CARTESIAN_POINT('',(-50.000000000000007,49.999999999999993,5.0));
#240=VERTEX_POINT('',#239);
#241=CARTESIAN_POINT('',(-50.0,-50.0,5.0));
#242=DIRECTION('',(0.0,1.0,0.0));
#243=VECTOR('',#242,100.0);
#244=LINE('',#241,#243);
#245=EDGE_CURVE('',#216,#240,#244,.T.);
#246=ORIENTED_EDGE('',*,*,#245,.T.);
#247=CARTESIAN_POINT('',(-50.000000000000007,49.999999999999993,-5.0));
#248=DIRECTION('',(0.0,0.0,1.0));
#249=VECTOR('',#248,10.0);
#250=LINE('',#247,#249);
#251=EDGE_CURVE('',#142,#240,#250,.T.);
#252=ORIENTED_EDGE('',*,*,#251,.F.);
#253=ORIENTED_EDGE('',*,*,#149,.T.);
#254=ORIENTED_EDGE('',*,*,#227,.F.);
#255=EDGE_LOOP('',(#246,#252,#253,#254));
#256=FACE_OUTER_BOUND('',#255,.T.);
#257=ADVANCED_FACE('',(#256),#238,.T.);
#258=CARTESIAN_POINT('',(-50.000000000000007,49.999999999999993,0.0));
#259=DIRECTION('',(0.0,1.0,0.0));
#260=DIRECTION('',(0.0,0.0,1.0));
#261=AXIS2_PLACEMENT_3D('',#258,#259,#260);
#262=PLANE('',#261);
#263=CARTESIAN_POINT('',(-50.000000000000007,49.999999999999993,5.0));
#264=DIRECTION('',(1.0,0.0,0.0));
#265=VECTOR('',#264,100.0);
#266=LINE('',#263,#265);
#267=EDGE_CURVE('',#240,#185,#266,.T.);
#268=ORIENTED_EDGE('',*,*,#267,.T.);
#269=ORIENTED_EDGE('',*,*,#205,.T.);
#270=ORIENTED_EDGE('',*,*,#157,.T.);
#271=ORIENTED_EDGE('',*,*,#251,.T.);
#272=EDGE_LOOP('',(#268,#269,#270,#271));
#273=FACE_OUTER_BOUND('',#272,.T.);
#274=ADVANCED_FACE('',(#273),#262,.T.);
#275=CARTESIAN_POINT('',(-4.440892E-015,-4.037175E-016,5.0));
#276=DIRECTION('',(0.0,0.0,1.0));
#277=DIRECTION('',(1.0,0.0,0.0));
#278=AXIS2_PLACEMENT_3D('',#275,#276,#277);
#279=PLANE('',#278);
#280=ORIENTED_EDGE('',*,*,#192,.F.);
#281=ORIENTED_EDGE('',*,*,#267,.F.);
#282=ORIENTED_EDGE('',*,*,#245,.F.);
#283=ORIENTED_EDGE('',*,*,#221,.F.);
#284=EDGE_LOOP('',(#280,#281,#282,#283));
#285=FACE_OUTER_BOUND('',#284,.T.);
#286=ORIENTED_EDGE('',*,*,#108,.T.);
#287=EDGE_LOOP('',(#286));
#288=FACE_BOUND('',#287,.T.);
#289=ADVANCED_FACE('',(#285,#288),#279,.T.);
#290=CLOSED_SHELL('',(#95,#115,#135,#178,#209,#233,#257,#274,#289));
#291=MANIFOLD_SOLID_BREP('Volumenk\S\vrper1',#290);
#292=DRAUGHTING_PRE_DEFINED_COLOUR('black');
#293=FILL_AREA_STYLE_COLOUR('Schwarz',#292);
#294=FILL_AREA_STYLE('Schwarz',(#293));
#295=SURFACE_STYLE_FILL_AREA(#294);
#296=SURFACE_SIDE_STYLE('Schwarz',(#295));
#297=SURFACE_STYLE_USAGE(.BOTH.,#296);
#298=PRESENTATION_STYLE_ASSIGNMENT((#297));
#299=STYLED_ITEM('',(#298),#291);
#300=MECHANICAL_DESIGN_GEOMETRIC_PRESENTATION_REPRESENTATION('',(#299),#36);
#301=ADVANCED_BREP_SHAPE_REPRESENTATION('ABSR',(#291),#36);
#302=SHAPE_REPRESENTATION_RELATIONSHIP('SRR','None',#301,#41);
ENDSEC;
END-ISO-10303-21;
