  0
SECTION
  2
HEADER
  9
$ACADVER
  1
AC1014
  9
$ACADMAINTVER
 70
     9
  9
$DWGCODEPAGE
  3
ANSI_1252
  9
$INSBASE
 10
0.0
 20
0.0
 30
0.0
  9
$EXTMIN
 10
-13.396197
 20
-81.196937
 30
0.0
  9
$EXTMAX
 10
15.756798
 20
-52.454959
 30
0.0
  9
$LIMMIN
 10
0.0
 20
0.0
  9
$LIMMAX
 10
210.0
 20
297.0
  9
$ORTHOMODE
 70
     0
  9
$REGENMODE
 70
     1
  9
$FILLMODE
 70
     1
  9
$QTEXTMODE
 70
     0
  9
$MIRRTEXT
 70
     1
  9
$DRAGMODE
 70
     2
  9
$LTSCALE
 40
5.0
  9
$OSMODE
 70
     7
  9
$ATTMODE
 70
     1
  9
$TEXTSIZE
 40
2.5
  9
$TRACEWID
 40
1.0
  9
$TEXTSTYLE
  7
STANDARD
  9
$CLAYER
  8
2D_PROFILE
  9
$CELTYPE
  6
BYLAYER
  9
$CECOLOR
 62
   256
  9
$CELTSCALE
 40
1.0
  9
$DELOBJ
 70
     1
  9
$DISPSILH
 70
     0
  9
$DIMSCALE
 40
1.0
  9
$DIMASZ
 40
2.5
  9
$DIMEXO
 40
1.0
  9
$DIMDLI
 40
7.0
  9
$DIMRND
 40
0.0
  9
$DIMDLE
 40
0.0
  9
$DIMEXE
 40
1.0
  9
$DIMTP
 40
0.1
  9
$DIMTM
 40
0.1
  9
$DIMTXT
 40
3.5
  9
$DIMCEN
 40
0.0
  9
$DIMTSZ
 40
0.0
  9
$DIMTOL
 70
     0
  9
$DIMLIM
 70
     0
  9
$DIMTIH
 70
     0
  9
$DIMTOH
 70
     0
  9
$DIMSE1
 70
     0
  9
$DIMSE2
 70
     0
  9
$DIMTAD
 70
     1
  9
$DIMZIN
 70
     8
  9
$DIMBLK
  1

  9
$DIMASO
 70
     1
  9
$DIMSHO
 70
     1
  9
$DIMPOST
  1

  9
$DIMAPOST
  1
"
  9
$DIMALT
 70
     0
  9
$DIMALTD
 70
     2
  9
$DIMALTF
 40
0.03937
  9
$DIMLFAC
 40
1.0
  9
$DIMTOFL
 70
     1
  9
$DIMTVP
 40
0.0
  9
$DIMTIX
 70
     0
  9
$DIMSOXD
 70
     0
  9
$DIMSAH
 70
     0
  9
$DIMBLK1
  1

  9
$DIMBLK2
  1

  9
$DIMSTYLE
  2
GEN-ISO
  9
$DIMCLRD
 70
   256
  9
$DIMCLRE
 70
   256
  9
$DIMCLRT
 70
     2
  9
$DIMTFAC
 40
0.71
  9
$DIMGAP
 40
0.6
  9
$DIMJUST
 70
     0
  9
$DIMSD1
 70
     0
  9
$DIMSD2
 70
     0
  9
$DIMTOLJ
 70
     1
  9
$DIMTZIN
 70
     8
  9
$DIMALTZ
 70
     8
  9
$DIMALTTZ
 70
     8
  9
$DIMFIT
 70
     5
  9
$DIMUPT
 70
     0
  9
$DIMUNIT
 70
     2
  9
$DIMDEC
 70
     4
  9
$DIMTDEC
 70
     4
  9
$DIMALTU
 70
     2
  9
$DIMALTTD
 70
     2
  9
$DIMTXSTY
  7
STANDARD
  9
$DIMAUNIT
 70
     0
  9
$LUNITS
 70
     2
  9
$LUPREC
 70
     4
  9
$SKETCHINC
 40
1.0
  9
$FILLETRAD
 40
2.75
  9
$AUNITS
 70
     0
  9
$AUPREC
 70
     0
  9
$MENU
  1
acad
  9
$ELEVATION
 40
0.0
  9
$PELEVATION
 40
0.0
  9
$THICKNESS
 40
0.0
  9
$LIMCHECK
 70
     0
  9
$BLIPMODE
 70
     0
  9
$CHAMFERA
 40
10.0
  9
$CHAMFERB
 40
10.0
  9
$CHAMFERC
 40
0.0
  9
$CHAMFERD
 40
0.0
  9
$SKPOLY
 70
     0
  9
$TDCREATE
 40
2451229.669835058
  9
$TDUPDATE
 40
2451229.669835058
  9
$TDINDWG
 40
0.0000000000
  9
$TDUSRTIMER
 40
0.0000000000
  9
$USRTIMER
 70
     1
  9
$ANGBASE
 50
0.0
  9
$ANGDIR
 70
     0
  9
$PDMODE
 70
     0
  9
$PDSIZE
 40
0.0
  9
$PLINEWID
 40
0.0
  9
$COORDS
 70
     1
  9
$SPLFRAME
 70
     0
  9
$SPLINETYPE
 70
     6
  9
$SPLINESEGS
 70
     8
  9
$ATTDIA
 70
     1
  9
$ATTREQ
 70
     1
  9
$HANDLING
 70
     1
  9
$HANDSEED
  5
41
  9
$SURFTAB1
 70
     6
  9
$SURFTAB2
 70
     6
  9
$SURFTYPE
 70
     6
  9
$SURFU
 70
     6
  9
$SURFV
 70
     6
  9
$UCSNAME
  2

  9
$UCSORG
 10
0.0
 20
0.0
 30
0.0
  9
$UCSXDIR
 10
1.0
 20
0.0
 30
0.0
  9
$UCSYDIR
 10
0.0
 20
1.0
 30
0.0
  9
$PUCSNAME
  2

  9
$PUCSORG
 10
0.0
 20
0.0
 30
0.0
  9
$PUCSXDIR
 10
1.0
 20
0.0
 30
0.0
  9
$PUCSYDIR
 10
0.0
 20
1.0
 30
0.0
  9
$USERI1
 70
     0
  9
$USERI2
 70
     0
  9
$USERI3
 70
     0
  9
$USERI4
 70
     0
  9
$USERI5
 70
     0
  9
$USERR1
 40
1.0
  9
$USERR2
 40
0.0
  9
$USERR3
 40
0.0
  9
$USERR4
 40
0.0
  9
$USERR5
 40
0.0
  9
$WORLDVIEW
 70
     1
  9
$SHADEDGE
 70
     3
  9
$SHADEDIF
 70
    70
  9
$TILEMODE
 70
     1
  9
$MAXACTVP
 70
    16
  9
$PINSBASE
 10
0.0
 20
0.0
 30
0.0
  9
$PLIMCHECK
 70
     0
  9
$PEXTMIN
 10
1.000000E+20
 20
1.000000E+20
 30
1.000000E+20
  9
$PEXTMAX
 10
-1.000000E+20
 20
-1.000000E+20
 30
-1.000000E+20
  9
$PLIMMIN
 10
0.0
 20
0.0
  9
$PLIMMAX
 10
420.0
 20
297.0
  9
$UNITMODE
 70
     0
  9
$VISRETAIN
 70
     0
  9
$PLINEGEN
 70
     0
  9
$PSLTSCALE
 70
     1
  9
$TREEDEPTH
 70
  3020
  9
$PICKSTYLE
 70
     1
  9
$CMLSTYLE
  2
STANDARD
  9
$CMLJUST
 70
     0
  9
$CMLSCALE
 40
1.0
  9
$PROXYGRAPHICS
 70
     1
  9
$MEASUREMENT
 70
     0
  0
ENDSEC
  0
SECTION
  2
CLASSES
  0
CLASS
  1
DICTIONARYVAR
  2
AcDbDictionaryVar
  3
"AutoCAD"
 90
        0
280
     0
281
     0
  0
ENDSEC
  0
SECTION
  2
TABLES
  0
TABLE
  2
VPORT
  5
12
100
AcDbSymbolTable
 70
     2
  0
VPORT
  5
40
100
AcDbSymbolTableRecord
100
AcDbViewportTableRecord
  2
*ACTIVE
 70
     0
 10
0.0
 20
0.0
 11
1.0
 21
1.0
 12
12.16379
 22
-68.82917
 13
0.0
 23
0.0
 14
5.0
 24
5.0
 15
5.0
 25
5.0
 16
0.0
 26
0.0
 36
1.0
 17
0.0
 27
0.0
 37
0.0
 40
73.257231
 41
1.700368
 42
50.0
 43
0.0
 44
0.0
 50
0.0
 51
0.0
 71
     0
 72
 20000
 73
     1
 74
     3
 75
     0
 76
     0
 77
     0
 78
     0
  0
ENDTAB
  0
TABLE
  2
LTYPE
  5
D
100
AcDbSymbolTable
 70
     1
  0
LTYPE
  5
E
100
AcDbSymbolTableRecord
100
AcDbLinetypeTableRecord
  2
BYBLOCK
 70
     0
  3

 72
    65
 73
     0
 40
0.0
  0
LTYPE
  5
F
100
AcDbSymbolTableRecord
100
AcDbLinetypeTableRecord
  2
BYLAYER
 70
     0
  3

 72
    65
 73
     0
 40
0.0
  0
LTYPE
  5
5
100
AcDbSymbolTableRecord
100
AcDbLinetypeTableRecord
  2
CONTINUOUS
 70
     0
  3
Solid line
 72
    65
 73
     0
 40
0.0
  0
ENDTAB
  0
TABLE
  2
LAYER
  5
A
100
AcDbSymbolTable
 70
     2
  0
LAYER
  5
4
100
AcDbSymbolTableRecord
100
AcDbLayerTableRecord
  2
0
 70
     1
 62
     7
  6
CONTINUOUS
  0
LAYER
  5
1B
100
AcDbSymbolTableRecord
100
AcDbLayerTableRecord
  2
2D_PROFILE
 70
     0
 62
     5
  6
CONTINUOUS
  0
ENDTAB
  0
TABLE
  2
STYLE
  5
B
100
AcDbSymbolTable
 70
     1
  0
STYLE
  5
C
100
AcDbSymbolTableRecord
100
AcDbTextStyleTableRecord
  2
STANDARD
 70
     0
 40
0.0
 41
1.0
 50
0.0
 71
     0
 42
2.5
  3
ISOCP
  4

  0
ENDTAB
  0
TABLE
  2
VIEW
  5
10
100
AcDbSymbolTable
 70
     0
  0
ENDTAB
  0
TABLE
  2
UCS
  5
11
100
AcDbSymbolTable
 70
     0
  0
ENDTAB
  0
TABLE
  2
APPID
  5
14
100
AcDbSymbolTable
 70
     1
  0
APPID
  5
15
100
AcDbSymbolTableRecord
100
AcDbRegAppTableRecord
  2
ACAD
 70
     0
  0
ENDTAB
  0
TABLE
  2
DIMSTYLE
  5
16
100
AcDbSymbolTable
 70
     1
  0
DIMSTYLE
105
1D
100
AcDbSymbolTableRecord
100
AcDbDimStyleTableRecord
  2
GEN-ISO
 70
     0
  3

  4
"
  5

  6

  7

 40
1.0
 41
2.5
 42
1.0
 43
7.0
 44
1.0
 45
0.0
 46
0.0
 47
0.1
 48
0.1
140
3.5
141
0.0
142
0.0
143
0.03937
144
1.0
145
0.0
146
0.71
147
0.6
 71
     0
 72
     0
 73
     0
 74
     0
 75
     0
 76
     0
 77
     1
 78
     8
170
     0
171
     2
172
     1
173
     0
174
     0
175
     0
176
   256
177
   256
178
     2
270
     2
271
     4
272
     4
273
     2
274
     2
340
C
275
     0
280
     0
281
     0
282
     0
283
     1
284
     8
285
     8
286
     8
287
     5
288
     0
  0
ENDTAB
  0
TABLE
  2
BLOCK_RECORD
  5
1
100
AcDbSymbolTable
 70
     0
  0
BLOCK_RECORD
  5
2
100
AcDbSymbolTableRecord
100
AcDbBlockTableRecord
  2
*MODEL_SPACE
  0
BLOCK_RECORD
  5
7
100
AcDbSymbolTableRecord
100
AcDbBlockTableRecord
  2
*PAPER_SPACE
  0
ENDTAB
  0
ENDSEC
  0
SECTION
  2
BLOCKS
  0
BLOCK
  5
3
100
AcDbEntity
  8
0
100
AcDbBlockBegin
  2
*MODEL_SPACE
 70
     0
 10
0.0
 20
0.0
 30
0.0
  3
*MODEL_SPACE
  1

  0
ENDBLK
  5
6
100
AcDbEntity
  8
0
100
AcDbBlockEnd
  0
BLOCK
  5
8
100
AcDbEntity
 67
     1
  8
0
100
AcDbBlockBegin
  2
*PAPER_SPACE
 70
     0
 10
0.0
 20
0.0
 30
0.0
  3
*PAPER_SPACE
  1

  0
ENDBLK
  5
9
100
AcDbEntity
 67
     1
  8
0
100
AcDbBlockEnd
  0
ENDSEC
  0
SECTION
  2
ENTITIES
  0
ARC
  5
1E
100
AcDbEntity
  8
2D_PROFILE
100
AcDbCircle
 10
-1.3197
 20
-74.385942
 30
0.0
 40
4.0
100
AcDbArc
 50
90.0
 51
126.524238
1001
ACAD
1000
R13OBJECT
1002
{
1005
3F
1002
}
  0
ARC
  5
1F
100
AcDbEntity
  8
2D_PROFILE
100
AcDbCircle
 10
11.996904
 20
-90.62907
 30
0.0
 40
25.0
100
AcDbArc
 50
128.894635
 51
145.603559
1001
ACAD
1000
R13OBJECT
1002
{
1005
3F
1002
}
  0
ARC
  5
20
100
AcDbEntity
  8
2D_PROFILE
100
AcDbCircle
 10
-7.806663
 20
-77.071092
 30
0.0
 40
1.0
100
AcDbArc
 50
145.603559
 51
271.0
1001
ACAD
1000
R13OBJECT
1002
{
1005
3F
1002
}
  0
LINE
  5
21
100
AcDbEntity
  8
2D_PROFILE
100
AcDbLine
 10
-3.937152
 20
-78.003702
 30
0.0
 11
-7.78921
 21
-78.07094
 31
0.0
1001
ACAD
1000
R13OBJECT
1002
{
1005
3F
1002
}
  0
ARC
  5
22
100
AcDbEntity
  8
2D_PROFILE
100
AcDbCircle
 10
-3.9197
 20
-79.00355
 30
0.0
 40
1.0
100
AcDbArc
 50
0.0
 51
91.0
1001
ACAD
1000
R13OBJECT
1002
{
1005
3F
1002
}
  0
LINE
  5
23
100
AcDbEntity
  8
2D_PROFILE
100
AcDbLine
 10
-2.9197
 20
-79.503626
 30
0.0
 11
-2.9197
 21
-79.00355
 31
0.0
1001
ACAD
1000
R13OBJECT
1002
{
1005
3F
1002
}
  0
ARC
  5
24
100
AcDbEntity
  8
2D_PROFILE
100
AcDbCircle
 10
-3.9197
 20
-79.503626
 30
0.0
 40
1.0
100
AcDbArc
 50
271.0
 51
0.0
1001
ACAD
1000
R13OBJECT
1002
{
1005
3F
1002
}
  0
LINE
  5
25
100
AcDbEntity
  8
2D_PROFILE
100
AcDbLine
 10
-3.902247
 20
-80.503473
 30
0.0
 11
-10.021706
 21
-80.610289
 31
0.0
1001
ACAD
1000
R13OBJECT
1002
{
1005
3F
1002
}
  0
ARC
  5
26
100
AcDbEntity
  8
2D_PROFILE
100
AcDbCircle
 10
-10.0697
 20
-77.860708
 30
0.0
 40
2.75
100
AcDbArc
 50
180.0
 51
271.0
1001
ACAD
1000
R13OBJECT
1002
{
1005
3F
1002
}
  0
LINE
  5
27
100
AcDbEntity
  8
2D_PROFILE
100
AcDbLine
 10
-12.8197
 20
-71.377744
 30
0.0
 11
-12.8197
 21
-77.860708
 31
0.0
1001
ACAD
1000
R13OBJECT
1002
{
1005
3F
1002
}
  0
ARC
  5
28
100
AcDbEntity
  8
2D_PROFILE
100
AcDbCircle
 10
-10.0697
 20
-71.377744
 30
0.0
 40
2.75
100
AcDbArc
 50
90.0
 51
180.0
1001
ACAD
1000
R13OBJECT
1002
{
1005
3F
1002
}
  0
LINE
  5
29
100
AcDbEntity
  8
2D_PROFILE
100
AcDbLine
 10
-10.0697
 20
-68.627744
 30
0.0
 11
-4.0697
 21
-68.627744
 31
0.0
1001
ACAD
1000
R13OBJECT
1002
{
1005
3F
1002
}
  0
ARC
  5
2A
100
AcDbEntity
  8
2D_PROFILE
100
AcDbCircle
 10
-4.0697
 20
-67.127744
 30
0.0
 40
1.5
100
AcDbArc
 50
270.0
 51
0.0
1001
ACAD
1000
R13OBJECT
1002
{
1005
3F
1002
}
  0
LINE
  5
2B
100
AcDbEntity
  8
2D_PROFILE
100
AcDbLine
 10
-2.5697
 20
-67.127744
 30
0.0
 11
-2.5697
 21
-53.360289
 31
0.0
1001
ACAD
1000
R13OBJECT
1002
{
1005
3F
1002
}
  0
ARC
  5
2C
100
AcDbEntity
  8
2D_PROFILE
100
AcDbCircle
 10
-1.8197
 20
-53.360289
 30
0.0
 40
0.75
100
AcDbArc
 50
90.0
 51
180.0
1001
ACAD
1000
R13OBJECT
1002
{
1005
3F
1002
}
  0
LINE
  5
2D
100
AcDbEntity
  8
2D_PROFILE
100
AcDbLine
 10
-1.8197
 20
-52.610289
 30
0.0
 11
4.1803
 21
-52.610289
 31
0.0
1001
ACAD
1000
R13OBJECT
1002
{
1005
3F
1002
}
  0
ARC
  5
2E
100
AcDbEntity
  8
2D_PROFILE
100
AcDbCircle
 10
4.1803
 20
-53.360289
 30
0.0
 40
0.75
100
AcDbArc
 50
0.0
 51
90.0
1001
ACAD
1000
R13OBJECT
1002
{
1005
3F
1002
}
  0
LINE
  5
2F
100
AcDbEntity
  8
2D_PROFILE
100
AcDbLine
 10
4.9303
 20
-53.360289
 30
0.0
 11
4.9303
 21
-67.127744
 31
0.0
1001
ACAD
1000
R13OBJECT
1002
{
1005
3F
1002
}
  0
ARC
  5
30
100
AcDbEntity
  8
2D_PROFILE
100
AcDbCircle
 10
6.4303
 20
-67.127744
 30
0.0
 40
1.5
100
AcDbArc
 50
180.0
 51
270.0
1001
ACAD
1000
R13OBJECT
1002
{
1005
3F
1002
}
  0
LINE
  5
31
100
AcDbEntity
  8
2D_PROFILE
100
AcDbLine
 10
6.4303
 20
-68.627744
 30
0.0
 11
12.4303
 21
-68.627744
 31
0.0
1001
ACAD
1000
R13OBJECT
1002
{
1005
3F
1002
}
  0
ARC
  5
32
100
AcDbEntity
  8
2D_PROFILE
100
AcDbCircle
 10
12.4303
 20
-71.377744
 30
0.0
 40
2.75
100
AcDbArc
 50
0.0
 51
90.0
1001
ACAD
1000
R13OBJECT
1002
{
1005
3F
1002
}
  0
LINE
  5
33
100
AcDbEntity
  8
2D_PROFILE
100
AcDbLine
 10
15.1803
 20
-71.377744
 30
0.0
 11
15.1803
 21
-77.860708
 31
0.0
1001
ACAD
1000
R13OBJECT
1002
{
1005
3F
1002
}
  0
ARC
  5
34
100
AcDbEntity
  8
2D_PROFILE
100
AcDbCircle
 10
12.4303
 20
-77.860708
 30
0.0
 40
2.75
100
AcDbArc
 50
269.0
 51
0.0
1001
ACAD
1000
R13OBJECT
1002
{
1005
3F
1002
}
  0
LINE
  5
35
100
AcDbEntity
  8
2D_PROFILE
100
AcDbLine
 10
12.382306
 20
-80.610289
 30
0.0
 11
6.262848
 21
-80.503473
 31
0.0
1001
ACAD
1000
R13OBJECT
1002
{
1005
3F
1002
}
  0
ARC
  5
36
100
AcDbEntity
  8
2D_PROFILE
100
AcDbCircle
 10
6.2803
 20
-79.503626
 30
0.0
 40
1.0
100
AcDbArc
 50
180.0
 51
269.0
1001
ACAD
1000
R13OBJECT
1002
{
1005
3F
1002
}
  0
LINE
  5
37
100
AcDbEntity
  8
2D_PROFILE
100
AcDbLine
 10
5.2803
 20
-79.00355
 30
0.0
 11
5.2803
 21
-79.503626
 31
0.0
1001
ACAD
1000
R13OBJECT
1002
{
1005
3F
1002
}
  0
ARC
  5
38
100
AcDbEntity
  8
2D_PROFILE
100
AcDbCircle
 10
6.2803
 20
-79.00355
 30
0.0
 40
1.0
100
AcDbArc
 50
89.0
 51
180.0
1001
ACAD
1000
R13OBJECT
1002
{
1005
3F
1002
}
  0
LINE
  5
39
100
AcDbEntity
  8
2D_PROFILE
100
AcDbLine
 10
10.14981
 20
-78.07094
 30
0.0
 11
6.297753
 21
-78.003702
 31
0.0
1001
ACAD
1000
R13OBJECT
1002
{
1005
3F
1002
}
  0
ARC
  5
3A
100
AcDbEntity
  8
2D_PROFILE
100
AcDbCircle
 10
10.167263
 20
-77.071092
 30
0.0
 40
1.0
100
AcDbArc
 50
269.0
 51
34.396441
1001
ACAD
1000
R13OBJECT
1002
{
1005
3F
1002
}
  0
ARC
  5
3B
100
AcDbEntity
  8
2D_PROFILE
100
AcDbCircle
 10
-9.636303
 20
-90.62907
 30
0.0
 40
25.0
100
AcDbArc
 50
34.396441
 51
51.105365
1001
ACAD
1000
R13OBJECT
1002
{
1005
3F
1002
}
  0
ARC
  5
3C
100
AcDbEntity
  8
2D_PROFILE
100
AcDbCircle
 10
3.6803
 20
-74.385942
 30
0.0
 40
4.0
100
AcDbArc
 50
53.475762
 51
90.0
1001
ACAD
1000
R13OBJECT
1002
{
1005
3F
1002
}
  0
LINE
  5
3D
100
AcDbEntity
  8
2D_PROFILE
100
AcDbLine
 10
3.6803
 20
-70.385942
 30
0.0
 11
-1.3197
 21
-70.385942
 31
0.0
1001
ACAD
1000
R13OBJECT
1002
{
1005
3F
1002
}
  0
CIRCLE
  5
3E
100
AcDbEntity
  8
2D_PROFILE
100
AcDbCircle
 10
9.3197
 20
-71.692871
 30
0.0
 40
1.65
210
0.0
220
0.0
230
-1.0
1001
ACAD
1000
R13OBJECT
1002
{
1005
3F
1002
}
  0
CIRCLE
  5
3F
100
AcDbEntity
  8
2D_PROFILE
100
AcDbCircle
 10
-11.6803
 20
-71.692871
 30
0.0
 40
1.65
210
0.0
220
0.0
230
-1.0
  0
ENDSEC
  0
SECTION
  2
OBJECTS
  0
DICTIONARY
  5
1A
100
AcDbDictionary
  3
ACAD_GROUP
350
18
  3
ACAD_MLINESTYLE
350
19
  0
DICTIONARY
  5
18
102
{ACAD_REACTORS
330
1A
102
}
100
AcDbDictionary
  0
DICTIONARY
  5
19
102
{ACAD_REACTORS
330
1A
102
}
100
AcDbDictionary
  3
STANDARD
350
1C
  0
MLINESTYLE
  5
1C
102
{ACAD_REACTORS
330
19
102
}
100
AcDbMlineStyle
  2
STANDARD
 70
     0
  3

 62
   256
 51
90.0
 52
90.0
 71
     2
 49
0.5
 62
   256
  6
BYLAYER
 49
-0.5
 62
   256
  6
BYLAYER
  0
ENDSEC
  0
EOF
