  0
SECTION
  2
HEADER
  9
$ACADVER
  1
AC1014
  9
$ACADMAINTVER
 70
     9
  9
$DWGCODEPAGE
  3
ANSI_1252
  9
$INSBASE
 10
0.0
 20
0.0
 30
0.0
  9
$EXTMIN
 10
-21.471974
 20
-40.755318
 30
0.0
  9
$EXTMAX
 10
20.017442
 20
40.734098
 30
0.0
  9
$LIMMIN
 10
0.0
 20
0.0
  9
$LIMMAX
 10
210.0
 20
297.0
  9
$ORTHOMODE
 70
     0
  9
$REGENMODE
 70
     1
  9
$FILLMODE
 70
     1
  9
$QTEXTMODE
 70
     0
  9
$MIRRTEXT
 70
     1
  9
$DRAGMODE
 70
     2
  9
$LTSCALE
 40
5.0
  9
$OSMODE
 70
     0
  9
$ATTMODE
 70
     1
  9
$TEXTSIZE
 40
2.5
  9
$TRACEWID
 40
1.0
  9
$TEXTSTYLE
  7
STANDARD
  9
$CLAYER
  8
2D_PROFILE
  9
$CELTYPE
  6
BYLAYER
  9
$CECOLOR
 62
   256
  9
$CELTSCALE
 40
1.0
  9
$DELOBJ
 70
     1
  9
$DISPSILH
 70
     0
  9
$DIMSCALE
 40
1.0
  9
$DIMASZ
 40
2.0
  9
$DIMEXO
 40
0.0
  9
$DIMDLI
 40
0.0
  9
$DIMRND
 40
0.0
  9
$DIMDLE
 40
0.0
  9
$DIMEXE
 40
1.0
  9
$DIMTP
 40
0.2
  9
$DIMTM
 40
0.2
  9
$DIMTXT
 40
2.5
  9
$DIMCEN
 40
0.0
  9
$DIMTSZ
 40
0.0
  9
$DIMTOL
 70
     0
  9
$DIMLIM
 70
     0
  9
$DIMTIH
 70
     0
  9
$DIMTOH
 70
     0
  9
$DIMSE1
 70
     0
  9
$DIMSE2
 70
     0
  9
$DIMTAD
 70
     1
  9
$DIMZIN
 70
     9
  9
$DIMBLK
  1

  9
$DIMASO
 70
     1
  9
$DIMSHO
 70
     1
  9
$DIMPOST
  1

  9
$DIMAPOST
  1

  9
$DIMALT
 70
     0
  9
$DIMALTD
 70
     2
  9
$DIMALTF
 40
25.4
  9
$DIMLFAC
 40
1.0
  9
$DIMTOFL
 70
     1
  9
$DIMTVP
 40
0.0
  9
$DIMTIX
 70
     0
  9
$DIMSOXD
 70
     0
  9
$DIMSAH
 70
     0
  9
$DIMBLK1
  1

  9
$DIMBLK2
  1

  9
$DIMSTYLE
  2
PALETTI
  9
$DIMCLRD
 70
   256
  9
$DIMCLRE
 70
   256
  9
$DIMCLRT
 70
   256
  9
$DIMTFAC
 40
0.5
  9
$DIMGAP
 40
0.5
  9
$DIMJUST
 70
     0
  9
$DIMSD1
 70
     0
  9
$DIMSD2
 70
     0
  9
$DIMTOLJ
 70
     1
  9
$DIMTZIN
 70
     9
  9
$DIMALTZ
 70
     9
  9
$DIMALTTZ
 70
     9
  9
$DIMFIT
 70
     5
  9
$DIMUPT
 70
     0
  9
$DIMUNIT
 70
     2
  9
$DIMDEC
 70
     4
  9
$DIMTDEC
 70
     4
  9
$DIMALTU
 70
     2
  9
$DIMALTTD
 70
     2
  9
$DIMTXSTY
  7
STANDARD
  9
$DIMAUNIT
 70
     0
  9
$LUNITS
 70
     2
  9
$LUPREC
 70
     4
  9
$SKETCHINC
 40
1.0
  9
$FILLETRAD
 40
0.3
  9
$AUNITS
 70
     0
  9
$AUPREC
 70
     0
  9
$MENU
  1
acad
  9
$ELEVATION
 40
0.0
  9
$PELEVATION
 40
0.0
  9
$THICKNESS
 40
0.0
  9
$LIMCHECK
 70
     0
  9
$BLIPMODE
 70
     0
  9
$CHAMFERA
 40
10.0
  9
$CHAMFERB
 40
10.0
  9
$CHAMFERC
 40
0.0
  9
$CHAMFERD
 40
0.0
  9
$SKPOLY
 70
     0
  9
$TDCREATE
 40
2451229.677474178
  9
$TDUPDATE
 40
2451229.677474178
  9
$TDINDWG
 40
0.0000000000
  9
$TDUSRTIMER
 40
0.0000000000
  9
$USRTIMER
 70
     1
  9
$ANGBASE
 50
0.0
  9
$ANGDIR
 70
     0
  9
$PDMODE
 70
     0
  9
$PDSIZE
 40
0.0
  9
$PLINEWID
 40
0.0
  9
$COORDS
 70
     1
  9
$SPLFRAME
 70
     0
  9
$SPLINETYPE
 70
     6
  9
$SPLINESEGS
 70
     8
  9
$ATTDIA
 70
     1
  9
$ATTREQ
 70
     1
  9
$HANDLING
 70
     1
  9
$HANDSEED
  5
9C
  9
$SURFTAB1
 70
     6
  9
$SURFTAB2
 70
     6
  9
$SURFTYPE
 70
     6
  9
$SURFU
 70
     6
  9
$SURFV
 70
     6
  9
$UCSNAME
  2

  9
$UCSORG
 10
0.0
 20
0.0
 30
0.0
  9
$UCSXDIR
 10
1.0
 20
0.0
 30
0.0
  9
$UCSYDIR
 10
0.0
 20
1.0
 30
0.0
  9
$PUCSNAME
  2

  9
$PUCSORG
 10
0.0
 20
0.0
 30
0.0
  9
$PUCSXDIR
 10
1.0
 20
0.0
 30
0.0
  9
$PUCSYDIR
 10
0.0
 20
1.0
 30
0.0
  9
$USERI1
 70
     0
  9
$USERI2
 70
     0
  9
$USERI3
 70
     0
  9
$USERI4
 70
     0
  9
$USERI5
 70
     0
  9
$USERR1
 40
1.0
  9
$USERR2
 40
0.0
  9
$USERR3
 40
0.0
  9
$USERR4
 40
0.0
  9
$USERR5
 40
0.0
  9
$WORLDVIEW
 70
     1
  9
$SHADEDGE
 70
     3
  9
$SHADEDIF
 70
    70
  9
$TILEMODE
 70
     1
  9
$MAXACTVP
 70
    16
  9
$PINSBASE
 10
0.0
 20
0.0
 30
0.0
  9
$PLIMCHECK
 70
     0
  9
$PEXTMIN
 10
1.000000E+20
 20
1.000000E+20
 30
1.000000E+20
  9
$PEXTMAX
 10
-1.000000E+20
 20
-1.000000E+20
 30
-1.000000E+20
  9
$PLIMMIN
 10
0.0
 20
0.0
  9
$PLIMMAX
 10
420.0
 20
297.0
  9
$UNITMODE
 70
     0
  9
$VISRETAIN
 70
     0
  9
$PLINEGEN
 70
     0
  9
$PSLTSCALE
 70
     1
  9
$TREEDEPTH
 70
  3020
  9
$PICKSTYLE
 70
     1
  9
$CMLSTYLE
  2
STANDARD
  9
$CMLJUST
 70
     0
  9
$CMLSCALE
 40
1.0
  9
$PROXYGRAPHICS
 70
     1
  9
$MEASUREMENT
 70
     0
  0
ENDSEC
  0
SECTION
  2
CLASSES
  0
CLASS
  1
DICTIONARYVAR
  2
AcDbDictionaryVar
  3
"AutoCAD"
 90
        0
280
     0
281
     0
  0
ENDSEC
  0
SECTION
  2
TABLES
  0
TABLE
  2
VPORT
  5
12
100
AcDbSymbolTable
 70
     2
  0
VPORT
  5
9B
100
AcDbSymbolTableRecord
100
AcDbViewportTableRecord
  2
*ACTIVE
 70
     0
 10
0.0
 20
0.0
 11
1.0
 21
1.0
 12
9.223548
 22
9.632444
 13
0.0
 23
0.0
 14
5.0
 24
5.0
 15
10.0
 25
10.0
 16
0.0
 26
0.0
 36
1.0
 17
0.0
 27
0.0
 37
0.0
 40
165.704946
 41
1.700368
 42
50.0
 43
0.0
 44
0.0
 50
0.0
 51
0.0
 71
     0
 72
 20000
 73
     1
 74
     3
 75
     0
 76
     0
 77
     0
 78
     0
  0
ENDTAB
  0
TABLE
  2
LTYPE
  5
D
100
AcDbSymbolTable
 70
     1
  0
LTYPE
  5
E
100
AcDbSymbolTableRecord
100
AcDbLinetypeTableRecord
  2
BYBLOCK
 70
     0
  3

 72
    65
 73
     0
 40
0.0
  0
LTYPE
  5
F
100
AcDbSymbolTableRecord
100
AcDbLinetypeTableRecord
  2
BYLAYER
 70
     0
  3

 72
    65
 73
     0
 40
0.0
  0
LTYPE
  5
5
100
AcDbSymbolTableRecord
100
AcDbLinetypeTableRecord
  2
CONTINUOUS
 70
     0
  3
Solid line
 72
    65
 73
     0
 40
0.0
  0
ENDTAB
  0
TABLE
  2
LAYER
  5
A
100
AcDbSymbolTable
 70
     2
  0
LAYER
  5
4
100
AcDbSymbolTableRecord
100
AcDbLayerTableRecord
  2
0
 70
     1
 62
     7
  6
CONTINUOUS
  0
LAYER
  5
1B
100
AcDbSymbolTableRecord
100
AcDbLayerTableRecord
  2
2D_PROFILE
 70
     0
 62
     5
  6
CONTINUOUS
  0
ENDTAB
  0
TABLE
  2
STYLE
  5
B
100
AcDbSymbolTable
 70
     1
  0
STYLE
  5
C
100
AcDbSymbolTableRecord
100
AcDbTextStyleTableRecord
  2
STANDARD
 70
     0
 40
0.0
 41
1.0
 50
0.0
 71
     0
 42
2.5
  3
ISOCP
  4

  0
ENDTAB
  0
TABLE
  2
VIEW
  5
10
100
AcDbSymbolTable
 70
     0
  0
ENDTAB
  0
TABLE
  2
UCS
  5
11
100
AcDbSymbolTable
 70
     0
  0
ENDTAB
  0
TABLE
  2
APPID
  5
14
100
AcDbSymbolTable
 70
     1
  0
APPID
  5
15
100
AcDbSymbolTableRecord
100
AcDbRegAppTableRecord
  2
ACAD
 70
     0
  0
ENDTAB
  0
TABLE
  2
DIMSTYLE
  5
16
100
AcDbSymbolTable
 70
     1
  0
DIMSTYLE
105
1D
100
AcDbSymbolTableRecord
100
AcDbDimStyleTableRecord
  2
PALETTI
 70
     0
  3

  4

  5

  6

  7

 40
1.0
 41
2.0
 42
0.0
 43
0.0
 44
1.0
 45
0.0
 46
0.0
 47
0.2
 48
0.2
140
2.5
141
0.0
142
0.0
143
25.4
144
1.0
145
0.0
146
0.5
147
0.5
 71
     0
 72
     0
 73
     0
 74
     0
 75
     0
 76
     0
 77
     1
 78
     9
170
     0
171
     2
172
     1
173
     0
174
     0
175
     0
176
   256
177
   256
178
   256
270
     2
271
     4
272
     4
273
     2
274
     2
340
C
275
     0
280
     0
281
     0
282
     0
283
     1
284
     9
285
     9
286
     9
287
     5
288
     0
  0
ENDTAB
  0
TABLE
  2
BLOCK_RECORD
  5
1
100
AcDbSymbolTable
 70
     0
  0
BLOCK_RECORD
  5
2
100
AcDbSymbolTableRecord
100
AcDbBlockTableRecord
  2
*MODEL_SPACE
  0
BLOCK_RECORD
  5
7
100
AcDbSymbolTableRecord
100
AcDbBlockTableRecord
  2
*PAPER_SPACE
  0
ENDTAB
  0
ENDSEC
  0
SECTION
  2
BLOCKS
  0
BLOCK
  5
3
100
AcDbEntity
  8
0
100
AcDbBlockBegin
  2
*MODEL_SPACE
 70
     0
 10
0.0
 20
0.0
 30
0.0
  3
*MODEL_SPACE
  1

  0
ENDBLK
  5
6
100
AcDbEntity
  8
0
100
AcDbBlockEnd
  0
BLOCK
  5
8
100
AcDbEntity
 67
     1
  8
0
100
AcDbBlockBegin
  2
*PAPER_SPACE
 70
     0
 10
0.0
 20
0.0
 30
0.0
  3
*PAPER_SPACE
  1

  0
ENDBLK
  5
9
100
AcDbEntity
 67
     1
  8
0
100
AcDbBlockEnd
  0
ENDSEC
  0
SECTION
  2
ENTITIES
  0
LINE
  5
1E
100
AcDbEntity
  8
2D_PROFILE
100
AcDbLine
 10
19.283718
 20
-36.50016
 30
0.0
 11
19.283718
 21
36.500374
 31
0.0
1001
ACAD
1000
R13OBJECT
1002
{
1005
9A
1002
}
  0
ARC
  5
1F
100
AcDbEntity
  8
2D_PROFILE
100
AcDbCircle
 10
15.783718
 20
-36.50016
 30
0.0
 40
3.5
100
AcDbArc
 50
269.0
 51
0.0
1001
ACAD
1000
R13OBJECT
1002
{
1005
9A
1002
}
  0
LINE
  5
20
100
AcDbEntity
  8
2D_PROFILE
100
AcDbLine
 10
15.722634
 20
-39.999626
 30
0.0
 11
4.366265
 21
-39.8014
 31
0.0
1001
ACAD
1000
R13OBJECT
1002
{
1005
9A
1002
}
  0
ARC
  5
21
100
AcDbEntity
  8
2D_PROFILE
100
AcDbCircle
 10
4.383718
 20
-38.801553
 30
0.0
 40
1.0
100
AcDbArc
 50
180.0
 51
269.0
1001
ACAD
1000
R13OBJECT
1002
{
1005
9A
1002
}
  0
LINE
  5
22
100
AcDbEntity
  8
2D_PROFILE
100
AcDbLine
 10
3.383718
 20
-36.301172
 30
0.0
 11
3.383718
 21
-38.801553
 31
0.0
1001
ACAD
1000
R13OBJECT
1002
{
1005
9A
1002
}
  0
ARC
  5
23
100
AcDbEntity
  8
2D_PROFILE
100
AcDbCircle
 10
4.383718
 20
-36.301172
 30
0.0
 40
1.0
100
AcDbArc
 50
89.0
 51
180.0
1001
ACAD
1000
R13OBJECT
1002
{
1005
9A
1002
}
  0
LINE
  5
24
100
AcDbEntity
  8
2D_PROFILE
100
AcDbLine
 10
8.266265
 20
-35.36879
 30
0.0
 11
4.40117
 21
-35.301324
 31
0.0
1001
ACAD
1000
R13OBJECT
1002
{
1005
9A
1002
}
  0
ARC
  5
25
100
AcDbEntity
  8
2D_PROFILE
100
AcDbCircle
 10
8.283718
 20
-34.368942
 30
0.0
 40
1.0
100
AcDbArc
 50
269.0
 51
40.648751
1001
ACAD
1000
R13OBJECT
1002
{
1005
9A
1002
}
  0
ARC
  5
26
100
AcDbEntity
  8
2D_PROFILE
100
AcDbCircle
 10
-11.847417
 20
-47.451207
 30
0.0
 40
25.0
100
AcDbArc
 50
33.322254
 51
47.975248
1001
ACAD
1000
R13OBJECT
1002
{
1005
9A
1002
}
  0
ARC
  5
27
100
AcDbEntity
  8
2D_PROFILE
100
AcDbCircle
 10
1.783718
 20
-31.401324
 30
0.0
 40
4.0
100
AcDbArc
 50
39.077969
 51
90.0
1001
ACAD
1000
R13OBJECT
1002
{
1005
9A
1002
}
  0
LINE
  5
28
100
AcDbEntity
  8
2D_PROFILE
100
AcDbLine
 10
-3.216282
 20
-27.401324
 30
0.0
 11
1.783718
 21
-27.401324
 31
0.0
1001
ACAD
1000
R13OBJECT
1002
{
1005
9A
1002
}
  0
ARC
  5
29
100
AcDbEntity
  8
2D_PROFILE
100
AcDbCircle
 10
-3.216282
 20
-31.401324
 30
0.0
 40
4.0
100
AcDbArc
 50
90.0
 51
140.922031
1001
ACAD
1000
R13OBJECT
1002
{
1005
9A
1002
}
  0
ARC
  5
2A
100
AcDbEntity
  8
2D_PROFILE
100
AcDbCircle
 10
10.414852
 20
-47.451207
 30
0.0
 40
25.0
100
AcDbArc
 50
132.024752
 51
146.677746
1001
ACAD
1000
R13OBJECT
1002
{
1005
9A
1002
}
  0
ARC
  5
2B
100
AcDbEntity
  8
2D_PROFILE
100
AcDbCircle
 10
-9.716282
 20
-34.368942
 30
0.0
 40
1.0
100
AcDbArc
 50
139.351249
 51
271.0
1001
ACAD
1000
R13OBJECT
1002
{
1005
9A
1002
}
  0
LINE
  5
2C
100
AcDbEntity
  8
2D_PROFILE
100
AcDbLine
 10
-9.69883
 20
-35.36879
 30
0.0
 11
-5.833735
 21
-35.301324
 31
0.0
1001
ACAD
1000
R13OBJECT
1002
{
1005
9A
1002
}
  0
ARC
  5
2D
100
AcDbEntity
  8
2D_PROFILE
100
AcDbCircle
 10
-5.816282
 20
-36.301172
 30
0.0
 40
1.0
100
AcDbArc
 50
0.0
 51
91.0
1001
ACAD
1000
R13OBJECT
1002
{
1005
9A
1002
}
  0
LINE
  5
2E
100
AcDbEntity
  8
2D_PROFILE
100
AcDbLine
 10
-4.816282
 20
-36.301172
 30
0.0
 11
-4.816282
 21
-38.801553
 31
0.0
1001
ACAD
1000
R13OBJECT
1002
{
1005
9A
1002
}
  0
ARC
  5
2F
100
AcDbEntity
  8
2D_PROFILE
100
AcDbCircle
 10
-5.816282
 20
-38.801553
 30
0.0
 40
1.0
100
AcDbArc
 50
271.0
 51
0.0
1001
ACAD
1000
R13OBJECT
1002
{
1005
9A
1002
}
  0
LINE
  5
30
100
AcDbEntity
  8
2D_PROFILE
100
AcDbLine
 10
-17.155742
 20
-39.999636
 30
0.0
 11
-5.79883
 21
-39.8014
 31
0.0
1001
ACAD
1000
R13OBJECT
1002
{
1005
9A
1002
}
  0
ARC
  5
31
100
AcDbEntity
  8
2D_PROFILE
100
AcDbCircle
 10
-17.216825
 20
-36.500169
 30
0.0
 40
3.5
100
AcDbArc
 50
179.0
 51
271.0
1001
ACAD
1000
R13OBJECT
1002
{
1005
9A
1002
}
  0
LINE
  5
32
100
AcDbEntity
  8
2D_PROFILE
100
AcDbLine
 10
-20.716292
 20
-36.439086
 30
0.0
 11
-20.518056
 21
-25.082174
 31
0.0
1001
ACAD
1000
R13OBJECT
1002
{
1005
9A
1002
}
  0
ARC
  5
33
100
AcDbEntity
  8
2D_PROFILE
100
AcDbCircle
 10
-19.518209
 20
-25.099626
 30
0.0
 40
1.0
100
AcDbArc
 50
90.0
 51
179.0
1001
ACAD
1000
R13OBJECT
1002
{
1005
9A
1002
}
  0
LINE
  5
34
100
AcDbEntity
  8
2D_PROFILE
100
AcDbLine
 10
-17.017828
 20
-24.099626
 30
0.0
 11
-19.518209
 21
-24.099626
 31
0.0
1001
ACAD
1000
R13OBJECT
1002
{
1005
9A
1002
}
  0
ARC
  5
35
100
AcDbEntity
  8
2D_PROFILE
100
AcDbCircle
 10
-17.017828
 20
-25.099626
 30
0.0
 40
1.0
100
AcDbArc
 50
359.0
 51
90.0
1001
ACAD
1000
R13OBJECT
1002
{
1005
9A
1002
}
  0
LINE
  5
36
100
AcDbEntity
  8
2D_PROFILE
100
AcDbLine
 10
-16.085446
 20
-28.982174
 30
0.0
 11
-16.01798
 21
-25.117079
 31
0.0
1001
ACAD
1000
R13OBJECT
1002
{
1005
9A
1002
}
  0
ARC
  5
37
100
AcDbEntity
  8
2D_PROFILE
100
AcDbCircle
 10
-15.085598
 20
-28.999626
 30
0.0
 40
1.0
100
AcDbArc
 50
179.0
 51
310.648751
1001
ACAD
1000
R13OBJECT
1002
{
1005
9A
1002
}
  0
ARC
  5
38
100
AcDbEntity
  8
2D_PROFILE
100
AcDbCircle
 10
-28.167863
 20
-8.868492
 30
0.0
 40
25.0
100
AcDbArc
 50
303.322254
 51
317.975248
1001
ACAD
1000
R13OBJECT
1002
{
1005
9A
1002
}
  0
ARC
  5
39
100
AcDbEntity
  8
2D_PROFILE
100
AcDbCircle
 10
-12.11798
 20
-22.499626
 30
0.0
 40
4.0
100
AcDbArc
 50
309.077969
 51
360.0
1001
ACAD
1000
R13OBJECT
1002
{
1005
9A
1002
}
  0
LINE
  5
3A
100
AcDbEntity
  8
2D_PROFILE
100
AcDbLine
 10
-8.11798
 20
-22.499626
 30
0.0
 11
-8.11798
 21
-17.499626
 31
0.0
1001
ACAD
1000
R13OBJECT
1002
{
1005
9A
1002
}
  0
ARC
  5
3B
100
AcDbEntity
  8
2D_PROFILE
100
AcDbCircle
 10
-12.11798
 20
-17.499626
 30
0.0
 40
4.0
100
AcDbArc
 50
360.0
 51
50.922031
1001
ACAD
1000
R13OBJECT
1002
{
1005
9A
1002
}
  0
ARC
  5
3C
100
AcDbEntity
  8
2D_PROFILE
100
AcDbCircle
 10
-28.167863
 20
-31.130761
 30
0.0
 40
25.0
100
AcDbArc
 50
42.024752
 51
56.677746
1001
ACAD
1000
R13OBJECT
1002
{
1005
9A
1002
}
  0
ARC
  5
3D
100
AcDbEntity
  8
2D_PROFILE
100
AcDbCircle
 10
-15.085598
 20
-10.999626
 30
0.0
 40
1.0
100
AcDbArc
 50
49.351249
 51
181.0
1001
ACAD
1000
R13OBJECT
1002
{
1005
9A
1002
}
  0
LINE
  5
3E
100
AcDbEntity
  8
2D_PROFILE
100
AcDbLine
 10
-16.085446
 20
-11.017079
 30
0.0
 11
-16.01798
 21
-14.882174
 31
0.0
1001
ACAD
1000
R13OBJECT
1002
{
1005
9A
1002
}
  0
ARC
  5
3F
100
AcDbEntity
  8
2D_PROFILE
100
AcDbCircle
 10
-17.017828
 20
-14.899626
 30
0.0
 40
1.0
100
AcDbArc
 50
270.0
 51
1.0
1001
ACAD
1000
R13OBJECT
1002
{
1005
9A
1002
}
  0
LINE
  5
40
100
AcDbEntity
  8
2D_PROFILE
100
AcDbLine
 10
-17.017828
 20
-15.899626
 30
0.0
 11
-19.518209
 21
-15.899626
 31
0.0
1001
ACAD
1000
R13OBJECT
1002
{
1005
9A
1002
}
  0
ARC
  5
41
100
AcDbEntity
  8
2D_PROFILE
100
AcDbCircle
 10
-19.518209
 20
-14.899626
 30
0.0
 40
1.0
100
AcDbArc
 50
181.0
 51
270.0
1001
ACAD
1000
R13OBJECT
1002
{
1005
9A
1002
}
  0
LINE
  5
42
100
AcDbEntity
  8
2D_PROFILE
100
AcDbLine
 10
-20.716282
 20
-3.56071
 30
0.0
 11
-20.518056
 21
-14.917079
 31
0.0
1001
ACAD
1000
R13OBJECT
1002
{
1005
9A
1002
}
  0
LINE
  5
43
100
AcDbEntity
  8
2D_PROFILE
100
AcDbLine
 10
-20.716282
 20
3.561457
 30
0.0
 11
-20.716282
 21
-3.56071
 31
0.0
1001
ACAD
1000
R13OBJECT
1002
{
1005
9A
1002
}
  0
LINE
  5
44
100
AcDbEntity
  8
2D_PROFILE
100
AcDbLine
 10
-20.716282
 20
3.561457
 30
0.0
 11
-20.518056
 21
14.917826
 31
0.0
1001
ACAD
1000
R13OBJECT
1002
{
1005
9A
1002
}
  0
ARC
  5
45
100
AcDbEntity
  8
2D_PROFILE
100
AcDbCircle
 10
-19.518209
 20
14.900374
 30
0.0
 40
1.0
100
AcDbArc
 50
90.0
 51
179.0
1001
ACAD
1000
R13OBJECT
1002
{
1005
9A
1002
}
  0
LINE
  5
46
100
AcDbEntity
  8
2D_PROFILE
100
AcDbLine
 10
-17.017828
 20
15.900374
 30
0.0
 11
-19.518209
 21
15.900374
 31
0.0
1001
ACAD
1000
R13OBJECT
1002
{
1005
9A
1002
}
  0
ARC
  5
47
100
AcDbEntity
  8
2D_PROFILE
100
AcDbCircle
 10
-17.017828
 20
14.900374
 30
0.0
 40
1.0
100
AcDbArc
 50
359.0
 51
90.0
1001
ACAD
1000
R13OBJECT
1002
{
1005
9A
1002
}
  0
LINE
  5
48
100
AcDbEntity
  8
2D_PROFILE
100
AcDbLine
 10
-16.085446
 20
11.017826
 30
0.0
 11
-16.01798
 21
14.882921
 31
0.0
1001
ACAD
1000
R13OBJECT
1002
{
1005
9A
1002
}
  0
ARC
  5
49
100
AcDbEntity
  8
2D_PROFILE
100
AcDbCircle
 10
-15.085598
 20
11.000374
 30
0.0
 40
1.0
100
AcDbArc
 50
179.0
 51
310.648751
1001
ACAD
1000
R13OBJECT
1002
{
1005
9A
1002
}
  0
ARC
  5
4A
100
AcDbEntity
  8
2D_PROFILE
100
AcDbCircle
 10
-28.167863
 20
31.131508
 30
0.0
 40
25.0
100
AcDbArc
 50
303.322254
 51
317.975248
1001
ACAD
1000
R13OBJECT
1002
{
1005
9A
1002
}
  0
ARC
  5
4B
100
AcDbEntity
  8
2D_PROFILE
100
AcDbCircle
 10
-12.11798
 20
17.500374
 30
0.0
 40
4.0
100
AcDbArc
 50
309.077969
 51
360.0
1001
ACAD
1000
R13OBJECT
1002
{
1005
9A
1002
}
  0
LINE
  5
4C
100
AcDbEntity
  8
2D_PROFILE
100
AcDbLine
 10
-8.11798
 20
17.500374
 30
0.0
 11
-8.11798
 21
22.500374
 31
0.0
1001
ACAD
1000
R13OBJECT
1002
{
1005
9A
1002
}
  0
ARC
  5
4D
100
AcDbEntity
  8
2D_PROFILE
100
AcDbCircle
 10
-12.11798
 20
22.500374
 30
0.0
 40
4.0
100
AcDbArc
 50
360.0
 51
50.922031
1001
ACAD
1000
R13OBJECT
1002
{
1005
9A
1002
}
  0
ARC
  5
4E
100
AcDbEntity
  8
2D_PROFILE
100
AcDbCircle
 10
-28.167863
 20
8.869239
 30
0.0
 40
25.0
100
AcDbArc
 50
42.024752
 51
56.677746
1001
ACAD
1000
R13OBJECT
1002
{
1005
9A
1002
}
  0
ARC
  5
4F
100
AcDbEntity
  8
2D_PROFILE
100
AcDbCircle
 10
-15.085598
 20
29.000374
 30
0.0
 40
1.0
100
AcDbArc
 50
49.351249
 51
181.0
1001
ACAD
1000
R13OBJECT
1002
{
1005
9A
1002
}
  0
LINE
  5
50
100
AcDbEntity
  8
2D_PROFILE
100
AcDbLine
 10
-16.085446
 20
28.982921
 30
0.0
 11
-16.01798
 21
25.117826
 31
0.0
1001
ACAD
1000
R13OBJECT
1002
{
1005
9A
1002
}
  0
ARC
  5
51
100
AcDbEntity
  8
2D_PROFILE
100
AcDbCircle
 10
-17.017828
 20
25.100374
 30
0.0
 40
1.0
100
AcDbArc
 50
270.0
 51
1.0
1001
ACAD
1000
R13OBJECT
1002
{
1005
9A
1002
}
  0
LINE
  5
52
100
AcDbEntity
  8
2D_PROFILE
100
AcDbLine
 10
-17.017828
 20
24.100374
 30
0.0
 11
-19.518209
 21
24.100374
 31
0.0
1001
ACAD
1000
R13OBJECT
1002
{
1005
9A
1002
}
  0
ARC
  5
53
100
AcDbEntity
  8
2D_PROFILE
100
AcDbCircle
 10
-19.518209
 20
25.100374
 30
0.0
 40
1.0
100
AcDbArc
 50
181.0
 51
270.0
1001
ACAD
1000
R13OBJECT
1002
{
1005
9A
1002
}
  0
LINE
  5
54
100
AcDbEntity
  8
2D_PROFILE
100
AcDbLine
 10
-20.716282
 20
36.43929
 30
0.0
 11
-20.518056
 21
25.082921
 31
0.0
1001
ACAD
1000
R13OBJECT
1002
{
1005
9A
1002
}
  0
ARC
  5
55
100
AcDbEntity
  8
2D_PROFILE
100
AcDbCircle
 10
-17.216815
 20
36.500374
 30
0.0
 40
3.5
100
AcDbArc
 50
90.0
 51
181.0
1001
ACAD
1000
R13OBJECT
1002
{
1005
9A
1002
}
  0
LINE
  5
56
100
AcDbEntity
  8
2D_PROFILE
100
AcDbLine
 10
-17.216815
 20
40.000374
 30
0.0
 11
-5.79883
 21
39.802147
 31
0.0
1001
ACAD
1000
R13OBJECT
1002
{
1005
9A
1002
}
  0
ARC
  5
57
100
AcDbEntity
  8
2D_PROFILE
100
AcDbCircle
 10
-5.816282
 20
38.8023
 30
0.0
 40
1.0
100
AcDbArc
 50
0.0
 51
89.0
1001
ACAD
1000
R13OBJECT
1002
{
1005
9A
1002
}
  0
LINE
  5
58
100
AcDbEntity
  8
2D_PROFILE
100
AcDbLine
 10
-4.816282
 20
36.301919
 30
0.0
 11
-4.816282
 21
38.8023
 31
0.0
1001
ACAD
1000
R13OBJECT
1002
{
1005
9A
1002
}
  0
ARC
  5
59
100
AcDbEntity
  8
2D_PROFILE
100
AcDbCircle
 10
-5.816282
 20
36.301919
 30
0.0
 40
1.0
100
AcDbArc
 50
269.0
 51
360.0
1001
ACAD
1000
R13OBJECT
1002
{
1005
9A
1002
}
  0
LINE
  5
5A
100
AcDbEntity
  8
2D_PROFILE
100
AcDbLine
 10
-9.69883
 20
35.369537
 30
0.0
 11
-5.833735
 21
35.302071
 31
0.0
1001
ACAD
1000
R13OBJECT
1002
{
1005
9A
1002
}
  0
ARC
  5
5B
100
AcDbEntity
  8
2D_PROFILE
100
AcDbCircle
 10
-9.716282
 20
34.369689
 30
0.0
 40
1.0
100
AcDbArc
 50
89.0
 51
220.648751
1001
ACAD
1000
R13OBJECT
1002
{
1005
9A
1002
}
  0
ARC
  5
5C
100
AcDbEntity
  8
2D_PROFILE
100
AcDbCircle
 10
10.414852
 20
47.451954
 30
0.0
 40
25.0
100
AcDbArc
 50
213.322254
 51
227.975248
1001
ACAD
1000
R13OBJECT
1002
{
1005
9A
1002
}
  0
ARC
  5
5D
100
AcDbEntity
  8
2D_PROFILE
100
AcDbCircle
 10
-3.216282
 20
31.402071
 30
0.0
 40
4.0
100
AcDbArc
 50
219.077969
 51
270.0
1001
ACAD
1000
R13OBJECT
1002
{
1005
9A
1002
}
  0
LINE
  5
5E
100
AcDbEntity
  8
2D_PROFILE
100
AcDbLine
 10
-3.216282
 20
27.402071
 30
0.0
 11
1.783718
 21
27.402071
 31
0.0
1001
ACAD
1000
R13OBJECT
1002
{
1005
9A
1002
}
  0
ARC
  5
5F
100
AcDbEntity
  8
2D_PROFILE
100
AcDbCircle
 10
1.783718
 20
31.402071
 30
0.0
 40
4.0
100
AcDbArc
 50
270.0
 51
320.922031
1001
ACAD
1000
R13OBJECT
1002
{
1005
9A
1002
}
  0
ARC
  5
60
100
AcDbEntity
  8
2D_PROFILE
100
AcDbCircle
 10
-11.847417
 20
47.451954
 30
0.0
 40
25.0
100
AcDbArc
 50
312.024752
 51
326.677746
1001
ACAD
1000
R13OBJECT
1002
{
1005
9A
1002
}
  0
ARC
  5
61
100
AcDbEntity
  8
2D_PROFILE
100
AcDbCircle
 10
8.283718
 20
34.369689
 30
0.0
 40
1.0
100
AcDbArc
 50
319.351249
 51
91.0
1001
ACAD
1000
R13OBJECT
1002
{
1005
9A
1002
}
  0
LINE
  5
62
100
AcDbEntity
  8
2D_PROFILE
100
AcDbLine
 10
8.266265
 20
35.369537
 30
0.0
 11
4.40117
 21
35.302071
 31
0.0
1001
ACAD
1000
R13OBJECT
1002
{
1005
9A
1002
}
  0
ARC
  5
63
100
AcDbEntity
  8
2D_PROFILE
100
AcDbCircle
 10
4.383718
 20
36.301919
 30
0.0
 40
1.0
100
AcDbArc
 50
180.0
 51
271.0
1001
ACAD
1000
R13OBJECT
1002
{
1005
9A
1002
}
  0
LINE
  5
64
100
AcDbEntity
  8
2D_PROFILE
100
AcDbLine
 10
3.383718
 20
36.301919
 30
0.0
 11
3.383718
 21
38.8023
 31
0.0
1001
ACAD
1000
R13OBJECT
1002
{
1005
9A
1002
}
  0
ARC
  5
65
100
AcDbEntity
  8
2D_PROFILE
100
AcDbCircle
 10
4.383718
 20
38.8023
 30
0.0
 40
1.0
100
AcDbArc
 50
91.0
 51
180.0
1001
ACAD
1000
R13OBJECT
1002
{
1005
9A
1002
}
  0
LINE
  5
66
100
AcDbEntity
  8
2D_PROFILE
100
AcDbLine
 10
4.366265
 20
39.802147
 30
0.0
 11
15.783718
 21
40.000374
 31
0.0
1001
ACAD
1000
R13OBJECT
1002
{
1005
9A
1002
}
  0
ARC
  5
67
100
AcDbEntity
  8
2D_PROFILE
100
AcDbCircle
 10
15.783718
 20
36.500374
 30
0.0
 40
3.5
100
AcDbArc
 50
0.0
 51
90.0
1001
ACAD
1000
R13OBJECT
1002
{
1005
9A
1002
}
  0
LINE
  5
68
100
AcDbEntity
  8
2D_PROFILE
100
AcDbLine
 10
14.783565
 20
-25.064574
 30
0.0
 11
14.783565
 21
-29.017079
 31
0.0
1001
ACAD
1000
R13OBJECT
1002
{
1005
9A
1002
}
  0
ARC
  5
69
100
AcDbEntity
  8
2D_PROFILE
100
AcDbCircle
 10
15.783565
 20
-25.064574
 30
0.0
 40
1.0
100
AcDbArc
 50
103.335467
 51
180.0
1001
ACAD
1000
R13OBJECT
1002
{
1005
9A
1002
}
  0
ARC
  5
6A
100
AcDbEntity
  8
2D_PROFILE
100
AcDbCircle
 10
-15.483718
 20
-23.799626
 30
0.0
 40
0.3
210
0.0
220
0.0
230
-1.0
100
AcDbArc
 50
180.0
 51
256.664533
1001
ACAD
1000
R13OBJECT
1002
{
1005
9A
1002
}
  0
LINE
  5
6B
100
AcDbEntity
  8
2D_PROFILE
100
AcDbLine
 10
15.783718
 20
-21.478646
 30
0.0
 11
15.783718
 21
-23.799626
 31
0.0
1001
ACAD
1000
R13OBJECT
1002
{
1005
9A
1002
}
  0
ARC
  5
6C
100
AcDbEntity
  8
2D_PROFILE
100
AcDbCircle
 10
-11.533718
 20
-19.999626
 30
0.0
 40
4.5
210
0.0
220
0.0
230
-1.0
100
AcDbArc
 50
160.811864
 51
199.188136
1001
ACAD
1000
R13OBJECT
1002
{
1005
9A
1002
}
  0
LINE
  5
6D
100
AcDbEntity
  8
2D_PROFILE
100
AcDbLine
 10
15.783718
 20
-16.199626
 30
0.0
 11
15.783718
 21
-18.520607
 31
0.0
1001
ACAD
1000
R13OBJECT
1002
{
1005
9A
1002
}
  0
ARC
  5
6E
100
AcDbEntity
  8
2D_PROFILE
100
AcDbCircle
 10
-15.483718
 20
-16.199626
 30
0.0
 40
0.3
210
0.0
220
0.0
230
-1.0
100
AcDbArc
 50
103.335465
 51
180.0
1001
ACAD
1000
R13OBJECT
1002
{
1005
9A
1002
}
  0
ARC
  5
6F
100
AcDbEntity
  8
2D_PROFILE
100
AcDbCircle
 10
15.783565
 20
-14.934679
 30
0.0
 40
1.0
100
AcDbArc
 50
180.0
 51
256.664535
1001
ACAD
1000
R13OBJECT
1002
{
1005
9A
1002
}
  0
LINE
  5
70
100
AcDbEntity
  8
2D_PROFILE
100
AcDbLine
 10
14.783565
 20
-10.982174
 30
0.0
 11
14.783565
 21
-14.934679
 31
0.0
1001
ACAD
1000
R13OBJECT
1002
{
1005
9A
1002
}
  0
ARC
  5
71
100
AcDbEntity
  8
2D_PROFILE
100
AcDbCircle
 10
-13.783718
 20
-10.999626
 30
0.0
 40
1.0
210
0.0
220
0.0
230
-1.0
100
AcDbArc
 50
64.61291
 51
179.0
1001
ACAD
1000
R13OBJECT
1002
{
1005
9A
1002
}
  0
ARC
  5
72
100
AcDbEntity
  8
2D_PROFILE
100
AcDbCircle
 10
-26.865983
 20
-31.130761
 30
0.0
 40
25.0
210
0.0
220
0.0
230
-1.0
100
AcDbArc
 50
49.301165
 51
57.286413
1001
ACAD
1000
R13OBJECT
1002
{
1005
9A
1002
}
  0
ARC
  5
73
100
AcDbEntity
  8
2D_PROFILE
100
AcDbCircle
 10
10.368283
 20
-11.949626
 30
0.0
 40
0.3
100
AcDbArc
 50
270.0
 51
310.698835
1001
ACAD
1000
R13OBJECT
1002
{
1005
9A
1002
}
  0
LINE
  5
74
100
AcDbEntity
  8
2D_PROFILE
100
AcDbLine
 10
8.583565
 20
-12.249626
 30
0.0
 11
10.368283
 21
-12.249626
 31
0.0
1001
ACAD
1000
R13OBJECT
1002
{
1005
9A
1002
}
  0
ARC
  5
75
100
AcDbEntity
  8
2D_PROFILE
100
AcDbCircle
 10
-8.583565
 20
-12.549626
 30
0.0
 40
0.3
210
0.0
220
0.0
230
-1.0
100
AcDbArc
 50
0.0
 51
90.0
1001
ACAD
1000
R13OBJECT
1002
{
1005
9A
1002
}
  0
LINE
  5
76
100
AcDbEntity
  8
2D_PROFILE
100
AcDbLine
 10
8.283565
 20
-16.887311
 30
0.0
 11
8.283565
 21
-12.549626
 31
0.0
1001
ACAD
1000
R13OBJECT
1002
{
1005
9A
1002
}
  0
ARC
  5
77
100
AcDbEntity
  8
2D_PROFILE
100
AcDbCircle
 10
-11.533718
 20
-19.999626
 30
0.0
 40
4.5
210
0.0
220
0.0
230
-1.0
100
AcDbArc
 50
316.238257
 51
43.758939
1001
ACAD
1000
R13OBJECT
1002
{
1005
9A
1002
}
  0
LINE
  5
78
100
AcDbEntity
  8
2D_PROFILE
100
AcDbLine
 10
8.283565
 20
-27.449626
 30
0.0
 11
8.283718
 21
-23.112101
 31
0.0
1001
ACAD
1000
R13OBJECT
1002
{
1005
9A
1002
}
  0
ARC
  5
79
100
AcDbEntity
  8
2D_PROFILE
100
AcDbCircle
 10
-8.583565
 20
-27.449626
 30
0.0
 40
0.3
210
0.0
220
0.0
230
-1.0
100
AcDbArc
 50
270.0
 51
0.0
1001
ACAD
1000
R13OBJECT
1002
{
1005
9A
1002
}
  0
LINE
  5
7A
100
AcDbEntity
  8
2D_PROFILE
100
AcDbLine
 10
10.368283
 20
-27.749626
 30
0.0
 11
8.583565
 21
-27.749626
 31
0.0
1001
ACAD
1000
R13OBJECT
1002
{
1005
9A
1002
}
  0
ARC
  5
7B
100
AcDbEntity
  8
2D_PROFILE
100
AcDbCircle
 10
10.368283
 20
-28.049626
 30
0.0
 40
0.3
100
AcDbArc
 50
49.301165
 51
90.0
1001
ACAD
1000
R13OBJECT
1002
{
1005
9A
1002
}
  0
ARC
  5
7C
100
AcDbEntity
  8
2D_PROFILE
100
AcDbCircle
 10
-26.865983
 20
-8.868492
 30
0.0
 40
25.0
210
0.0
220
0.0
230
-1.0
100
AcDbArc
 50
302.713587
 51
310.698835
1001
ACAD
1000
R13OBJECT
1002
{
1005
9A
1002
}
  0
ARC
  5
7D
100
AcDbEntity
  8
2D_PROFILE
100
AcDbCircle
 10
-13.783718
 20
-28.999626
 30
0.0
 40
1.0
210
0.0
220
0.0
230
-1.0
100
AcDbArc
 50
181.0
 51
295.38709
1001
ACAD
1000
R13OBJECT
1002
{
1005
9A
1002
}
  0
CIRCLE
  5
7E
100
AcDbEntity
  8
2D_PROFILE
100
AcDbCircle
 10
-14.283718
 20
-34.999626
 30
0.0
 40
2.0
210
0.0
220
0.0
230
-1.0
1001
ACAD
1000
R13OBJECT
1002
{
1005
9A
1002
}
  0
CIRCLE
  5
7F
100
AcDbEntity
  8
2D_PROFILE
100
AcDbCircle
 10
15.716282
 20
-34.999626
 30
0.0
 40
2.0
210
0.0
220
0.0
230
-1.0
1001
ACAD
1000
R13OBJECT
1002
{
1005
9A
1002
}
  0
CIRCLE
  5
80
100
AcDbEntity
  8
2D_PROFILE
100
AcDbCircle
 10
0.716282
 20
-19.999626
 30
0.0
 40
3.4
210
0.0
220
0.0
230
-1.0
1001
ACAD
1000
R13OBJECT
1002
{
1005
9A
1002
}
  0
CIRCLE
  5
81
100
AcDbEntity
  8
2D_PROFILE
100
AcDbCircle
 10
0.716282
 20
0.000374
 30
0.0
 40
12.5
210
0.0
220
0.0
230
-1.0
1001
ACAD
1000
R13OBJECT
1002
{
1005
9A
1002
}
  0
CIRCLE
  5
82
100
AcDbEntity
  8
2D_PROFILE
100
AcDbCircle
 10
0.716282
 20
20.000374
 30
0.0
 40
3.4
210
0.0
220
0.0
230
-1.0
1001
ACAD
1000
R13OBJECT
1002
{
1005
9A
1002
}
  0
CIRCLE
  5
83
100
AcDbEntity
  8
2D_PROFILE
100
AcDbCircle
 10
15.716282
 20
35.000374
 30
0.0
 40
2.0
210
0.0
220
0.0
230
-1.0
1001
ACAD
1000
R13OBJECT
1002
{
1005
9A
1002
}
  0
CIRCLE
  5
84
100
AcDbEntity
  8
2D_PROFILE
100
AcDbCircle
 10
-14.283718
 20
35.000374
 30
0.0
 40
2.0
210
0.0
220
0.0
230
-1.0
1001
ACAD
1000
R13OBJECT
1002
{
1005
9A
1002
}
  0
LINE
  5
85
100
AcDbEntity
  8
2D_PROFILE
100
AcDbLine
 10
15.783718
 20
18.521354
 30
0.0
 11
15.783718
 21
16.200374
 31
0.0
1001
ACAD
1000
R13OBJECT
1002
{
1005
9A
1002
}
  0
ARC
  5
86
100
AcDbEntity
  8
2D_PROFILE
100
AcDbCircle
 10
-11.533718
 20
20.000374
 30
0.0
 40
4.5
210
0.0
220
0.0
230
-1.0
100
AcDbArc
 50
160.811864
 51
199.188136
1001
ACAD
1000
R13OBJECT
1002
{
1005
9A
1002
}
  0
LINE
  5
87
100
AcDbEntity
  8
2D_PROFILE
100
AcDbLine
 10
15.783718
 20
23.800374
 30
0.0
 11
15.783718
 21
21.479393
 31
0.0
1001
ACAD
1000
R13OBJECT
1002
{
1005
9A
1002
}
  0
ARC
  5
88
100
AcDbEntity
  8
2D_PROFILE
100
AcDbCircle
 10
-15.483718
 20
23.800374
 30
0.0
 40
0.3
210
0.0
220
0.0
230
-1.0
100
AcDbArc
 50
103.335465
 51
180.0
1001
ACAD
1000
R13OBJECT
1002
{
1005
9A
1002
}
  0
ARC
  5
89
100
AcDbEntity
  8
2D_PROFILE
100
AcDbCircle
 10
15.783565
 20
25.065321
 30
0.0
 40
1.0
100
AcDbArc
 50
180.0
 51
256.664535
1001
ACAD
1000
R13OBJECT
1002
{
1005
9A
1002
}
  0
LINE
  5
8A
100
AcDbEntity
  8
2D_PROFILE
100
AcDbLine
 10
14.783565
 20
29.017826
 30
0.0
 11
14.783565
 21
25.065321
 31
0.0
1001
ACAD
1000
R13OBJECT
1002
{
1005
9A
1002
}
  0
ARC
  5
8B
100
AcDbEntity
  8
2D_PROFILE
100
AcDbCircle
 10
-13.783718
 20
29.000374
 30
0.0
 40
1.0
210
0.0
220
0.0
230
-1.0
100
AcDbArc
 50
64.61291
 51
179.0
1001
ACAD
1000
R13OBJECT
1002
{
1005
9A
1002
}
  0
ARC
  5
8C
100
AcDbEntity
  8
2D_PROFILE
100
AcDbCircle
 10
-26.865983
 20
8.869239
 30
0.0
 40
25.0
210
0.0
220
0.0
230
-1.0
100
AcDbArc
 50
49.301165
 51
57.286413
1001
ACAD
1000
R13OBJECT
1002
{
1005
9A
1002
}
  0
ARC
  5
8D
100
AcDbEntity
  8
2D_PROFILE
100
AcDbCircle
 10
10.368283
 20
28.050374
 30
0.0
 40
0.3
100
AcDbArc
 50
270.0
 51
310.698835
1001
ACAD
1000
R13OBJECT
1002
{
1005
9A
1002
}
  0
LINE
  5
8E
100
AcDbEntity
  8
2D_PROFILE
100
AcDbLine
 10
8.583565
 20
27.750374
 30
0.0
 11
10.368283
 21
27.750374
 31
0.0
1001
ACAD
1000
R13OBJECT
1002
{
1005
9A
1002
}
  0
ARC
  5
8F
100
AcDbEntity
  8
2D_PROFILE
100
AcDbCircle
 10
-8.583565
 20
27.450374
 30
0.0
 40
0.3
210
0.0
220
0.0
230
-1.0
100
AcDbArc
 50
0.0
 51
90.0
1001
ACAD
1000
R13OBJECT
1002
{
1005
9A
1002
}
  0
LINE
  5
90
100
AcDbEntity
  8
2D_PROFILE
100
AcDbLine
 10
8.283565
 20
23.112689
 30
0.0
 11
8.283565
 21
27.450374
 31
0.0
1001
ACAD
1000
R13OBJECT
1002
{
1005
9A
1002
}
  0
ARC
  5
91
100
AcDbEntity
  8
2D_PROFILE
100
AcDbCircle
 10
-11.533718
 20
20.000374
 30
0.0
 40
4.5
210
0.0
220
0.0
230
-1.0
100
AcDbArc
 50
316.238257
 51
43.758939
1001
ACAD
1000
R13OBJECT
1002
{
1005
9A
1002
}
  0
LINE
  5
92
100
AcDbEntity
  8
2D_PROFILE
100
AcDbLine
 10
8.283565
 20
12.550374
 30
0.0
 11
8.283718
 21
16.887899
 31
0.0
1001
ACAD
1000
R13OBJECT
1002
{
1005
9A
1002
}
  0
ARC
  5
93
100
AcDbEntity
  8
2D_PROFILE
100
AcDbCircle
 10
-8.583565
 20
12.550374
 30
0.0
 40
0.3
210
0.0
220
0.0
230
-1.0
100
AcDbArc
 50
270.0
 51
0.0
1001
ACAD
1000
R13OBJECT
1002
{
1005
9A
1002
}
  0
LINE
  5
94
100
AcDbEntity
  8
2D_PROFILE
100
AcDbLine
 10
10.368283
 20
12.250374
 30
0.0
 11
8.583565
 21
12.250374
 31
0.0
1001
ACAD
1000
R13OBJECT
1002
{
1005
9A
1002
}
  0
ARC
  5
95
100
AcDbEntity
  8
2D_PROFILE
100
AcDbCircle
 10
10.368283
 20
11.950374
 30
0.0
 40
0.3
100
AcDbArc
 50
49.301165
 51
90.0
1001
ACAD
1000
R13OBJECT
1002
{
1005
9A
1002
}
  0
ARC
  5
96
100
AcDbEntity
  8
2D_PROFILE
100
AcDbCircle
 10
-26.865983
 20
31.131508
 30
0.0
 40
25.0
210
0.0
220
0.0
230
-1.0
100
AcDbArc
 50
302.713587
 51
310.698835
1001
ACAD
1000
R13OBJECT
1002
{
1005
9A
1002
}
  0
ARC
  5
97
100
AcDbEntity
  8
2D_PROFILE
100
AcDbCircle
 10
-13.783718
 20
11.000374
 30
0.0
 40
1.0
210
0.0
220
0.0
230
-1.0
100
AcDbArc
 50
181.0
 51
295.38709
1001
ACAD
1000
R13OBJECT
1002
{
1005
9A
1002
}
  0
LINE
  5
98
100
AcDbEntity
  8
2D_PROFILE
100
AcDbLine
 10
14.783565
 20
14.935426
 30
0.0
 11
14.783565
 21
10.982921
 31
0.0
1001
ACAD
1000
R13OBJECT
1002
{
1005
9A
1002
}
  0
ARC
  5
99
100
AcDbEntity
  8
2D_PROFILE
100
AcDbCircle
 10
15.783565
 20
14.935426
 30
0.0
 40
1.0
100
AcDbArc
 50
103.335467
 51
180.0
1001
ACAD
1000
R13OBJECT
1002
{
1005
9A
1002
}
  0
ARC
  5
9A
100
AcDbEntity
  8
2D_PROFILE
100
AcDbCircle
 10
-15.483718
 20
16.200374
 30
0.0
 40
0.3
210
0.0
220
0.0
230
-1.0
100
AcDbArc
 50
180.0
 51
256.664533
  0
ENDSEC
  0
SECTION
  2
OBJECTS
  0
DICTIONARY
  5
1A
100
AcDbDictionary
  3
ACAD_GROUP
350
18
  3
ACAD_MLINESTYLE
350
19
  0
DICTIONARY
  5
18
102
{ACAD_REACTORS
330
1A
102
}
100
AcDbDictionary
  0
DICTIONARY
  5
19
102
{ACAD_REACTORS
330
1A
102
}
100
AcDbDictionary
  3
STANDARD
350
1C
  0
MLINESTYLE
  5
1C
102
{ACAD_REACTORS
330
19
102
}
100
AcDbMlineStyle
  2
STANDARD
 70
     0
  3

 62
   256
 51
90.0
 52
90.0
 71
     2
 49
0.5
 62
   256
  6
BYLAYER
 49
-0.5
 62
   256
  6
BYLAYER
  0
ENDSEC
  0
EOF
