  0
SECTION
  2
HEADER
  9
$ACADVER
  1
AC1014
  9
$ACADMAINTVER
 70
     9
  9
$DWGCODEPAGE
  3
ANSI_1252
  9
$INSBASE
 10
0.0
 20
0.0
 30
0.0
  9
$EXTMIN
 10
86.048518
 20
155.401414
 30
0.0
  9
$EXTMAX
 10
127.498265
 20
196.851162
 30
0.0
  9
$LIMMIN
 10
0.0
 20
0.0
  9
$LIMMAX
 10
210.0
 20
297.0
  9
$ORTHOMODE
 70
     0
  9
$REGENMODE
 70
     1
  9
$FILLMODE
 70
     1
  9
$QTEXTMODE
 70
     0
  9
$MIRRTEXT
 70
     1
  9
$DRAGMODE
 70
     2
  9
$LTSCALE
 40
5.0
  9
$OSMODE
 70
     7
  9
$ATTMODE
 70
     1
  9
$TEXTSIZE
 40
2.5
  9
$TRACEWID
 40
1.0
  9
$TEXTSTYLE
  7
STANDARD
  9
$CLAYER
  8
2D_PROFILE
  9
$CELTYPE
  6
BYLAYER
  9
$CECOLOR
 62
   256
  9
$CELTSCALE
 40
1.0
  9
$DELOBJ
 70
     1
  9
$DISPSILH
 70
     0
  9
$DIMSCALE
 40
1.0
  9
$DIMASZ
 40
2.5
  9
$DIMEXO
 40
1.0
  9
$DIMDLI
 40
7.0
  9
$DIMRND
 40
0.0
  9
$DIMDLE
 40
0.0
  9
$DIMEXE
 40
1.0
  9
$DIMTP
 40
0.1
  9
$DIMTM
 40
0.1
  9
$DIMTXT
 40
3.5
  9
$DIMCEN
 40
0.0
  9
$DIMTSZ
 40
0.0
  9
$DIMTOL
 70
     0
  9
$DIMLIM
 70
     0
  9
$DIMTIH
 70
     0
  9
$DIMTOH
 70
     0
  9
$DIMSE1
 70
     0
  9
$DIMSE2
 70
     0
  9
$DIMTAD
 70
     1
  9
$DIMZIN
 70
     8
  9
$DIMBLK
  1

  9
$DIMASO
 70
     1
  9
$DIMSHO
 70
     1
  9
$DIMPOST
  1

  9
$DIMAPOST
  1
"
  9
$DIMALT
 70
     0
  9
$DIMALTD
 70
     2
  9
$DIMALTF
 40
0.03937
  9
$DIMLFAC
 40
1.0
  9
$DIMTOFL
 70
     1
  9
$DIMTVP
 40
0.0
  9
$DIMTIX
 70
     0
  9
$DIMSOXD
 70
     0
  9
$DIMSAH
 70
     0
  9
$DIMBLK1
  1

  9
$DIMBLK2
  1

  9
$DIMSTYLE
  2
GEN-ISO
  9
$DIMCLRD
 70
   256
  9
$DIMCLRE
 70
   256
  9
$DIMCLRT
 70
     2
  9
$DIMTFAC
 40
0.71
  9
$DIMGAP
 40
0.6
  9
$DIMJUST
 70
     0
  9
$DIMSD1
 70
     0
  9
$DIMSD2
 70
     0
  9
$DIMTOLJ
 70
     1
  9
$DIMTZIN
 70
     8
  9
$DIMALTZ
 70
     8
  9
$DIMALTTZ
 70
     8
  9
$DIMFIT
 70
     5
  9
$DIMUPT
 70
     0
  9
$DIMUNIT
 70
     2
  9
$DIMDEC
 70
     4
  9
$DIMTDEC
 70
     4
  9
$DIMALTU
 70
     2
  9
$DIMALTTD
 70
     2
  9
$DIMTXSTY
  7
STANDARD
  9
$DIMAUNIT
 70
     0
  9
$LUNITS
 70
     2
  9
$LUPREC
 70
     4
  9
$SKETCHINC
 40
1.0
  9
$FILLETRAD
 40
0.3
  9
$AUNITS
 70
     0
  9
$AUPREC
 70
     0
  9
$MENU
  1
acad
  9
$ELEVATION
 40
0.0
  9
$PELEVATION
 40
0.0
  9
$THICKNESS
 40
0.0
  9
$LIMCHECK
 70
     0
  9
$BLIPMODE
 70
     0
  9
$CHAMFERA
 40
10.0
  9
$CHAMFERB
 40
10.0
  9
$CHAMFERC
 40
0.0
  9
$CHAMFERD
 40
0.0
  9
$SKPOLY
 70
     0
  9
$TDCREATE
 40
2451229.668617685
  9
$TDUPDATE
 40
2451229.668617685
  9
$TDINDWG
 40
0.0000000000
  9
$TDUSRTIMER
 40
0.0000000000
  9
$USRTIMER
 70
     1
  9
$ANGBASE
 50
0.0
  9
$ANGDIR
 70
     0
  9
$PDMODE
 70
     0
  9
$PDSIZE
 40
0.0
  9
$PLINEWID
 40
0.0
  9
$COORDS
 70
     1
  9
$SPLFRAME
 70
     0
  9
$SPLINETYPE
 70
     6
  9
$SPLINESEGS
 70
     8
  9
$ATTDIA
 70
     1
  9
$ATTREQ
 70
     1
  9
$HANDLING
 70
     1
  9
$HANDSEED
  5
D0
  9
$SURFTAB1
 70
     6
  9
$SURFTAB2
 70
     6
  9
$SURFTYPE
 70
     6
  9
$SURFU
 70
     6
  9
$SURFV
 70
     6
  9
$UCSNAME
  2

  9
$UCSORG
 10
0.0
 20
0.0
 30
0.0
  9
$UCSXDIR
 10
1.0
 20
0.0
 30
0.0
  9
$UCSYDIR
 10
0.0
 20
1.0
 30
0.0
  9
$PUCSNAME
  2

  9
$PUCSORG
 10
0.0
 20
0.0
 30
0.0
  9
$PUCSXDIR
 10
1.0
 20
0.0
 30
0.0
  9
$PUCSYDIR
 10
0.0
 20
1.0
 30
0.0
  9
$USERI1
 70
     0
  9
$USERI2
 70
     0
  9
$USERI3
 70
     0
  9
$USERI4
 70
     0
  9
$USERI5
 70
     0
  9
$USERR1
 40
1.0
  9
$USERR2
 40
0.0
  9
$USERR3
 40
0.0
  9
$USERR4
 40
0.0
  9
$USERR5
 40
0.0
  9
$WORLDVIEW
 70
     1
  9
$SHADEDGE
 70
     3
  9
$SHADEDIF
 70
    70
  9
$TILEMODE
 70
     1
  9
$MAXACTVP
 70
    16
  9
$PINSBASE
 10
0.0
 20
0.0
 30
0.0
  9
$PLIMCHECK
 70
     0
  9
$PEXTMIN
 10
1.000000E+20
 20
1.000000E+20
 30
1.000000E+20
  9
$PEXTMAX
 10
-1.000000E+20
 20
-1.000000E+20
 30
-1.000000E+20
  9
$PLIMMIN
 10
0.0
 20
0.0
  9
$PLIMMAX
 10
420.0
 20
297.0
  9
$UNITMODE
 70
     0
  9
$VISRETAIN
 70
     0
  9
$PLINEGEN
 70
     0
  9
$PSLTSCALE
 70
     1
  9
$TREEDEPTH
 70
  3020
  9
$PICKSTYLE
 70
     1
  9
$CMLSTYLE
  2
STANDARD
  9
$CMLJUST
 70
     0
  9
$CMLSCALE
 40
1.0
  9
$PROXYGRAPHICS
 70
     1
  9
$MEASUREMENT
 70
     0
  0
ENDSEC
  0
SECTION
  2
CLASSES
  0
CLASS
  1
DICTIONARYVAR
  2
AcDbDictionaryVar
  3
"AutoCAD"
 90
        0
280
     0
281
     0
  0
ENDSEC
  0
SECTION
  2
TABLES
  0
TABLE
  2
VPORT
  5
12
100
AcDbSymbolTable
 70
     2
  0
VPORT
  5
CF
100
AcDbSymbolTableRecord
100
AcDbViewportTableRecord
  2
*ACTIVE
 70
     0
 10
0.0
 20
0.0
 11
1.0
 21
1.0
 12
126.728626
 22
179.151095
 13
0.0
 23
0.0
 14
5.0
 24
5.0
 15
5.0
 25
5.0
 16
0.0
 26
0.0
 36
1.0
 17
0.0
 27
0.0
 37
0.0
 40
109.549758
 41
1.700368
 42
50.0
 43
0.0
 44
0.0
 50
0.0
 51
0.0
 71
     0
 72
 20000
 73
     1
 74
     3
 75
     0
 76
     0
 77
     0
 78
     0
  0
ENDTAB
  0
TABLE
  2
LTYPE
  5
D
100
AcDbSymbolTable
 70
     1
  0
LTYPE
  5
E
100
AcDbSymbolTableRecord
100
AcDbLinetypeTableRecord
  2
BYBLOCK
 70
     0
  3

 72
    65
 73
     0
 40
0.0
  0
LTYPE
  5
F
100
AcDbSymbolTableRecord
100
AcDbLinetypeTableRecord
  2
BYLAYER
 70
     0
  3

 72
    65
 73
     0
 40
0.0
  0
LTYPE
  5
5
100
AcDbSymbolTableRecord
100
AcDbLinetypeTableRecord
  2
CONTINUOUS
 70
     0
  3
Solid line
 72
    65
 73
     0
 40
0.0
  0
ENDTAB
  0
TABLE
  2
LAYER
  5
A
100
AcDbSymbolTable
 70
     2
  0
LAYER
  5
4
100
AcDbSymbolTableRecord
100
AcDbLayerTableRecord
  2
0
 70
     1
 62
     7
  6
CONTINUOUS
  0
LAYER
  5
1B
100
AcDbSymbolTableRecord
100
AcDbLayerTableRecord
  2
2D_PROFILE
 70
     0
 62
     5
  6
CONTINUOUS
  0
ENDTAB
  0
TABLE
  2
STYLE
  5
B
100
AcDbSymbolTable
 70
     1
  0
STYLE
  5
C
100
AcDbSymbolTableRecord
100
AcDbTextStyleTableRecord
  2
STANDARD
 70
     0
 40
0.0
 41
1.0
 50
0.0
 71
     0
 42
2.5
  3
ISOCP
  4

  0
ENDTAB
  0
TABLE
  2
VIEW
  5
10
100
AcDbSymbolTable
 70
     0
  0
ENDTAB
  0
TABLE
  2
UCS
  5
11
100
AcDbSymbolTable
 70
     0
  0
ENDTAB
  0
TABLE
  2
APPID
  5
14
100
AcDbSymbolTable
 70
     1
  0
APPID
  5
15
100
AcDbSymbolTableRecord
100
AcDbRegAppTableRecord
  2
ACAD
 70
     0
  0
ENDTAB
  0
TABLE
  2
DIMSTYLE
  5
16
100
AcDbSymbolTable
 70
     1
  0
DIMSTYLE
105
1D
100
AcDbSymbolTableRecord
100
AcDbDimStyleTableRecord
  2
GEN-ISO
 70
     0
  3

  4
"
  5

  6

  7

 40
1.0
 41
2.5
 42
1.0
 43
7.0
 44
1.0
 45
0.0
 46
0.0
 47
0.1
 48
0.1
140
3.5
141
0.0
142
0.0
143
0.03937
144
1.0
145
0.0
146
0.71
147
0.6
 71
     0
 72
     0
 73
     0
 74
     0
 75
     0
 76
     0
 77
     1
 78
     8
170
     0
171
     2
172
     1
173
     0
174
     0
175
     0
176
   256
177
   256
178
     2
270
     2
271
     4
272
     4
273
     2
274
     2
340
C
275
     0
280
     0
281
     0
282
     0
283
     1
284
     8
285
     8
286
     8
287
     5
288
     0
  0
ENDTAB
  0
TABLE
  2
BLOCK_RECORD
  5
1
100
AcDbSymbolTable
 70
     0
  0
BLOCK_RECORD
  5
2
100
AcDbSymbolTableRecord
100
AcDbBlockTableRecord
  2
*MODEL_SPACE
  0
BLOCK_RECORD
  5
7
100
AcDbSymbolTableRecord
100
AcDbBlockTableRecord
  2
*PAPER_SPACE
  0
ENDTAB
  0
ENDSEC
  0
SECTION
  2
BLOCKS
  0
BLOCK
  5
3
100
AcDbEntity
  8
0
100
AcDbBlockBegin
  2
*MODEL_SPACE
 70
     0
 10
0.0
 20
0.0
 30
0.0
  3
*MODEL_SPACE
  1

  0
ENDBLK
  5
6
100
AcDbEntity
  8
0
100
AcDbBlockEnd
  0
BLOCK
  5
8
100
AcDbEntity
 67
     1
  8
0
100
AcDbBlockBegin
  2
*PAPER_SPACE
 70
     0
 10
0.0
 20
0.0
 30
0.0
  3
*PAPER_SPACE
  1

  0
ENDBLK
  5
9
100
AcDbEntity
 67
     1
  8
0
100
AcDbBlockEnd
  0
ENDSEC
  0
SECTION
  2
ENTITIES
  0
ARC
  5
1E
100
AcDbEntity
  8
2D_PROFILE
100
AcDbCircle
 10
90.273391
 20
159.626288
 30
0.0
 40
3.5
100
AcDbArc
 50
180.0
 51
270.0
1001
ACAD
1000
R13OBJECT
1002
{
1005
CE
1002
}
  0
LINE
  5
1F
100
AcDbEntity
  8
2D_PROFILE
100
AcDbLine
 10
86.773391
 20
192.626288
 30
0.0
 11
86.773391
 21
159.626288
 31
0.0
1001
ACAD
1000
R13OBJECT
1002
{
1005
CE
1002
}
  0
ARC
  5
20
100
AcDbEntity
  8
2D_PROFILE
100
AcDbCircle
 10
90.273391
 20
192.626288
 30
0.0
 40
3.5
100
AcDbArc
 50
90.0
 51
180.0
1001
ACAD
1000
R13OBJECT
1002
{
1005
CE
1002
}
  0
LINE
  5
21
100
AcDbEntity
  8
2D_PROFILE
100
AcDbLine
 10
123.273391
 20
196.126288
 30
0.0
 11
90.273391
 21
196.126288
 31
0.0
1001
ACAD
1000
R13OBJECT
1002
{
1005
CE
1002
}
  0
ARC
  5
22
100
AcDbEntity
  8
2D_PROFILE
100
AcDbCircle
 10
123.273391
 20
192.626288
 30
0.0
 40
3.5
100
AcDbArc
 50
0.0
 51
90.0
1001
ACAD
1000
R13OBJECT
1002
{
1005
CE
1002
}
  0
LINE
  5
23
100
AcDbEntity
  8
2D_PROFILE
100
AcDbLine
 10
126.773391
 20
159.626288
 30
0.0
 11
126.773391
 21
192.626288
 31
0.0
1001
ACAD
1000
R13OBJECT
1002
{
1005
CE
1002
}
  0
ARC
  5
24
100
AcDbEntity
  8
2D_PROFILE
100
AcDbCircle
 10
123.273391
 20
159.626288
 30
0.0
 40
3.5
100
AcDbArc
 50
270.0
 51
360.0
1001
ACAD
1000
R13OBJECT
1002
{
1005
CE
1002
}
  0
LINE
  5
25
100
AcDbEntity
  8
2D_PROFILE
100
AcDbLine
 10
90.273391
 20
156.126288
 30
0.0
 11
123.273391
 21
156.126288
 31
0.0
1001
ACAD
1000
R13OBJECT
1002
{
1005
CE
1002
}
  0
ARC
  5
26
100
AcDbEntity
  8
2D_PROFILE
100
AcDbCircle
 10
-89.419928
 20
191.774832
 30
0.0
 40
0.6
210
0.0
220
0.0
230
-1.0
100
AcDbArc
 50
265.732188
 51
16.169172
1001
ACAD
1000
R13OBJECT
1002
{
1005
CE
1002
}
  0
ARC
  5
27
100
AcDbEntity
  8
2D_PROFILE
100
AcDbCircle
 10
89.486905
 20
190.877328
 30
0.0
 40
0.3
100
AcDbArc
 50
6.214079
 51
94.267827
1001
ACAD
1000
R13OBJECT
1002
{
1005
CE
1002
}
  0
ARC
  5
28
100
AcDbEntity
  8
2D_PROFILE
100
AcDbCircle
 10
-91.773391
 20
191.126288
 30
0.0
 40
2.0
210
0.0
220
0.0
230
-1.0
100
AcDbArc
 50
276.214079
 51
353.785921
1001
ACAD
1000
R13OBJECT
1002
{
1005
CE
1002
}
  0
ARC
  5
29
100
AcDbEntity
  8
2D_PROFILE
100
AcDbCircle
 10
91.524431
 20
188.839802
 30
0.0
 40
0.3
100
AcDbArc
 50
355.732173
 51
83.785921
1001
ACAD
1000
R13OBJECT
1002
{
1005
CE
1002
}
  0
ARC
  5
2A
100
AcDbEntity
  8
2D_PROFILE
100
AcDbCircle
 10
-92.421935
 20
188.772825
 30
0.0
 40
0.6
210
0.0
220
0.0
230
-1.0
100
AcDbArc
 50
253.830797
 51
4.267827
1001
ACAD
1000
R13OBJECT
1002
{
1005
CE
1002
}
  0
ARC
  5
2B
100
AcDbEntity
  8
2D_PROFILE
100
AcDbCircle
 10
-91.725747
 20
191.173933
 30
0.0
 40
3.099999
210
0.0
220
0.0
230
-1.0
100
AcDbArc
 50
196.16924
 51
253.830775
1001
ACAD
1000
R13OBJECT
1002
{
1005
CE
1002
}
  0
ARC
  5
2C
100
AcDbEntity
  8
2D_PROFILE
100
AcDbCircle
 10
-94.126854
 20
190.477744
 30
0.0
 40
0.6
210
0.0
220
0.0
230
-1.0
100
AcDbArc
 50
85.732188
 51
196.169207
1001
ACAD
1000
R13OBJECT
1002
{
1005
CE
1002
}
  0
ARC
  5
2D
100
AcDbEntity
  8
2D_PROFILE
100
AcDbCircle
 10
94.059877
 20
191.375248
 30
0.0
 40
0.3
100
AcDbArc
 50
186.214079
 51
274.267827
1001
ACAD
1000
R13OBJECT
1002
{
1005
CE
1002
}
  0
ARC
  5
2E
100
AcDbEntity
  8
2D_PROFILE
100
AcDbCircle
 10
-91.773391
 20
191.126288
 30
0.0
 40
2.0
210
0.0
220
0.0
230
-1.0
100
AcDbArc
 50
96.214079
 51
173.785921
1001
ACAD
1000
R13OBJECT
1002
{
1005
CE
1002
}
  0
ARC
  5
2F
100
AcDbEntity
  8
2D_PROFILE
100
AcDbCircle
 10
92.022352
 20
193.412774
 30
0.0
 40
0.3
100
AcDbArc
 50
175.732173
 51
263.785921
1001
ACAD
1000
R13OBJECT
1002
{
1005
CE
1002
}
  0
ARC
  5
30
100
AcDbEntity
  8
2D_PROFILE
100
AcDbCircle
 10
-91.124847
 20
193.479751
 30
0.0
 40
0.6
210
0.0
220
0.0
230
-1.0
100
AcDbArc
 50
73.830793
 51
184.267812
1001
ACAD
1000
R13OBJECT
1002
{
1005
CE
1002
}
  0
ARC
  5
31
100
AcDbEntity
  8
2D_PROFILE
100
AcDbCircle
 10
-91.821036
 20
191.078643
 30
0.0
 40
3.1
210
0.0
220
0.0
230
-1.0
100
AcDbArc
 50
16.169238
 51
73.830755
1001
ACAD
1000
R13OBJECT
1002
{
1005
CE
1002
}
  0
LINE
  5
32
100
AcDbEntity
  8
2D_PROFILE
100
AcDbLine
 10
87.326945
 20
180.072735
 30
0.0
 11
87.173391
 21
180.226288
 31
0.0
1001
ACAD
1000
R13OBJECT
1002
{
1005
CE
1002
}
  0
ARC
  5
33
100
AcDbEntity
  8
2D_PROFILE
100
AcDbCircle
 10
86.973391
 20
179.719181
 30
0.0
 40
0.5
100
AcDbArc
 50
360.0
 51
45.0
1001
ACAD
1000
R13OBJECT
1002
{
1005
CE
1002
}
  0
LINE
  5
34
100
AcDbEntity
  8
2D_PROFILE
100
AcDbLine
 10
87.473391
 20
172.533395
 30
0.0
 11
87.473391
 21
179.719181
 31
0.0
1001
ACAD
1000
R13OBJECT
1002
{
1005
CE
1002
}
  0
ARC
  5
35
100
AcDbEntity
  8
2D_PROFILE
100
AcDbCircle
 10
86.973391
 20
172.533395
 30
0.0
 40
0.5
100
AcDbArc
 50
315.0
 51
360.0
1001
ACAD
1000
R13OBJECT
1002
{
1005
CE
1002
}
  0
LINE
  5
36
100
AcDbEntity
  8
2D_PROFILE
100
AcDbLine
 10
87.173391
 20
172.026288
 30
0.0
 11
87.326945
 21
172.179841
 31
0.0
1001
ACAD
1000
R13OBJECT
1002
{
1005
CE
1002
}
  0
LINE
  5
37
100
AcDbEntity
  8
2D_PROFILE
100
AcDbLine
 10
90.523391
 20
172.026288
 30
0.0
 11
87.173391
 21
172.026288
 31
0.0
1001
ACAD
1000
R13OBJECT
1002
{
1005
CE
1002
}
  0
ARC
  5
38
100
AcDbEntity
  8
2D_PROFILE
100
AcDbCircle
 10
90.523391
 20
171.276288
 30
0.0
 40
0.75
100
AcDbArc
 50
0.0
 51
90.0
1001
ACAD
1000
R13OBJECT
1002
{
1005
CE
1002
}
  0
LINE
  5
39
100
AcDbEntity
  8
2D_PROFILE
100
AcDbLine
 10
91.273391
 20
170.776288
 30
0.0
 11
91.273391
 21
171.276288
 31
0.0
1001
ACAD
1000
R13OBJECT
1002
{
1005
CE
1002
}
  0
ARC
  5
3A
100
AcDbEntity
  8
2D_PROFILE
100
AcDbCircle
 10
90.523391
 20
170.776288
 30
0.0
 40
0.75
100
AcDbArc
 50
270.0
 51
0.0
1001
ACAD
1000
R13OBJECT
1002
{
1005
CE
1002
}
  0
LINE
  5
3B
100
AcDbEntity
  8
2D_PROFILE
100
AcDbLine
 10
89.823391
 20
170.026288
 30
0.0
 11
90.523391
 21
170.026288
 31
0.0
1001
ACAD
1000
R13OBJECT
1002
{
1005
CE
1002
}
  0
ARC
  5
3C
100
AcDbEntity
  8
2D_PROFILE
100
AcDbCircle
 10
-89.823391
 20
169.276288
 30
0.0
 40
0.75
210
0.0
220
0.0
230
-1.0
100
AcDbArc
 50
0.0
 51
90.0
1001
ACAD
1000
R13OBJECT
1002
{
1005
CE
1002
}
  0
LINE
  5
3D
100
AcDbEntity
  8
2D_PROFILE
100
AcDbLine
 10
89.073391
 20
166.876288
 30
0.0
 11
89.073391
 21
169.276288
 31
0.0
1001
ACAD
1000
R13OBJECT
1002
{
1005
CE
1002
}
  0
ARC
  5
3E
100
AcDbEntity
  8
2D_PROFILE
100
AcDbCircle
 10
-89.823391
 20
166.876288
 30
0.0
 40
0.75
210
0.0
220
0.0
230
-1.0
100
AcDbArc
 50
270.0
 51
0.0
1001
ACAD
1000
R13OBJECT
1002
{
1005
CE
1002
}
  0
LINE
  5
3F
100
AcDbEntity
  8
2D_PROFILE
100
AcDbLine
 10
92.071976
 20
166.126288
 30
0.0
 11
89.823391
 21
166.126288
 31
0.0
1001
ACAD
1000
R13OBJECT
1002
{
1005
CE
1002
}
  0
ARC
  5
40
100
AcDbEntity
  8
2D_PROFILE
100
AcDbCircle
 10
-92.071976
 20
168.126288
 30
0.0
 40
2.0
210
0.0
220
0.0
230
-1.0
100
AcDbArc
 50
234.334995
 51
270.0
1001
ACAD
1000
R13OBJECT
1002
{
1005
CE
1002
}
  0
ARC
  5
41
100
AcDbEntity
  8
2D_PROFILE
100
AcDbCircle
 10
-77.820396
 20
187.985045
 30
0.0
 40
26.443358
210
0.0
220
0.0
230
-1.0
100
AcDbArc
 50
217.26536
 51
234.334995
1001
ACAD
1000
R13OBJECT
1002
{
1005
CE
1002
}
  0
ARC
  5
42
100
AcDbEntity
  8
2D_PROFILE
100
AcDbCircle
 10
-97.273391
 20
173.184412
 30
0.0
 40
2.0
210
0.0
220
0.0
230
-1.0
100
AcDbArc
 50
180.0
 51
217.26536
1001
ACAD
1000
R13OBJECT
1002
{
1005
CE
1002
}
  0
LINE
  5
43
100
AcDbEntity
  8
2D_PROFILE
100
AcDbLine
 10
99.273391
 20
179.068165
 30
0.0
 11
99.273391
 21
173.184412
 31
0.0
1001
ACAD
1000
R13OBJECT
1002
{
1005
CE
1002
}
  0
ARC
  5
44
100
AcDbEntity
  8
2D_PROFILE
100
AcDbCircle
 10
-97.273391
 20
179.068165
 30
0.0
 40
2.0
210
0.0
220
0.0
230
-1.0
100
AcDbArc
 50
142.73464
 51
180.0
1001
ACAD
1000
R13OBJECT
1002
{
1005
CE
1002
}
  0
ARC
  5
45
100
AcDbEntity
  8
2D_PROFILE
100
AcDbCircle
 10
-77.820396
 20
164.267531
 30
0.0
 40
26.443358
210
0.0
220
0.0
230
-1.0
100
AcDbArc
 50
125.665005
 51
142.73464
1001
ACAD
1000
R13OBJECT
1002
{
1005
CE
1002
}
  0
ARC
  5
46
100
AcDbEntity
  8
2D_PROFILE
100
AcDbCircle
 10
-92.071976
 20
184.126288
 30
0.0
 40
2.0
210
0.0
220
0.0
230
-1.0
100
AcDbArc
 50
90.0
 51
125.665005
1001
ACAD
1000
R13OBJECT
1002
{
1005
CE
1002
}
  0
LINE
  5
47
100
AcDbEntity
  8
2D_PROFILE
100
AcDbLine
 10
89.823391
 20
186.126288
 30
0.0
 11
92.071976
 21
186.126288
 31
0.0
1001
ACAD
1000
R13OBJECT
1002
{
1005
CE
1002
}
  0
ARC
  5
48
100
AcDbEntity
  8
2D_PROFILE
100
AcDbCircle
 10
-89.823391
 20
185.376288
 30
0.0
 40
0.75
210
0.0
220
0.0
230
-1.0
100
AcDbArc
 50
360.0
 51
90.0
1001
ACAD
1000
R13OBJECT
1002
{
1005
CE
1002
}
  0
LINE
  5
49
100
AcDbEntity
  8
2D_PROFILE
100
AcDbLine
 10
89.073391
 20
182.976288
 30
0.0
 11
89.073391
 21
185.376288
 31
0.0
1001
ACAD
1000
R13OBJECT
1002
{
1005
CE
1002
}
  0
ARC
  5
4A
100
AcDbEntity
  8
2D_PROFILE
100
AcDbCircle
 10
-89.823391
 20
182.976288
 30
0.0
 40
0.75
210
0.0
220
0.0
230
-1.0
100
AcDbArc
 50
270.0
 51
0.0
1001
ACAD
1000
R13OBJECT
1002
{
1005
CE
1002
}
  0
LINE
  5
4B
100
AcDbEntity
  8
2D_PROFILE
100
AcDbLine
 10
90.523391
 20
182.226288
 30
0.0
 11
89.823391
 21
182.226288
 31
0.0
1001
ACAD
1000
R13OBJECT
1002
{
1005
CE
1002
}
  0
ARC
  5
4C
100
AcDbEntity
  8
2D_PROFILE
100
AcDbCircle
 10
90.523391
 20
181.476288
 30
0.0
 40
0.75
100
AcDbArc
 50
0.0
 51
90.0
1001
ACAD
1000
R13OBJECT
1002
{
1005
CE
1002
}
  0
LINE
  5
4D
100
AcDbEntity
  8
2D_PROFILE
100
AcDbLine
 10
91.273391
 20
180.976288
 30
0.0
 11
91.273391
 21
181.476288
 31
0.0
1001
ACAD
1000
R13OBJECT
1002
{
1005
CE
1002
}
  0
ARC
  5
4E
100
AcDbEntity
  8
2D_PROFILE
100
AcDbCircle
 10
90.523391
 20
180.976288
 30
0.0
 40
0.75
100
AcDbArc
 50
270.0
 51
0.0
1001
ACAD
1000
R13OBJECT
1002
{
1005
CE
1002
}
  0
LINE
  5
4F
100
AcDbEntity
  8
2D_PROFILE
100
AcDbLine
 10
87.173391
 20
180.226288
 30
0.0
 11
90.523391
 21
180.226288
 31
0.0
1001
ACAD
1000
R13OBJECT
1002
{
1005
CE
1002
}
  0
ARC
  5
50
100
AcDbEntity
  8
2D_PROFILE
100
AcDbCircle
 10
-91.124847
 20
158.772825
 30
0.0
 40
0.6
210
0.0
220
0.0
230
-1.0
100
AcDbArc
 50
175.732188
 51
286.169172
1001
ACAD
1000
R13OBJECT
1002
{
1005
CE
1002
}
  0
ARC
  5
51
100
AcDbEntity
  8
2D_PROFILE
100
AcDbCircle
 10
92.022352
 20
158.839802
 30
0.0
 40
0.3
100
AcDbArc
 50
96.214079
 51
184.267827
1001
ACAD
1000
R13OBJECT
1002
{
1005
CE
1002
}
  0
ARC
  5
52
100
AcDbEntity
  8
2D_PROFILE
100
AcDbCircle
 10
-91.773391
 20
161.126288
 30
0.0
 40
2.0
210
0.0
220
0.0
230
-1.0
100
AcDbArc
 50
186.214079
 51
263.785921
1001
ACAD
1000
R13OBJECT
1002
{
1005
CE
1002
}
  0
ARC
  5
53
100
AcDbEntity
  8
2D_PROFILE
100
AcDbCircle
 10
94.059877
 20
160.877328
 30
0.0
 40
0.3
100
AcDbArc
 50
85.732173
 51
173.785921
1001
ACAD
1000
R13OBJECT
1002
{
1005
CE
1002
}
  0
ARC
  5
54
100
AcDbEntity
  8
2D_PROFILE
100
AcDbCircle
 10
-94.126854
 20
161.774832
 30
0.0
 40
0.6
210
0.0
220
0.0
230
-1.0
100
AcDbArc
 50
163.830797
 51
274.267827
1001
ACAD
1000
R13OBJECT
1002
{
1005
CE
1002
}
  0
ARC
  5
55
100
AcDbEntity
  8
2D_PROFILE
100
AcDbCircle
 10
-91.725747
 20
161.078644
 30
0.0
 40
3.099999
210
0.0
220
0.0
230
-1.0
100
AcDbArc
 50
106.16924
 51
163.830775
1001
ACAD
1000
R13OBJECT
1002
{
1005
CE
1002
}
  0
ARC
  5
56
100
AcDbEntity
  8
2D_PROFILE
100
AcDbCircle
 10
-92.421936
 20
163.479751
 30
0.0
 40
0.6
210
0.0
220
0.0
230
-1.0
100
AcDbArc
 50
355.732188
 51
106.169207
1001
ACAD
1000
R13OBJECT
1002
{
1005
CE
1002
}
  0
ARC
  5
57
100
AcDbEntity
  8
2D_PROFILE
100
AcDbCircle
 10
91.524431
 20
163.412774
 30
0.0
 40
0.3
100
AcDbArc
 50
276.214079
 51
4.267827
1001
ACAD
1000
R13OBJECT
1002
{
1005
CE
1002
}
  0
ARC
  5
58
100
AcDbEntity
  8
2D_PROFILE
100
AcDbCircle
 10
-91.773391
 20
161.126288
 30
0.0
 40
2.0
210
0.0
220
0.0
230
-1.0
100
AcDbArc
 50
6.214079
 51
83.785921
1001
ACAD
1000
R13OBJECT
1002
{
1005
CE
1002
}
  0
ARC
  5
59
100
AcDbEntity
  8
2D_PROFILE
100
AcDbCircle
 10
89.486905
 20
161.375248
 30
0.0
 40
0.3
100
AcDbArc
 50
265.732173
 51
353.785921
1001
ACAD
1000
R13OBJECT
1002
{
1005
CE
1002
}
  0
ARC
  5
5A
100
AcDbEntity
  8
2D_PROFILE
100
AcDbCircle
 10
-89.419928
 20
160.477744
 30
0.0
 40
0.6
210
0.0
220
0.0
230
-1.0
100
AcDbArc
 50
343.830793
 51
94.267812
1001
ACAD
1000
R13OBJECT
1002
{
1005
CE
1002
}
  0
ARC
  5
5B
100
AcDbEntity
  8
2D_PROFILE
100
AcDbCircle
 10
-91.821036
 20
161.173933
 30
0.0
 40
3.1
210
0.0
220
0.0
230
-1.0
100
AcDbArc
 50
286.169238
 51
343.830755
1001
ACAD
1000
R13OBJECT
1002
{
1005
CE
1002
}
  0
CIRCLE
  5
5C
100
AcDbEntity
  8
2D_PROFILE
100
AcDbCircle
 10
-106.773391
 20
176.126288
 30
0.0
 40
3.4
210
0.0
220
0.0
230
-1.0
1001
ACAD
1000
R13OBJECT
1002
{
1005
CE
1002
}
  0
ARC
  5
5D
100
AcDbEntity
  8
2D_PROFILE
100
AcDbCircle
 10
-103.831515
 20
166.626288
 30
0.0
 40
2.0
210
0.0
220
0.0
230
-1.0
100
AcDbArc
 50
52.73464
 51
90.0
1001
ACAD
1000
R13OBJECT
1002
{
1005
CE
1002
}
  0
ARC
  5
5E
100
AcDbEntity
  8
2D_PROFILE
100
AcDbCircle
 10
-118.632148
 20
147.173293
 30
0.0
 40
26.443358
210
0.0
220
0.0
230
-1.0
100
AcDbArc
 50
35.665005
 51
52.73464
1001
ACAD
1000
R13OBJECT
1002
{
1005
CE
1002
}
  0
ARC
  5
5F
100
AcDbEntity
  8
2D_PROFILE
100
AcDbCircle
 10
-98.773391
 20
161.424873
 30
0.0
 40
2.0
210
0.0
220
0.0
230
-1.0
100
AcDbArc
 50
0.0
 51
35.665005
1001
ACAD
1000
R13OBJECT
1002
{
1005
CE
1002
}
  0
LINE
  5
60
100
AcDbEntity
  8
2D_PROFILE
100
AcDbLine
 10
96.773391
 20
159.176288
 30
0.0
 11
96.773391
 21
161.424873
 31
0.0
1001
ACAD
1000
R13OBJECT
1002
{
1005
CE
1002
}
  0
ARC
  5
61
100
AcDbEntity
  8
2D_PROFILE
100
AcDbCircle
 10
-97.523391
 20
159.176288
 30
0.0
 40
0.75
210
0.0
220
0.0
230
-1.0
100
AcDbArc
 50
270.0
 51
0.0
1001
ACAD
1000
R13OBJECT
1002
{
1005
CE
1002
}
  0
LINE
  5
62
100
AcDbEntity
  8
2D_PROFILE
100
AcDbLine
 10
99.923391
 20
158.426288
 30
0.0
 11
97.523391
 21
158.426288
 31
0.0
1001
ACAD
1000
R13OBJECT
1002
{
1005
CE
1002
}
  0
ARC
  5
63
100
AcDbEntity
  8
2D_PROFILE
100
AcDbCircle
 10
-99.923391
 20
159.176288
 30
0.0
 40
0.75
210
0.0
220
0.0
230
-1.0
100
AcDbArc
 50
180.0
 51
270.0
1001
ACAD
1000
R13OBJECT
1002
{
1005
CE
1002
}
  0
LINE
  5
64
100
AcDbEntity
  8
2D_PROFILE
100
AcDbLine
 10
100.673391
 20
159.876288
 30
0.0
 11
100.673391
 21
159.176288
 31
0.0
1001
ACAD
1000
R13OBJECT
1002
{
1005
CE
1002
}
  0
ARC
  5
65
100
AcDbEntity
  8
2D_PROFILE
100
AcDbCircle
 10
101.423391
 20
159.876288
 30
0.0
 40
0.75
100
AcDbArc
 50
90.0
 51
180.0
1001
ACAD
1000
R13OBJECT
1002
{
1005
CE
1002
}
  0
LINE
  5
66
100
AcDbEntity
  8
2D_PROFILE
100
AcDbLine
 10
101.923391
 20
160.626288
 30
0.0
 11
101.423391
 21
160.626288
 31
0.0
1001
ACAD
1000
R13OBJECT
1002
{
1005
CE
1002
}
  0
ARC
  5
67
100
AcDbEntity
  8
2D_PROFILE
100
AcDbCircle
 10
101.923391
 20
159.876288
 30
0.0
 40
0.75
100
AcDbArc
 50
360.0
 51
90.0
1001
ACAD
1000
R13OBJECT
1002
{
1005
CE
1002
}
  0
LINE
  5
68
100
AcDbEntity
  8
2D_PROFILE
100
AcDbLine
 10
102.673391
 20
156.526288
 30
0.0
 11
102.673391
 21
159.876288
 31
0.0
1001
ACAD
1000
R13OBJECT
1002
{
1005
CE
1002
}
  0
LINE
  5
69
100
AcDbEntity
  8
2D_PROFILE
100
AcDbLine
 10
102.826945
 20
156.679841
 30
0.0
 11
102.673391
 21
156.526288
 31
0.0
1001
ACAD
1000
R13OBJECT
1002
{
1005
CE
1002
}
  0
ARC
  5
6A
100
AcDbEntity
  8
2D_PROFILE
100
AcDbCircle
 10
103.180498
 20
156.326288
 30
0.0
 40
0.5
100
AcDbArc
 50
90.0
 51
135.0
1001
ACAD
1000
R13OBJECT
1002
{
1005
CE
1002
}
  0
LINE
  5
6B
100
AcDbEntity
  8
2D_PROFILE
100
AcDbLine
 10
110.366285
 20
156.826288
 30
0.0
 11
103.180498
 21
156.826288
 31
0.0
1001
ACAD
1000
R13OBJECT
1002
{
1005
CE
1002
}
  0
ARC
  5
6C
100
AcDbEntity
  8
2D_PROFILE
100
AcDbCircle
 10
110.366285
 20
156.326288
 30
0.0
 40
0.5
100
AcDbArc
 50
45.0
 51
90.0
1001
ACAD
1000
R13OBJECT
1002
{
1005
CE
1002
}
  0
LINE
  5
6D
100
AcDbEntity
  8
2D_PROFILE
100
AcDbLine
 10
110.873391
 20
156.526288
 30
0.0
 11
110.719838
 21
156.679841
 31
0.0
1001
ACAD
1000
R13OBJECT
1002
{
1005
CE
1002
}
  0
LINE
  5
6E
100
AcDbEntity
  8
2D_PROFILE
100
AcDbLine
 10
110.873391
 20
159.876288
 30
0.0
 11
110.873391
 21
156.526288
 31
0.0
1001
ACAD
1000
R13OBJECT
1002
{
1005
CE
1002
}
  0
ARC
  5
6F
100
AcDbEntity
  8
2D_PROFILE
100
AcDbCircle
 10
111.623391
 20
159.876288
 30
0.0
 40
0.75
100
AcDbArc
 50
90.0
 51
180.0
1001
ACAD
1000
R13OBJECT
1002
{
1005
CE
1002
}
  0
LINE
  5
70
100
AcDbEntity
  8
2D_PROFILE
100
AcDbLine
 10
112.123391
 20
160.626288
 30
0.0
 11
111.623391
 21
160.626288
 31
0.0
1001
ACAD
1000
R13OBJECT
1002
{
1005
CE
1002
}
  0
ARC
  5
71
100
AcDbEntity
  8
2D_PROFILE
100
AcDbCircle
 10
112.123391
 20
159.876288
 30
0.0
 40
0.75
100
AcDbArc
 50
360.0
 51
90.0
1001
ACAD
1000
R13OBJECT
1002
{
1005
CE
1002
}
  0
LINE
  5
72
100
AcDbEntity
  8
2D_PROFILE
100
AcDbLine
 10
112.873391
 20
159.176288
 30
0.0
 11
112.873391
 21
159.876288
 31
0.0
1001
ACAD
1000
R13OBJECT
1002
{
1005
CE
1002
}
  0
ARC
  5
73
100
AcDbEntity
  8
2D_PROFILE
100
AcDbCircle
 10
-113.623391
 20
159.176288
 30
0.0
 40
0.75
210
0.0
220
0.0
230
-1.0
100
AcDbArc
 50
270.0
 51
0.0
1001
ACAD
1000
R13OBJECT
1002
{
1005
CE
1002
}
  0
LINE
  5
74
100
AcDbEntity
  8
2D_PROFILE
100
AcDbLine
 10
116.023391
 20
158.426288
 30
0.0
 11
113.623391
 21
158.426288
 31
0.0
1001
ACAD
1000
R13OBJECT
1002
{
1005
CE
1002
}
  0
ARC
  5
75
100
AcDbEntity
  8
2D_PROFILE
100
AcDbCircle
 10
-116.023391
 20
159.176288
 30
0.0
 40
0.75
210
0.0
220
0.0
230
-1.0
100
AcDbArc
 50
180.0
 51
270.0
1001
ACAD
1000
R13OBJECT
1002
{
1005
CE
1002
}
  0
LINE
  5
76
100
AcDbEntity
  8
2D_PROFILE
100
AcDbLine
 10
116.773391
 20
161.424873
 30
0.0
 11
116.773391
 21
159.176288
 31
0.0
1001
ACAD
1000
R13OBJECT
1002
{
1005
CE
1002
}
  0
ARC
  5
77
100
AcDbEntity
  8
2D_PROFILE
100
AcDbCircle
 10
-114.773391
 20
161.424873
 30
0.0
 40
2.0
210
0.0
220
0.0
230
-1.0
100
AcDbArc
 50
144.334995
 51
180.0
1001
ACAD
1000
R13OBJECT
1002
{
1005
CE
1002
}
  0
ARC
  5
78
100
AcDbEntity
  8
2D_PROFILE
100
AcDbCircle
 10
-94.914634
 20
147.173293
 30
0.0
 40
26.443358
210
0.0
220
0.0
230
-1.0
100
AcDbArc
 50
127.26536
 51
144.334995
1001
ACAD
1000
R13OBJECT
1002
{
1005
CE
1002
}
  0
ARC
  5
79
100
AcDbEntity
  8
2D_PROFILE
100
AcDbCircle
 10
-109.715268
 20
166.626288
 30
0.0
 40
2.0
210
0.0
220
0.0
230
-1.0
100
AcDbArc
 50
90.0
 51
127.26536
1001
ACAD
1000
R13OBJECT
1002
{
1005
CE
1002
}
  0
LINE
  5
7A
100
AcDbEntity
  8
2D_PROFILE
100
AcDbLine
 10
103.831515
 20
168.626288
 30
0.0
 11
109.715268
 21
168.626288
 31
0.0
1001
ACAD
1000
R13OBJECT
1002
{
1005
CE
1002
}
  0
ARC
  5
7B
100
AcDbEntity
  8
2D_PROFILE
100
AcDbCircle
 10
-124.126854
 20
160.477744
 30
0.0
 40
0.6
210
0.0
220
0.0
230
-1.0
100
AcDbArc
 50
85.732188
 51
196.169172
1001
ACAD
1000
R13OBJECT
1002
{
1005
CE
1002
}
  0
ARC
  5
7C
100
AcDbEntity
  8
2D_PROFILE
100
AcDbCircle
 10
124.059877
 20
161.375248
 30
0.0
 40
0.3
100
AcDbArc
 50
186.214079
 51
274.267827
1001
ACAD
1000
R13OBJECT
1002
{
1005
CE
1002
}
  0
ARC
  5
7D
100
AcDbEntity
  8
2D_PROFILE
100
AcDbCircle
 10
-121.773391
 20
161.126288
 30
0.0
 40
2.0
210
0.0
220
0.0
230
-1.0
100
AcDbArc
 50
96.214079
 51
173.785921
1001
ACAD
1000
R13OBJECT
1002
{
1005
CE
1002
}
  0
ARC
  5
7E
100
AcDbEntity
  8
2D_PROFILE
100
AcDbCircle
 10
122.022352
 20
163.412774
 30
0.0
 40
0.3
100
AcDbArc
 50
175.732173
 51
263.785921
1001
ACAD
1000
R13OBJECT
1002
{
1005
CE
1002
}
  0
ARC
  5
7F
100
AcDbEntity
  8
2D_PROFILE
100
AcDbCircle
 10
-121.124847
 20
163.479751
 30
0.0
 40
0.6
210
0.0
220
0.0
230
-1.0
100
AcDbArc
 50
73.830797
 51
184.267827
1001
ACAD
1000
R13OBJECT
1002
{
1005
CE
1002
}
  0
ARC
  5
80
100
AcDbEntity
  8
2D_PROFILE
100
AcDbCircle
 10
-121.821035
 20
161.078644
 30
0.0
 40
3.099999
210
0.0
220
0.0
230
-1.0
100
AcDbArc
 50
16.16924
 51
73.830775
1001
ACAD
1000
R13OBJECT
1002
{
1005
CE
1002
}
  0
ARC
  5
81
100
AcDbEntity
  8
2D_PROFILE
100
AcDbCircle
 10
-119.419928
 20
161.774832
 30
0.0
 40
0.6
210
0.0
220
0.0
230
-1.0
100
AcDbArc
 50
265.732188
 51
16.169207
1001
ACAD
1000
R13OBJECT
1002
{
1005
CE
1002
}
  0
ARC
  5
82
100
AcDbEntity
  8
2D_PROFILE
100
AcDbCircle
 10
119.486905
 20
160.877328
 30
0.0
 40
0.3
100
AcDbArc
 50
6.214079
 51
94.267827
1001
ACAD
1000
R13OBJECT
1002
{
1005
CE
1002
}
  0
ARC
  5
83
100
AcDbEntity
  8
2D_PROFILE
100
AcDbCircle
 10
-121.773391
 20
161.126288
 30
0.0
 40
2.0
210
0.0
220
0.0
230
-1.0
100
AcDbArc
 50
276.214079
 51
353.785921
1001
ACAD
1000
R13OBJECT
1002
{
1005
CE
1002
}
  0
ARC
  5
84
100
AcDbEntity
  8
2D_PROFILE
100
AcDbCircle
 10
121.524431
 20
158.839802
 30
0.0
 40
0.3
100
AcDbArc
 50
355.732173
 51
83.785921
1001
ACAD
1000
R13OBJECT
1002
{
1005
CE
1002
}
  0
ARC
  5
85
100
AcDbEntity
  8
2D_PROFILE
100
AcDbCircle
 10
-122.421936
 20
158.772825
 30
0.0
 40
0.6
210
0.0
220
0.0
230
-1.0
100
AcDbArc
 50
253.830793
 51
4.267812
1001
ACAD
1000
R13OBJECT
1002
{
1005
CE
1002
}
  0
ARC
  5
86
100
AcDbEntity
  8
2D_PROFILE
100
AcDbCircle
 10
-121.725746
 20
161.173933
 30
0.0
 40
3.1
210
0.0
220
0.0
230
-1.0
100
AcDbArc
 50
196.169238
 51
253.830755
1001
ACAD
1000
R13OBJECT
1002
{
1005
CE
1002
}
  0
ARC
  5
87
100
AcDbEntity
  8
2D_PROFILE
100
AcDbCircle
 10
-135.726386
 20
164.267531
 30
0.0
 40
26.443358
210
0.0
220
0.0
230
-1.0
100
AcDbArc
 50
37.26536
 51
54.334995
1001
ACAD
1000
R13OBJECT
1002
{
1005
CE
1002
}
  0
ARC
  5
88
100
AcDbEntity
  8
2D_PROFILE
100
AcDbCircle
 10
-116.273391
 20
179.068165
 30
0.0
 40
2.0
210
0.0
220
0.0
230
-1.0
100
AcDbArc
 50
360.0
 51
37.26536
1001
ACAD
1000
R13OBJECT
1002
{
1005
CE
1002
}
  0
LINE
  5
89
100
AcDbEntity
  8
2D_PROFILE
100
AcDbLine
 10
114.273391
 20
173.184412
 30
0.0
 11
114.273391
 21
179.068165
 31
0.0
1001
ACAD
1000
R13OBJECT
1002
{
1005
CE
1002
}
  0
ARC
  5
8A
100
AcDbEntity
  8
2D_PROFILE
100
AcDbCircle
 10
-116.273391
 20
173.184412
 30
0.0
 40
2.0
210
0.0
220
0.0
230
-1.0
100
AcDbArc
 50
322.73464
 51
0.0
1001
ACAD
1000
R13OBJECT
1002
{
1005
CE
1002
}
  0
ARC
  5
8B
100
AcDbEntity
  8
2D_PROFILE
100
AcDbCircle
 10
-135.726386
 20
187.985045
 30
0.0
 40
26.443358
210
0.0
220
0.0
230
-1.0
100
AcDbArc
 50
305.665005
 51
322.73464
1001
ACAD
1000
R13OBJECT
1002
{
1005
CE
1002
}
  0
ARC
  5
8C
100
AcDbEntity
  8
2D_PROFILE
100
AcDbCircle
 10
-121.474806
 20
168.126288
 30
0.0
 40
2.0
210
0.0
220
0.0
230
-1.0
100
AcDbArc
 50
270.0
 51
305.665005
1001
ACAD
1000
R13OBJECT
1002
{
1005
CE
1002
}
  0
LINE
  5
8D
100
AcDbEntity
  8
2D_PROFILE
100
AcDbLine
 10
123.723391
 20
166.126288
 30
0.0
 11
121.474806
 21
166.126288
 31
0.0
1001
ACAD
1000
R13OBJECT
1002
{
1005
CE
1002
}
  0
ARC
  5
8E
100
AcDbEntity
  8
2D_PROFILE
100
AcDbCircle
 10
-123.723391
 20
166.876288
 30
0.0
 40
0.75
210
0.0
220
0.0
230
-1.0
100
AcDbArc
 50
180.0
 51
270.0
1001
ACAD
1000
R13OBJECT
1002
{
1005
CE
1002
}
  0
LINE
  5
8F
100
AcDbEntity
  8
2D_PROFILE
100
AcDbLine
 10
124.473391
 20
169.276288
 30
0.0
 11
124.473391
 21
166.876288
 31
0.0
1001
ACAD
1000
R13OBJECT
1002
{
1005
CE
1002
}
  0
ARC
  5
90
100
AcDbEntity
  8
2D_PROFILE
100
AcDbCircle
 10
-123.723391
 20
169.276288
 30
0.0
 40
0.75
210
0.0
220
0.0
230
-1.0
100
AcDbArc
 50
90.0
 51
180.0
1001
ACAD
1000
R13OBJECT
1002
{
1005
CE
1002
}
  0
LINE
  5
91
100
AcDbEntity
  8
2D_PROFILE
100
AcDbLine
 10
123.023391
 20
170.026288
 30
0.0
 11
123.723391
 21
170.026288
 31
0.0
1001
ACAD
1000
R13OBJECT
1002
{
1005
CE
1002
}
  0
ARC
  5
92
100
AcDbEntity
  8
2D_PROFILE
100
AcDbCircle
 10
123.023391
 20
170.776288
 30
0.0
 40
0.75
100
AcDbArc
 50
180.0
 51
270.0
1001
ACAD
1000
R13OBJECT
1002
{
1005
CE
1002
}
  0
LINE
  5
93
100
AcDbEntity
  8
2D_PROFILE
100
AcDbLine
 10
122.273391
 20
171.276288
 30
0.0
 11
122.273391
 21
170.776288
 31
0.0
1001
ACAD
1000
R13OBJECT
1002
{
1005
CE
1002
}
  0
ARC
  5
94
100
AcDbEntity
  8
2D_PROFILE
100
AcDbCircle
 10
123.023391
 20
171.276288
 30
0.0
 40
0.75
100
AcDbArc
 50
90.0
 51
180.0
1001
ACAD
1000
R13OBJECT
1002
{
1005
CE
1002
}
  0
LINE
  5
95
100
AcDbEntity
  8
2D_PROFILE
100
AcDbLine
 10
126.373391
 20
172.026288
 30
0.0
 11
123.023391
 21
172.026288
 31
0.0
1001
ACAD
1000
R13OBJECT
1002
{
1005
CE
1002
}
  0
LINE
  5
96
100
AcDbEntity
  8
2D_PROFILE
100
AcDbLine
 10
126.219838
 20
172.179841
 30
0.0
 11
126.373391
 21
172.026288
 31
0.0
1001
ACAD
1000
R13OBJECT
1002
{
1005
CE
1002
}
  0
ARC
  5
97
100
AcDbEntity
  8
2D_PROFILE
100
AcDbCircle
 10
126.573391
 20
172.533395
 30
0.0
 40
0.5
100
AcDbArc
 50
180.0
 51
225.0
1001
ACAD
1000
R13OBJECT
1002
{
1005
CE
1002
}
  0
LINE
  5
98
100
AcDbEntity
  8
2D_PROFILE
100
AcDbLine
 10
126.073391
 20
179.719181
 30
0.0
 11
126.073391
 21
172.533395
 31
0.0
1001
ACAD
1000
R13OBJECT
1002
{
1005
CE
1002
}
  0
ARC
  5
99
100
AcDbEntity
  8
2D_PROFILE
100
AcDbCircle
 10
126.573391
 20
179.719181
 30
0.0
 40
0.5
100
AcDbArc
 50
135.0
 51
180.0
1001
ACAD
1000
R13OBJECT
1002
{
1005
CE
1002
}
  0
LINE
  5
9A
100
AcDbEntity
  8
2D_PROFILE
100
AcDbLine
 10
126.373391
 20
180.226288
 30
0.0
 11
126.219838
 21
180.072735
 31
0.0
1001
ACAD
1000
R13OBJECT
1002
{
1005
CE
1002
}
  0
LINE
  5
9B
100
AcDbEntity
  8
2D_PROFILE
100
AcDbLine
 10
123.023391
 20
180.226288
 30
0.0
 11
126.373391
 21
180.226288
 31
0.0
1001
ACAD
1000
R13OBJECT
1002
{
1005
CE
1002
}
  0
ARC
  5
9C
100
AcDbEntity
  8
2D_PROFILE
100
AcDbCircle
 10
123.023391
 20
180.976288
 30
0.0
 40
0.75
100
AcDbArc
 50
180.0
 51
270.0
1001
ACAD
1000
R13OBJECT
1002
{
1005
CE
1002
}
  0
LINE
  5
9D
100
AcDbEntity
  8
2D_PROFILE
100
AcDbLine
 10
122.273391
 20
181.476288
 30
0.0
 11
122.273391
 21
180.976288
 31
0.0
1001
ACAD
1000
R13OBJECT
1002
{
1005
CE
1002
}
  0
ARC
  5
9E
100
AcDbEntity
  8
2D_PROFILE
100
AcDbCircle
 10
123.023391
 20
181.476288
 30
0.0
 40
0.75
100
AcDbArc
 50
90.0
 51
180.0
1001
ACAD
1000
R13OBJECT
1002
{
1005
CE
1002
}
  0
LINE
  5
9F
100
AcDbEntity
  8
2D_PROFILE
100
AcDbLine
 10
123.723391
 20
182.226288
 30
0.0
 11
123.023391
 21
182.226288
 31
0.0
1001
ACAD
1000
R13OBJECT
1002
{
1005
CE
1002
}
  0
ARC
  5
A0
100
AcDbEntity
  8
2D_PROFILE
100
AcDbCircle
 10
-123.723391
 20
182.976288
 30
0.0
 40
0.75
210
0.0
220
0.0
230
-1.0
100
AcDbArc
 50
180.0
 51
270.0
1001
ACAD
1000
R13OBJECT
1002
{
1005
CE
1002
}
  0
LINE
  5
A1
100
AcDbEntity
  8
2D_PROFILE
100
AcDbLine
 10
124.473391
 20
185.376288
 30
0.0
 11
124.473391
 21
182.976288
 31
0.0
1001
ACAD
1000
R13OBJECT
1002
{
1005
CE
1002
}
  0
ARC
  5
A2
100
AcDbEntity
  8
2D_PROFILE
100
AcDbCircle
 10
-123.723391
 20
185.376288
 30
0.0
 40
0.75
210
0.0
220
0.0
230
-1.0
100
AcDbArc
 50
90.0
 51
180.0
1001
ACAD
1000
R13OBJECT
1002
{
1005
CE
1002
}
  0
LINE
  5
A3
100
AcDbEntity
  8
2D_PROFILE
100
AcDbLine
 10
121.474806
 20
186.126288
 30
0.0
 11
123.723391
 21
186.126288
 31
0.0
1001
ACAD
1000
R13OBJECT
1002
{
1005
CE
1002
}
  0
ARC
  5
A4
100
AcDbEntity
  8
2D_PROFILE
100
AcDbCircle
 10
-121.474806
 20
184.126288
 30
0.0
 40
2.0
210
0.0
220
0.0
230
-1.0
100
AcDbArc
 50
54.334995
 51
90.0
1001
ACAD
1000
R13OBJECT
1002
{
1005
CE
1002
}
  0
ARC
  5
A5
100
AcDbEntity
  8
2D_PROFILE
100
AcDbCircle
 10
-122.421936
 20
193.479751
 30
0.0
 40
0.6
210
0.0
220
0.0
230
-1.0
100
AcDbArc
 50
355.732188
 51
106.169172
1001
ACAD
1000
R13OBJECT
1002
{
1005
CE
1002
}
  0
ARC
  5
A6
100
AcDbEntity
  8
2D_PROFILE
100
AcDbCircle
 10
121.524431
 20
193.412774
 30
0.0
 40
0.3
100
AcDbArc
 50
276.214079
 51
4.267827
1001
ACAD
1000
R13OBJECT
1002
{
1005
CE
1002
}
  0
ARC
  5
A7
100
AcDbEntity
  8
2D_PROFILE
100
AcDbCircle
 10
-121.773391
 20
191.126288
 30
0.0
 40
2.0
210
0.0
220
0.0
230
-1.0
100
AcDbArc
 50
6.214079
 51
83.785921
1001
ACAD
1000
R13OBJECT
1002
{
1005
CE
1002
}
  0
ARC
  5
A8
100
AcDbEntity
  8
2D_PROFILE
100
AcDbCircle
 10
119.486905
 20
191.375248
 30
0.0
 40
0.3
100
AcDbArc
 50
265.732173
 51
353.785921
1001
ACAD
1000
R13OBJECT
1002
{
1005
CE
1002
}
  0
ARC
  5
A9
100
AcDbEntity
  8
2D_PROFILE
100
AcDbCircle
 10
-119.419928
 20
190.477744
 30
0.0
 40
0.6
210
0.0
220
0.0
230
-1.0
100
AcDbArc
 50
343.830797
 51
94.267827
1001
ACAD
1000
R13OBJECT
1002
{
1005
CE
1002
}
  0
ARC
  5
AA
100
AcDbEntity
  8
2D_PROFILE
100
AcDbCircle
 10
-121.821036
 20
191.173932
 30
0.0
 40
3.099999
210
0.0
220
0.0
230
-1.0
100
AcDbArc
 50
286.16924
 51
343.830775
1001
ACAD
1000
R13OBJECT
1002
{
1005
CE
1002
}
  0
ARC
  5
AB
100
AcDbEntity
  8
2D_PROFILE
100
AcDbCircle
 10
-121.124847
 20
188.772825
 30
0.0
 40
0.6
210
0.0
220
0.0
230
-1.0
100
AcDbArc
 50
175.732188
 51
286.169207
1001
ACAD
1000
R13OBJECT
1002
{
1005
CE
1002
}
  0
ARC
  5
AC
100
AcDbEntity
  8
2D_PROFILE
100
AcDbCircle
 10
122.022352
 20
188.839802
 30
0.0
 40
0.3
100
AcDbArc
 50
96.214079
 51
184.267827
1001
ACAD
1000
R13OBJECT
1002
{
1005
CE
1002
}
  0
ARC
  5
AD
100
AcDbEntity
  8
2D_PROFILE
100
AcDbCircle
 10
-121.773391
 20
191.126288
 30
0.0
 40
2.0
210
0.0
220
0.0
230
-1.0
100
AcDbArc
 50
186.214079
 51
263.785921
1001
ACAD
1000
R13OBJECT
1002
{
1005
CE
1002
}
  0
ARC
  5
AE
100
AcDbEntity
  8
2D_PROFILE
100
AcDbCircle
 10
124.059877
 20
190.877328
 30
0.0
 40
0.3
100
AcDbArc
 50
85.732173
 51
173.785921
1001
ACAD
1000
R13OBJECT
1002
{
1005
CE
1002
}
  0
ARC
  5
AF
100
AcDbEntity
  8
2D_PROFILE
100
AcDbCircle
 10
-124.126854
 20
191.774832
 30
0.0
 40
0.6
210
0.0
220
0.0
230
-1.0
100
AcDbArc
 50
163.830793
 51
274.267812
1001
ACAD
1000
R13OBJECT
1002
{
1005
CE
1002
}
  0
ARC
  5
B0
100
AcDbEntity
  8
2D_PROFILE
100
AcDbCircle
 10
-121.725746
 20
191.078643
 30
0.0
 40
3.1
210
0.0
220
0.0
230
-1.0
100
AcDbArc
 50
106.169238
 51
163.830755
1001
ACAD
1000
R13OBJECT
1002
{
1005
CE
1002
}
  0
ARC
  5
B1
100
AcDbEntity
  8
2D_PROFILE
100
AcDbCircle
 10
-109.715268
 20
185.626288
 30
0.0
 40
2.0
210
0.0
220
0.0
230
-1.0
100
AcDbArc
 50
232.73464
 51
270.0
1001
ACAD
1000
R13OBJECT
1002
{
1005
CE
1002
}
  0
ARC
  5
B2
100
AcDbEntity
  8
2D_PROFILE
100
AcDbCircle
 10
-94.914634
 20
205.079283
 30
0.0
 40
26.443358
210
0.0
220
0.0
230
-1.0
100
AcDbArc
 50
215.665005
 51
232.73464
1001
ACAD
1000
R13OBJECT
1002
{
1005
CE
1002
}
  0
ARC
  5
B3
100
AcDbEntity
  8
2D_PROFILE
100
AcDbCircle
 10
-114.773391
 20
190.827703
 30
0.0
 40
2.0
210
0.0
220
0.0
230
-1.0
100
AcDbArc
 50
180.0
 51
215.665005
1001
ACAD
1000
R13OBJECT
1002
{
1005
CE
1002
}
  0
LINE
  5
B4
100
AcDbEntity
  8
2D_PROFILE
100
AcDbLine
 10
116.773391
 20
193.076288
 30
0.0
 11
116.773391
 21
190.827703
 31
0.0
1001
ACAD
1000
R13OBJECT
1002
{
1005
CE
1002
}
  0
ARC
  5
B5
100
AcDbEntity
  8
2D_PROFILE
100
AcDbCircle
 10
-116.023391
 20
193.076288
 30
0.0
 40
0.75
210
0.0
220
0.0
230
-1.0
100
AcDbArc
 50
90.0
 51
180.0
1001
ACAD
1000
R13OBJECT
1002
{
1005
CE
1002
}
  0
LINE
  5
B6
100
AcDbEntity
  8
2D_PROFILE
100
AcDbLine
 10
113.623391
 20
193.826288
 30
0.0
 11
116.023391
 21
193.826288
 31
0.0
1001
ACAD
1000
R13OBJECT
1002
{
1005
CE
1002
}
  0
ARC
  5
B7
100
AcDbEntity
  8
2D_PROFILE
100
AcDbCircle
 10
-113.623391
 20
193.076288
 30
0.0
 40
0.75
210
0.0
220
0.0
230
-1.0
100
AcDbArc
 50
0.0
 51
90.0
1001
ACAD
1000
R13OBJECT
1002
{
1005
CE
1002
}
  0
LINE
  5
B8
100
AcDbEntity
  8
2D_PROFILE
100
AcDbLine
 10
112.873391
 20
192.376288
 30
0.0
 11
112.873391
 21
193.076288
 31
0.0
1001
ACAD
1000
R13OBJECT
1002
{
1005
CE
1002
}
  0
ARC
  5
B9
100
AcDbEntity
  8
2D_PROFILE
100
AcDbCircle
 10
112.123391
 20
192.376288
 30
0.0
 40
0.75
100
AcDbArc
 50
270.0
 51
0.0
1001
ACAD
1000
R13OBJECT
1002
{
1005
CE
1002
}
  0
LINE
  5
BA
100
AcDbEntity
  8
2D_PROFILE
100
AcDbLine
 10
111.623391
 20
191.626288
 30
0.0
 11
112.123391
 21
191.626288
 31
0.0
1001
ACAD
1000
R13OBJECT
1002
{
1005
CE
1002
}
  0
ARC
  5
BB
100
AcDbEntity
  8
2D_PROFILE
100
AcDbCircle
 10
111.623391
 20
192.376288
 30
0.0
 40
0.75
100
AcDbArc
 50
180.0
 51
270.0
1001
ACAD
1000
R13OBJECT
1002
{
1005
CE
1002
}
  0
LINE
  5
BC
100
AcDbEntity
  8
2D_PROFILE
100
AcDbLine
 10
110.873391
 20
195.726288
 30
0.0
 11
110.873391
 21
192.376288
 31
0.0
1001
ACAD
1000
R13OBJECT
1002
{
1005
CE
1002
}
  0
LINE
  5
BD
100
AcDbEntity
  8
2D_PROFILE
100
AcDbLine
 10
110.719838
 20
195.572735
 30
0.0
 11
110.873391
 21
195.726288
 31
0.0
1001
ACAD
1000
R13OBJECT
1002
{
1005
CE
1002
}
  0
ARC
  5
BE
100
AcDbEntity
  8
2D_PROFILE
100
AcDbCircle
 10
110.366285
 20
195.926288
 30
0.0
 40
0.5
100
AcDbArc
 50
270.0
 51
315.0
1001
ACAD
1000
R13OBJECT
1002
{
1005
CE
1002
}
  0
LINE
  5
BF
100
AcDbEntity
  8
2D_PROFILE
100
AcDbLine
 10
103.180498
 20
195.426288
 30
0.0
 11
110.366285
 21
195.426288
 31
0.0
1001
ACAD
1000
R13OBJECT
1002
{
1005
CE
1002
}
  0
ARC
  5
C0
100
AcDbEntity
  8
2D_PROFILE
100
AcDbCircle
 10
103.180498
 20
195.926288
 30
0.0
 40
0.5
100
AcDbArc
 50
225.0
 51
270.0
1001
ACAD
1000
R13OBJECT
1002
{
1005
CE
1002
}
  0
LINE
  5
C1
100
AcDbEntity
  8
2D_PROFILE
100
AcDbLine
 10
102.673391
 20
195.726288
 30
0.0
 11
102.826945
 21
195.572735
 31
0.0
1001
ACAD
1000
R13OBJECT
1002
{
1005
CE
1002
}
  0
LINE
  5
C2
100
AcDbEntity
  8
2D_PROFILE
100
AcDbLine
 10
102.673391
 20
192.376288
 30
0.0
 11
102.673391
 21
195.726288
 31
0.0
1001
ACAD
1000
R13OBJECT
1002
{
1005
CE
1002
}
  0
ARC
  5
C3
100
AcDbEntity
  8
2D_PROFILE
100
AcDbCircle
 10
101.923391
 20
192.376288
 30
0.0
 40
0.75
100
AcDbArc
 50
270.0
 51
0.0
1001
ACAD
1000
R13OBJECT
1002
{
1005
CE
1002
}
  0
LINE
  5
C4
100
AcDbEntity
  8
2D_PROFILE
100
AcDbLine
 10
101.423391
 20
191.626288
 30
0.0
 11
101.923391
 21
191.626288
 31
0.0
1001
ACAD
1000
R13OBJECT
1002
{
1005
CE
1002
}
  0
ARC
  5
C5
100
AcDbEntity
  8
2D_PROFILE
100
AcDbCircle
 10
101.423391
 20
192.376288
 30
0.0
 40
0.75
100
AcDbArc
 50
180.0
 51
270.0
1001
ACAD
1000
R13OBJECT
1002
{
1005
CE
1002
}
  0
LINE
  5
C6
100
AcDbEntity
  8
2D_PROFILE
100
AcDbLine
 10
100.673391
 20
193.076288
 30
0.0
 11
100.673391
 21
192.376288
 31
0.0
1001
ACAD
1000
R13OBJECT
1002
{
1005
CE
1002
}
  0
ARC
  5
C7
100
AcDbEntity
  8
2D_PROFILE
100
AcDbCircle
 10
-99.923391
 20
193.076288
 30
0.0
 40
0.75
210
0.0
220
0.0
230
-1.0
100
AcDbArc
 50
90.0
 51
180.0
1001
ACAD
1000
R13OBJECT
1002
{
1005
CE
1002
}
  0
LINE
  5
C8
100
AcDbEntity
  8
2D_PROFILE
100
AcDbLine
 10
97.523391
 20
193.826288
 30
0.0
 11
99.923391
 21
193.826288
 31
0.0
1001
ACAD
1000
R13OBJECT
1002
{
1005
CE
1002
}
  0
ARC
  5
C9
100
AcDbEntity
  8
2D_PROFILE
100
AcDbCircle
 10
-97.523391
 20
193.076288
 30
0.0
 40
0.75
210
0.0
220
0.0
230
-1.0
100
AcDbArc
 50
360.0
 51
90.0
1001
ACAD
1000
R13OBJECT
1002
{
1005
CE
1002
}
  0
LINE
  5
CA
100
AcDbEntity
  8
2D_PROFILE
100
AcDbLine
 10
96.773391
 20
190.827703
 30
0.0
 11
96.773391
 21
193.076288
 31
0.0
1001
ACAD
1000
R13OBJECT
1002
{
1005
CE
1002
}
  0
ARC
  5
CB
100
AcDbEntity
  8
2D_PROFILE
100
AcDbCircle
 10
-98.773391
 20
190.827703
 30
0.0
 40
2.0
210
0.0
220
0.0
230
-1.0
100
AcDbArc
 50
324.334995
 51
360.0
1001
ACAD
1000
R13OBJECT
1002
{
1005
CE
1002
}
  0
ARC
  5
CC
100
AcDbEntity
  8
2D_PROFILE
100
AcDbCircle
 10
-118.632148
 20
205.079283
 30
0.0
 40
26.443358
210
0.0
220
0.0
230
-1.0
100
AcDbArc
 50
307.26536
 51
324.334995
1001
ACAD
1000
R13OBJECT
1002
{
1005
CE
1002
}
  0
ARC
  5
CD
100
AcDbEntity
  8
2D_PROFILE
100
AcDbCircle
 10
-103.831515
 20
185.626288
 30
0.0
 40
2.0
210
0.0
220
0.0
230
-1.0
100
AcDbArc
 50
270.0
 51
307.26536
1001
ACAD
1000
R13OBJECT
1002
{
1005
CE
1002
}
  0
LINE
  5
CE
100
AcDbEntity
  8
2D_PROFILE
100
AcDbLine
 10
109.715268
 20
183.626288
 30
0.0
 11
103.831515
 21
183.626288
 31
0.0
  0
ENDSEC
  0
SECTION
  2
OBJECTS
  0
DICTIONARY
  5
1A
100
AcDbDictionary
  3
ACAD_GROUP
350
18
  3
ACAD_MLINESTYLE
350
19
  0
DICTIONARY
  5
18
102
{ACAD_REACTORS
330
1A
102
}
100
AcDbDictionary
  0
DICTIONARY
  5
19
102
{ACAD_REACTORS
330
1A
102
}
100
AcDbDictionary
  3
STANDARD
350
1C
  0
MLINESTYLE
  5
1C
102
{ACAD_REACTORS
330
19
102
}
100
AcDbMlineStyle
  2
STANDARD
 70
     0
  3

 62
   256
 51
90.0
 52
90.0
 71
     2
 49
0.5
 62
   256
  6
BYLAYER
 49
-0.5
 62
   256
  6
BYLAYER
  0
ENDSEC
  0
EOF
