ISO-10303-21;
HEADER;
/****************************************************************
 * Generated by software with PDElib inside                    *
 * PDElib Version v51a, created Wed 07/06/2011                  *
 * ITI Transcendata (http://www.transcendata.com/)              *
 ****************************************************************/
FILE_DESCRIPTION((''),'2;1');
FILE_NAME('U:\\Paletti Norm\\Paletti Artikel\\SZ\\SZ1530N_A.stp','2013-08-29T08:46:36',('janine behrens'),(''),'Autodesk Inventor 2012','Autodesk Inventor 2012','');
FILE_SCHEMA(('AUTOMOTIVE_DESIGN { 1 0 10303 214 1 1 1 1 }'));
ENDSEC;
DATA;
#5=APPLICATION_CONTEXT('automotive design');
#6=APPLICATION_PROTOCOL_DEFINITION('International Standard','automotive_design',2001,#5);
#7=PRODUCT_CONTEXT('',#5,'mechanical');
#8=PRODUCT('SZ1530N_A','SZ1530N_A',$,(#7));
#9=PRODUCT_RELATED_PRODUCT_CATEGORY('part',$,(#8));
#10=PRODUCT_DEFINITION_FORMATION('',$,#8);
#11=PRODUCT_DEFINITION_CONTEXT('part definition',#5,'design');
#12=PRODUCT_DEFINITION('',$,#10,#11);
#18=(NAMED_UNIT(*)PLANE_ANGLE_UNIT()SI_UNIT($,.RADIAN.));
#19=DIMENSIONAL_EXPONENTS(0.0,0.0,0.0,0.0,0.0,0.0,0.0);
#20=PLANE_ANGLE_MEASURE_WITH_UNIT(PLANE_ANGLE_MEASURE(0.0174532925),#18);
#24=(CONVERSION_BASED_UNIT('DEGREE',#20)NAMED_UNIT(#19)PLANE_ANGLE_UNIT());
#28=(NAMED_UNIT(*)SI_UNIT($,.STERADIAN.)SOLID_ANGLE_UNIT());
#32=(LENGTH_UNIT()NAMED_UNIT(*)SI_UNIT(.MILLI.,.METRE.));
#34=UNCERTAINTY_MEASURE_WITH_UNIT(LENGTH_MEASURE(0.01),#32,'DISTANCE_ACCURACY_VALUE','');
#36=(GEOMETRIC_REPRESENTATION_CONTEXT(3)GLOBAL_UNCERTAINTY_ASSIGNED_CONTEXT((#34))GLOBAL_UNIT_ASSIGNED_CONTEXT((#24,#28,#32))REPRESENTATION_CONTEXT('None','None'));
#37=AXIS2_PLACEMENT_3D('',#38,#39,#40);
#38=CARTESIAN_POINT('',(0.0,0.0,0.0));
#39=DIRECTION('',(0.0,0.0,1.0));
#40=DIRECTION('',(1.0,0.0,0.0));
#41=SHAPE_REPRESENTATION('',(#37),#36);
#42=PRODUCT_DEFINITION_SHAPE('','',#12);
#43=SHAPE_DEFINITION_REPRESENTATION(#42,#41);
#49=(NAMED_UNIT(*)PLANE_ANGLE_UNIT()SI_UNIT($,.RADIAN.));
#50=DIMENSIONAL_EXPONENTS(0.0,0.0,0.0,0.0,0.0,0.0,0.0);
#51=PLANE_ANGLE_MEASURE_WITH_UNIT(PLANE_ANGLE_MEASURE(0.0174532925),#49);
#55=(CONVERSION_BASED_UNIT('DEGREE',#51)NAMED_UNIT(#50)PLANE_ANGLE_UNIT());
#59=(NAMED_UNIT(*)SI_UNIT($,.STERADIAN.)SOLID_ANGLE_UNIT());
#63=(LENGTH_UNIT()NAMED_UNIT(*)SI_UNIT(.MILLI.,.METRE.));
#65=UNCERTAINTY_MEASURE_WITH_UNIT(LENGTH_MEASURE(0.000001),#63,'DISTANCE_ACCURACY_VALUE','');
#67=(GEOMETRIC_REPRESENTATION_CONTEXT(3)GLOBAL_UNCERTAINTY_ASSIGNED_CONTEXT((#65))GLOBAL_UNIT_ASSIGNED_CONTEXT((#55,#59,#63))REPRESENTATION_CONTEXT('','3D'));
#68=CARTESIAN_POINT('',(-3.330669E-015,-6.261392084060367,2.220446E-015));
#69=DIRECTION('',(0.0,-1.0,0.0));
#70=DIRECTION('',(1.0,0.0,0.0));
#71=AXIS2_PLACEMENT_3D('',#68,#69,#70);
#72=CONICAL_SURFACE('',#71,1.22925,59.000000000000007);
#73=CARTESIAN_POINT('',(2.458499999999997,-6.999999999999997,2.220446E-015));
#74=VERTEX_POINT('',#73);
#75=CARTESIAN_POINT('',(-3.330669E-015,-6.999999999999997,2.220446E-015));
#76=DIRECTION('',(0.0,-1.0,0.0));
#77=DIRECTION('',(1.0,0.0,0.0));
#78=AXIS2_PLACEMENT_3D('',#75,#76,#77);
#79=CIRCLE('',#78,2.4585);
#80=EDGE_CURVE('',#74,#74,#79,.T.);
#81=ORIENTED_EDGE('',*,*,#80,.T.);
#82=EDGE_LOOP('',(#81));
#83=FACE_OUTER_BOUND('',#82,.T.);
#84=ADVANCED_FACE('',(#83),#72,.F.);
#85=CARTESIAN_POINT('',(-3.330669E-015,-18.5,2.220446E-015));
#86=DIRECTION('',(0.0,-1.0,0.0));
#87=DIRECTION('',(1.0,0.0,0.0));
#88=AXIS2_PLACEMENT_3D('',#85,#86,#87);
#89=CYLINDRICAL_SURFACE('',#88,2.4585);
#90=CARTESIAN_POINT('',(2.458499999999997,-30.0,2.220446E-015));
#91=VERTEX_POINT('',#90);
#92=CARTESIAN_POINT('',(-3.330669E-015,-30.0,2.220446E-015));
#93=DIRECTION('',(0.0,1.0,0.0));
#94=DIRECTION('',(1.0,0.0,0.0));
#95=AXIS2_PLACEMENT_3D('',#92,#93,#94);
#96=CIRCLE('',#95,2.4585);
#97=EDGE_CURVE('',#91,#91,#96,.T.);
#98=ORIENTED_EDGE('',*,*,#97,.F.);
#99=EDGE_LOOP('',(#98));
#100=FACE_OUTER_BOUND('',#99,.T.);
#101=ORIENTED_EDGE('',*,*,#80,.F.);
#102=EDGE_LOOP('',(#101));
#103=FACE_BOUND('',#102,.T.);
#104=ADVANCED_FACE('',(#100,#103),#89,.F.);
#105=CARTESIAN_POINT('',(5.999999999999998,0.0,-2.220446E-015));
#106=DIRECTION('',(1.0,0.0,0.0));
#107=DIRECTION('',(0.0,0.0,-1.0));
#108=AXIS2_PLACEMENT_3D('',#105,#106,#107);
#109=PLANE('',#108);
#110=CARTESIAN_POINT('',(6.000000000000001,0.0,-7.5));
#111=VERTEX_POINT('',#110);
#112=CARTESIAN_POINT('',(5.999999999999998,0.0,-2.220446E-015));
#113=DIRECTION('',(1.0,0.0,0.0));
#114=DIRECTION('',(0.0,0.0,-1.0));
#115=AXIS2_PLACEMENT_3D('',#112,#113,#114);
#116=CIRCLE('',#115,7.5);
#117=EDGE_CURVE('',#111,#111,#116,.T.);
#118=ORIENTED_EDGE('',*,*,#117,.T.);
#119=EDGE_LOOP('',(#118));
#120=FACE_OUTER_BOUND('',#119,.T.);
#121=CARTESIAN_POINT('',(5.999999999999995,0.0,4.499999999999997));
#122=VERTEX_POINT('',#121);
#123=CARTESIAN_POINT('',(5.999999999999996,0.0,-2.220446E-015));
#124=DIRECTION('',(1.0,0.0,0.0));
#125=DIRECTION('',(0.0,0.0,-1.0));
#126=AXIS2_PLACEMENT_3D('',#123,#124,#125);
#127=CIRCLE('',#126,4.5);
#128=EDGE_CURVE('',#122,#122,#127,.T.);
#129=ORIENTED_EDGE('',*,*,#128,.F.);
#130=EDGE_LOOP('',(#129));
#131=FACE_BOUND('',#130,.T.);
#132=ADVANCED_FACE('',(#120,#131),#109,.T.);
#133=CARTESIAN_POINT('',(10.499999999999998,0.0,0.0));
#134=DIRECTION('',(1.0,0.0,2.220446E-016));
#135=DIRECTION('',(0.0,0.0,-1.0));
#136=AXIS2_PLACEMENT_3D('',#133,#134,#135);
#137=CYLINDRICAL_SURFACE('',#136,7.5);
#138=CARTESIAN_POINT('',(15.0,0.0,-7.5));
#139=VERTEX_POINT('',#138);
#140=CARTESIAN_POINT('',(15.0,0.0,9.992007E-016));
#141=DIRECTION('',(-1.0,0.0,0.0));
#142=DIRECTION('',(0.0,0.0,-1.0));
#143=AXIS2_PLACEMENT_3D('',#140,#141,#142);
#144=CIRCLE('',#143,7.5);
#145=EDGE_CURVE('',#139,#139,#144,.T.);
#146=ORIENTED_EDGE('',*,*,#145,.F.);
#147=EDGE_LOOP('',(#146));
#148=FACE_OUTER_BOUND('',#147,.T.);
#149=ORIENTED_EDGE('',*,*,#117,.F.);
#150=EDGE_LOOP('',(#149));
#151=FACE_BOUND('',#150,.T.);
#152=ADVANCED_FACE('',(#148,#151),#137,.F.);
#153=CARTESIAN_POINT('',(-58.484692283495349,0.0,-1.554312E-014));
#154=DIRECTION('',(1.0,0.0,2.220446E-016));
#155=DIRECTION('',(0.0,0.0,-1.0));
#156=AXIS2_PLACEMENT_3D('',#153,#154,#155);
#157=CYLINDRICAL_SURFACE('',#156,4.5);
#158=CARTESIAN_POINT('',(-15.0,-5.510729E-016,4.499999999999994));
#159=VERTEX_POINT('',#158);
#160=CARTESIAN_POINT('',(-15.0,0.0,-5.887581E-015));
#161=DIRECTION('',(1.0,0.0,0.0));
#162=DIRECTION('',(0.0,0.0,-1.0));
#163=AXIS2_PLACEMENT_3D('',#160,#161,#162);
#164=CIRCLE('',#163,4.5);
#165=EDGE_CURVE('',#159,#159,#164,.T.);
#166=ORIENTED_EDGE('',*,*,#165,.F.);
#167=EDGE_LOOP('',(#166));
#168=FACE_OUTER_BOUND('',#167,.T.);
#169=ORIENTED_EDGE('',*,*,#128,.T.);
#170=EDGE_LOOP('',(#169));
#171=FACE_BOUND('',#170,.T.);
#172=ADVANCED_FACE('',(#168,#171),#157,.F.);
#173=CARTESIAN_POINT('',(5.999999999999998,20.0,-2.220446E-015));
#174=DIRECTION('',(1.0,0.0,0.0));
#175=DIRECTION('',(0.0,0.0,-1.0));
#176=AXIS2_PLACEMENT_3D('',#173,#174,#175);
#177=PLANE('',#176);
#178=CARTESIAN_POINT('',(6.000000000000001,20.0,-7.5));
#179=VERTEX_POINT('',#178);
#180=CARTESIAN_POINT('',(5.999999999999998,20.0,-2.220446E-015));
#181=DIRECTION('',(1.0,0.0,0.0));
#182=DIRECTION('',(0.0,0.0,-1.0));
#183=AXIS2_PLACEMENT_3D('',#180,#181,#182);
#184=CIRCLE('',#183,7.5);
#185=EDGE_CURVE('',#179,#179,#184,.T.);
#186=ORIENTED_EDGE('',*,*,#185,.T.);
#187=EDGE_LOOP('',(#186));
#188=FACE_OUTER_BOUND('',#187,.T.);
#189=CARTESIAN_POINT('',(5.999999999999995,20.0,4.499999999999997));
#190=VERTEX_POINT('',#189);
#191=CARTESIAN_POINT('',(5.999999999999996,20.0,-2.220446E-015));
#192=DIRECTION('',(1.0,0.0,0.0));
#193=DIRECTION('',(0.0,0.0,-1.0));
#194=AXIS2_PLACEMENT_3D('',#191,#192,#193);
#195=CIRCLE('',#194,4.5);
#196=EDGE_CURVE('',#190,#190,#195,.T.);
#197=ORIENTED_EDGE('',*,*,#196,.F.);
#198=EDGE_LOOP('',(#197));
#199=FACE_BOUND('',#198,.T.);
#200=ADVANCED_FACE('',(#188,#199),#177,.T.);
#201=CARTESIAN_POINT('',(10.499999999999998,20.0,0.0));
#202=DIRECTION('',(1.0,0.0,2.220446E-016));
#203=DIRECTION('',(0.0,0.0,-1.0));
#204=AXIS2_PLACEMENT_3D('',#201,#202,#203);
#205=CYLINDRICAL_SURFACE('',#204,7.5);
#206=CARTESIAN_POINT('',(15.0,20.0,-7.5));
#207=VERTEX_POINT('',#206);
#208=CARTESIAN_POINT('',(15.0,20.0,9.992007E-016));
#209=DIRECTION('',(-1.0,0.0,0.0));
#210=DIRECTION('',(0.0,0.0,-1.0));
#211=AXIS2_PLACEMENT_3D('',#208,#209,#210);
#212=CIRCLE('',#211,7.5);
#213=EDGE_CURVE('',#207,#207,#212,.T.);
#214=ORIENTED_EDGE('',*,*,#213,.F.);
#215=EDGE_LOOP('',(#214));
#216=FACE_OUTER_BOUND('',#215,.T.);
#217=ORIENTED_EDGE('',*,*,#185,.F.);
#218=EDGE_LOOP('',(#217));
#219=FACE_BOUND('',#218,.T.);
#220=ADVANCED_FACE('',(#216,#219),#205,.F.);
#221=CARTESIAN_POINT('',(-58.484692283495349,20.0,-1.554312E-014));
#222=DIRECTION('',(1.0,0.0,2.220446E-016));
#223=DIRECTION('',(0.0,0.0,-1.0));
#224=AXIS2_PLACEMENT_3D('',#221,#222,#223);
#225=CYLINDRICAL_SURFACE('',#224,4.5);
#226=CARTESIAN_POINT('',(-15.0,20.0,4.499999999999994));
#227=VERTEX_POINT('',#226);
#228=CARTESIAN_POINT('',(-15.0,20.0,-5.887581E-015));
#229=DIRECTION('',(1.0,0.0,0.0));
#230=DIRECTION('',(0.0,0.0,-1.0));
#231=AXIS2_PLACEMENT_3D('',#228,#229,#230);
#232=CIRCLE('',#231,4.5);
#233=EDGE_CURVE('',#227,#227,#232,.T.);
#234=ORIENTED_EDGE('',*,*,#233,.F.);
#235=EDGE_LOOP('',(#234));
#236=FACE_OUTER_BOUND('',#235,.T.);
#237=ORIENTED_EDGE('',*,*,#196,.T.);
#238=EDGE_LOOP('',(#237));
#239=FACE_BOUND('',#238,.T.);
#240=ADVANCED_FACE('',(#236,#239),#225,.F.);
#241=CARTESIAN_POINT('',(-2.220446E-015,-30.0,2.069052E-015));
#242=DIRECTION('',(0.0,1.0,0.0));
#243=DIRECTION('',(0.0,0.0,1.0));
#244=AXIS2_PLACEMENT_3D('',#241,#242,#243);
#245=PLANE('',#244);
#246=CARTESIAN_POINT('',(14.999999999999996,-30.0,15.000000000000004));
#247=VERTEX_POINT('',#246);
#248=CARTESIAN_POINT('',(15.000000000000002,-30.0,-14.999999999999998));
#249=VERTEX_POINT('',#248);
#250=CARTESIAN_POINT('',(14.999999999999996,-30.0,15.000000000000004));
#251=DIRECTION('',(0.0,0.0,-1.0));
#252=VECTOR('',#251,30.0);
#253=LINE('',#250,#252);
#254=EDGE_CURVE('',#247,#249,#253,.T.);
#255=ORIENTED_EDGE('',*,*,#254,.F.);
#256=CARTESIAN_POINT('',(-15.000000000000004,-30.0,15.0));
#257=VERTEX_POINT('',#256);
#258=CARTESIAN_POINT('',(-15.000000000000004,-30.0,15.0));
#259=DIRECTION('',(1.0,0.0,0.0));
#260=VECTOR('',#259,30.0);
#261=LINE('',#258,#260);
#262=EDGE_CURVE('',#257,#247,#261,.T.);
#263=ORIENTED_EDGE('',*,*,#262,.F.);
#264=CARTESIAN_POINT('',(-15.000000000000002,-30.0,-14.999999999999998));
#265=VERTEX_POINT('',#264);
#266=CARTESIAN_POINT('',(-15.000000000000002,-30.0,-14.999999999999998));
#267=DIRECTION('',(0.0,0.0,1.0));
#268=VECTOR('',#267,30.0);
#269=LINE('',#266,#268);
#270=EDGE_CURVE('',#265,#257,#269,.T.);
#271=ORIENTED_EDGE('',*,*,#270,.F.);
#272=CARTESIAN_POINT('',(15.000000000000002,-30.0,-14.999999999999998));
#273=DIRECTION('',(-1.0,0.0,0.0));
#274=VECTOR('',#273,30.000000000000004);
#275=LINE('',#272,#274);
#276=EDGE_CURVE('',#249,#265,#275,.T.);
#277=ORIENTED_EDGE('',*,*,#276,.F.);
#278=EDGE_LOOP('',(#255,#263,#271,#277));
#279=FACE_OUTER_BOUND('',#278,.T.);
#280=ORIENTED_EDGE('',*,*,#97,.T.);
#281=EDGE_LOOP('',(#280));
#282=FACE_BOUND('',#281,.T.);
#283=ADVANCED_FACE('',(#279,#282),#245,.F.);
#284=CARTESIAN_POINT('',(-15.000000000000004,0.0,15.0));
#285=DIRECTION('',(-1.0,0.0,0.0));
#286=DIRECTION('',(0.0,0.0,1.0));
#287=AXIS2_PLACEMENT_3D('',#284,#285,#286);
#288=PLANE('',#287);
#289=CARTESIAN_POINT('',(-15.000000000000004,30.0,15.0));
#290=VERTEX_POINT('',#289);
#291=CARTESIAN_POINT('',(-15.000000000000002,30.0,-14.999999999999998));
#292=VERTEX_POINT('',#291);
#293=CARTESIAN_POINT('',(-15.000000000000004,30.0,15.000000000000002));
#294=DIRECTION('',(0.0,0.0,-1.0));
#295=VECTOR('',#294,30.0);
#296=LINE('',#293,#295);
#297=EDGE_CURVE('',#290,#292,#296,.T.);
#298=ORIENTED_EDGE('',*,*,#297,.T.);
#299=CARTESIAN_POINT('',(-15.000000000000002,-30.0,-14.999999999999998));
#300=DIRECTION('',(0.0,1.0,0.0));
#301=VECTOR('',#300,60.0);
#302=LINE('',#299,#301);
#303=EDGE_CURVE('',#265,#292,#302,.T.);
#304=ORIENTED_EDGE('',*,*,#303,.F.);
#305=ORIENTED_EDGE('',*,*,#270,.T.);
#306=CARTESIAN_POINT('',(-15.000000000000004,30.0,15.0));
#307=DIRECTION('',(0.0,-1.0,0.0));
#308=VECTOR('',#307,60.0);
#309=LINE('',#306,#308);
#310=EDGE_CURVE('',#290,#257,#309,.T.);
#311=ORIENTED_EDGE('',*,*,#310,.F.);
#312=EDGE_LOOP('',(#298,#304,#305,#311));
#313=FACE_OUTER_BOUND('',#312,.T.);
#314=ORIENTED_EDGE('',*,*,#165,.T.);
#315=EDGE_LOOP('',(#314));
#316=FACE_BOUND('',#315,.T.);
#317=ORIENTED_EDGE('',*,*,#233,.T.);
#318=EDGE_LOOP('',(#317));
#319=FACE_BOUND('',#318,.T.);
#320=ADVANCED_FACE('',(#313,#316,#319),#288,.T.);
#321=CARTESIAN_POINT('',(-15.000000000000002,0.0,-14.999999999999998));
#322=DIRECTION('',(0.0,0.0,-1.0));
#323=DIRECTION('',(-1.0,0.0,0.0));
#324=AXIS2_PLACEMENT_3D('',#321,#322,#323);
#325=PLANE('',#324);
#326=CARTESIAN_POINT('',(15.000000000000002,30.0,-14.999999999999998));
#327=VERTEX_POINT('',#326);
#328=CARTESIAN_POINT('',(-15.000000000000002,30.0,-14.999999999999998));
#329=DIRECTION('',(1.0,0.0,0.0));
#330=VECTOR('',#329,30.000000000000004);
#331=LINE('',#328,#330);
#332=EDGE_CURVE('',#292,#327,#331,.T.);
#333=ORIENTED_EDGE('',*,*,#332,.T.);
#334=CARTESIAN_POINT('',(15.000000000000002,-30.0,-14.999999999999998));
#335=DIRECTION('',(0.0,1.0,0.0));
#336=VECTOR('',#335,60.0);
#337=LINE('',#334,#336);
#338=EDGE_CURVE('',#249,#327,#337,.T.);
#339=ORIENTED_EDGE('',*,*,#338,.F.);
#340=ORIENTED_EDGE('',*,*,#276,.T.);
#341=ORIENTED_EDGE('',*,*,#303,.T.);
#342=EDGE_LOOP('',(#333,#339,#340,#341));
#343=FACE_OUTER_BOUND('',#342,.T.);
#344=ADVANCED_FACE('',(#343),#325,.T.);
#345=CARTESIAN_POINT('',(15.000000000000002,0.0,-14.999999999999998));
#346=DIRECTION('',(1.0,0.0,0.0));
#347=DIRECTION('',(0.0,0.0,-1.0));
#348=AXIS2_PLACEMENT_3D('',#345,#346,#347);
#349=PLANE('',#348);
#350=CARTESIAN_POINT('',(14.999999999999996,30.0,15.000000000000004));
#351=VERTEX_POINT('',#350);
#352=CARTESIAN_POINT('',(15.000000000000004,30.0,-14.999999999999996));
#353=DIRECTION('',(0.0,0.0,1.0));
#354=VECTOR('',#353,30.0);
#355=LINE('',#352,#354);
#356=EDGE_CURVE('',#327,#351,#355,.T.);
#357=ORIENTED_EDGE('',*,*,#356,.T.);
#358=CARTESIAN_POINT('',(14.999999999999996,-30.0,15.000000000000004));
#359=DIRECTION('',(0.0,1.0,0.0));
#360=VECTOR('',#359,60.0);
#361=LINE('',#358,#360);
#362=EDGE_CURVE('',#247,#351,#361,.T.);
#363=ORIENTED_EDGE('',*,*,#362,.F.);
#364=ORIENTED_EDGE('',*,*,#254,.T.);
#365=ORIENTED_EDGE('',*,*,#338,.T.);
#366=EDGE_LOOP('',(#357,#363,#364,#365));
#367=FACE_OUTER_BOUND('',#366,.T.);
#368=ORIENTED_EDGE('',*,*,#145,.T.);
#369=EDGE_LOOP('',(#368));
#370=FACE_BOUND('',#369,.T.);
#371=ORIENTED_EDGE('',*,*,#213,.T.);
#372=EDGE_LOOP('',(#371));
#373=FACE_BOUND('',#372,.T.);
#374=ADVANCED_FACE('',(#367,#370,#373),#349,.T.);
#375=CARTESIAN_POINT('',(14.999999999999996,0.0,15.000000000000004));
#376=DIRECTION('',(0.0,0.0,1.0));
#377=DIRECTION('',(1.0,0.0,0.0));
#378=AXIS2_PLACEMENT_3D('',#375,#376,#377);
#379=PLANE('',#378);
#380=CARTESIAN_POINT('',(14.999999999999996,30.0,15.000000000000004));
#381=DIRECTION('',(-1.0,0.0,0.0));
#382=VECTOR('',#381,30.0);
#383=LINE('',#380,#382);
#384=EDGE_CURVE('',#351,#290,#383,.T.);
#385=ORIENTED_EDGE('',*,*,#384,.T.);
#386=ORIENTED_EDGE('',*,*,#310,.T.);
#387=ORIENTED_EDGE('',*,*,#262,.T.);
#388=ORIENTED_EDGE('',*,*,#362,.T.);
#389=EDGE_LOOP('',(#385,#386,#387,#388));
#390=FACE_OUTER_BOUND('',#389,.T.);
#391=ADVANCED_FACE('',(#390),#379,.T.);
#392=CARTESIAN_POINT('',(-2.220446E-015,30.0,2.069052E-015));
#393=DIRECTION('',(0.0,1.0,0.0));
#394=DIRECTION('',(0.0,0.0,1.0));
#395=AXIS2_PLACEMENT_3D('',#392,#393,#394);
#396=PLANE('',#395);
#397=ORIENTED_EDGE('',*,*,#297,.F.);
#398=ORIENTED_EDGE('',*,*,#384,.F.);
#399=ORIENTED_EDGE('',*,*,#356,.F.);
#400=ORIENTED_EDGE('',*,*,#332,.F.);
#401=EDGE_LOOP('',(#397,#398,#399,#400));
#402=FACE_OUTER_BOUND('',#401,.T.);
#403=ADVANCED_FACE('',(#402),#396,.T.);
#404=CLOSED_SHELL('',(#84,#104,#132,#152,#172,#200,#220,#240,#283,#320,#344,#374,#391,#403));
#405=MANIFOLD_SOLID_BREP('Volumenk\S\vrper1',#404);
#406=COLOUR_RGB('Aluminium (gleichm\X2\FFFDFFFD\X0\ig)',0.847059011459351,0.839215993881226,0.839215993881226);
#407=FILL_AREA_STYLE_COLOUR('Aluminium (gleichm\X2\FFFDFFFD\X0\ig)',#406);
#408=FILL_AREA_STYLE('Aluminium (gleichm\X2\FFFDFFFD\X0\ig)',(#407));
#409=SURFACE_STYLE_FILL_AREA(#408);
#410=SURFACE_SIDE_STYLE('Aluminium (gleichm\X2\FFFDFFFD\X0\ig)',(#409));
#411=SURFACE_STYLE_USAGE(.BOTH.,#410);
#412=PRESENTATION_STYLE_ASSIGNMENT((#411));
#413=STYLED_ITEM('',(#412),#405);
#414=MECHANICAL_DESIGN_GEOMETRIC_PRESENTATION_REPRESENTATION('',(#413),#36);
#415=ADVANCED_BREP_SHAPE_REPRESENTATION('ABSR',(#405),#36);
#416=SHAPE_REPRESENTATION_RELATIONSHIP('SRR','None',#415,#41);
ENDSEC;
END-ISO-10303-21;
