  0
SECTION
  2
HEADER
  9
$ACADVER
  1
AC1014
  9
$ACADMAINTVER
 70
     9
  9
$DWGCODEPAGE
  3
ANSI_1252
  9
$INSBASE
 10
0.0
 20
0.0
 30
0.0
  9
$EXTMIN
 10
-15.569523
 20
-15.569583
 30
0.0
  9
$EXTMAX
 10
15.569565
 20
15.569504
 30
0.0
  9
$LIMMIN
 10
0.0
 20
0.0
  9
$LIMMAX
 10
210.0
 20
297.0
  9
$ORTHOMODE
 70
     0
  9
$REGENMODE
 70
     1
  9
$FILLMODE
 70
     1
  9
$QTEXTMODE
 70
     0
  9
$MIRRTEXT
 70
     1
  9
$DRAGMODE
 70
     2
  9
$LTSCALE
 40
5.0
  9
$OSMODE
 70
     1
  9
$ATTMODE
 70
     1
  9
$TEXTSIZE
 40
2.5
  9
$TRACEWID
 40
1.0
  9
$TEXTSTYLE
  7
STANDARD
  9
$CLAYER
  8
2D_PROFILE
  9
$CELTYPE
  6
BYLAYER
  9
$CECOLOR
 62
   256
  9
$CELTSCALE
 40
1.0
  9
$DELOBJ
 70
     1
  9
$DISPSILH
 70
     0
  9
$DIMSCALE
 40
1.0
  9
$DIMASZ
 40
2.0
  9
$DIMEXO
 40
0.0
  9
$DIMDLI
 40
0.0
  9
$DIMRND
 40
0.0
  9
$DIMDLE
 40
0.0
  9
$DIMEXE
 40
1.0
  9
$DIMTP
 40
0.2
  9
$DIMTM
 40
0.2
  9
$DIMTXT
 40
2.5
  9
$DIMCEN
 40
0.0
  9
$DIMTSZ
 40
0.0
  9
$DIMTOL
 70
     0
  9
$DIMLIM
 70
     0
  9
$DIMTIH
 70
     0
  9
$DIMTOH
 70
     0
  9
$DIMSE1
 70
     0
  9
$DIMSE2
 70
     0
  9
$DIMTAD
 70
     1
  9
$DIMZIN
 70
     8
  9
$DIMBLK
  1

  9
$DIMASO
 70
     1
  9
$DIMSHO
 70
     1
  9
$DIMPOST
  1

  9
$DIMAPOST
  1

  9
$DIMALT
 70
     0
  9
$DIMALTD
 70
     2
  9
$DIMALTF
 40
25.4
  9
$DIMLFAC
 40
1.0
  9
$DIMTOFL
 70
     1
  9
$DIMTVP
 40
0.0
  9
$DIMTIX
 70
     0
  9
$DIMSOXD
 70
     0
  9
$DIMSAH
 70
     0
  9
$DIMBLK1
  1

  9
$DIMBLK2
  1

  9
$DIMSTYLE
  2
PALETTI
  9
$DIMCLRD
 70
   256
  9
$DIMCLRE
 70
   256
  9
$DIMCLRT
 70
   256
  9
$DIMTFAC
 40
0.5
  9
$DIMGAP
 40
0.4
  9
$DIMJUST
 70
     0
  9
$DIMSD1
 70
     0
  9
$DIMSD2
 70
     0
  9
$DIMTOLJ
 70
     1
  9
$DIMTZIN
 70
     8
  9
$DIMALTZ
 70
     8
  9
$DIMALTTZ
 70
     8
  9
$DIMFIT
 70
     5
  9
$DIMUPT
 70
     0
  9
$DIMUNIT
 70
     2
  9
$DIMDEC
 70
     4
  9
$DIMTDEC
 70
     4
  9
$DIMALTU
 70
     2
  9
$DIMALTTD
 70
     2
  9
$DIMTXSTY
  7
STANDARD
  9
$DIMAUNIT
 70
     0
  9
$LUNITS
 70
     2
  9
$LUPREC
 70
     4
  9
$SKETCHINC
 40
1.0
  9
$FILLETRAD
 40
0.0
  9
$AUNITS
 70
     0
  9
$AUPREC
 70
     0
  9
$MENU
  1
acad
  9
$ELEVATION
 40
0.0
  9
$PELEVATION
 40
0.0
  9
$THICKNESS
 40
0.0
  9
$LIMCHECK
 70
     0
  9
$BLIPMODE
 70
     0
  9
$CHAMFERA
 40
10.0
  9
$CHAMFERB
 40
10.0
  9
$CHAMFERC
 40
0.0
  9
$CHAMFERD
 40
0.0
  9
$SKPOLY
 70
     0
  9
$TDCREATE
 40
2451229.674780949
  9
$TDUPDATE
 40
2451229.674780949
  9
$TDINDWG
 40
0.0000000000
  9
$TDUSRTIMER
 40
0.0000000000
  9
$USRTIMER
 70
     1
  9
$ANGBASE
 50
0.0
  9
$ANGDIR
 70
     0
  9
$PDMODE
 70
     0
  9
$PDSIZE
 40
0.0
  9
$PLINEWID
 40
0.0
  9
$COORDS
 70
     1
  9
$SPLFRAME
 70
     0
  9
$SPLINETYPE
 70
     6
  9
$SPLINESEGS
 70
     8
  9
$ATTDIA
 70
     1
  9
$ATTREQ
 70
     1
  9
$HANDLING
 70
     1
  9
$HANDSEED
  5
68
  9
$SURFTAB1
 70
     6
  9
$SURFTAB2
 70
     6
  9
$SURFTYPE
 70
     6
  9
$SURFU
 70
     6
  9
$SURFV
 70
     6
  9
$UCSNAME
  2

  9
$UCSORG
 10
0.0
 20
0.0
 30
0.0
  9
$UCSXDIR
 10
1.0
 20
0.0
 30
0.0
  9
$UCSYDIR
 10
0.0
 20
1.0
 30
0.0
  9
$PUCSNAME
  2

  9
$PUCSORG
 10
0.0
 20
0.0
 30
0.0
  9
$PUCSXDIR
 10
1.0
 20
0.0
 30
0.0
  9
$PUCSYDIR
 10
0.0
 20
1.0
 30
0.0
  9
$USERI1
 70
     0
  9
$USERI2
 70
     0
  9
$USERI3
 70
     0
  9
$USERI4
 70
     0
  9
$USERI5
 70
     0
  9
$USERR1
 40
1.0
  9
$USERR2
 40
0.0
  9
$USERR3
 40
0.0
  9
$USERR4
 40
0.0
  9
$USERR5
 40
0.0
  9
$WORLDVIEW
 70
     1
  9
$SHADEDGE
 70
     3
  9
$SHADEDIF
 70
    70
  9
$TILEMODE
 70
     1
  9
$MAXACTVP
 70
    16
  9
$PINSBASE
 10
0.0
 20
0.0
 30
0.0
  9
$PLIMCHECK
 70
     0
  9
$PEXTMIN
 10
1.000000E+20
 20
1.000000E+20
 30
1.000000E+20
  9
$PEXTMAX
 10
-1.000000E+20
 20
-1.000000E+20
 30
-1.000000E+20
  9
$PLIMMIN
 10
0.0
 20
0.0
  9
$PLIMMAX
 10
420.0
 20
297.0
  9
$UNITMODE
 70
     0
  9
$VISRETAIN
 70
     0
  9
$PLINEGEN
 70
     0
  9
$PSLTSCALE
 70
     1
  9
$TREEDEPTH
 70
  3020
  9
$PICKSTYLE
 70
     1
  9
$CMLSTYLE
  2
STANDARD
  9
$CMLJUST
 70
     0
  9
$CMLSCALE
 40
1.0
  9
$PROXYGRAPHICS
 70
     1
  9
$MEASUREMENT
 70
     0
  0
ENDSEC
  0
SECTION
  2
CLASSES
  0
CLASS
  1
DICTIONARYVAR
  2
AcDbDictionaryVar
  3
"AutoCAD"
 90
        0
280
     0
281
     0
  0
ENDSEC
  0
SECTION
  2
TABLES
  0
TABLE
  2
VPORT
  5
12
100
AcDbSymbolTable
 70
     2
  0
VPORT
  5
67
100
AcDbSymbolTableRecord
100
AcDbViewportTableRecord
  2
*ACTIVE
 70
     0
 10
0.0
 20
0.0
 11
1.0
 21
1.0
 12
36.074631
 22
2.333613
 13
0.0
 23
0.0
 14
5.0
 24
5.0
 15
5.0
 25
5.0
 16
0.0
 26
0.0
 36
1.0
 17
0.0
 27
0.0
 37
0.0
 40
101.167625
 41
1.700368
 42
50.0
 43
0.0
 44
0.0
 50
0.0
 51
0.0
 71
     0
 72
 20000
 73
     1
 74
     3
 75
     0
 76
     0
 77
     0
 78
     0
  0
ENDTAB
  0
TABLE
  2
LTYPE
  5
D
100
AcDbSymbolTable
 70
     1
  0
LTYPE
  5
E
100
AcDbSymbolTableRecord
100
AcDbLinetypeTableRecord
  2
BYBLOCK
 70
     0
  3

 72
    65
 73
     0
 40
0.0
  0
LTYPE
  5
F
100
AcDbSymbolTableRecord
100
AcDbLinetypeTableRecord
  2
BYLAYER
 70
     0
  3

 72
    65
 73
     0
 40
0.0
  0
LTYPE
  5
5
100
AcDbSymbolTableRecord
100
AcDbLinetypeTableRecord
  2
CONTINUOUS
 70
     0
  3
Solid line
 72
    65
 73
     0
 40
0.0
  0
ENDTAB
  0
TABLE
  2
LAYER
  5
A
100
AcDbSymbolTable
 70
     2
  0
LAYER
  5
4
100
AcDbSymbolTableRecord
100
AcDbLayerTableRecord
  2
0
 70
     1
 62
     7
  6
CONTINUOUS
  0
LAYER
  5
1B
100
AcDbSymbolTableRecord
100
AcDbLayerTableRecord
  2
2D_PROFILE
 70
     0
 62
     5
  6
CONTINUOUS
  0
ENDTAB
  0
TABLE
  2
STYLE
  5
B
100
AcDbSymbolTable
 70
     1
  0
STYLE
  5
C
100
AcDbSymbolTableRecord
100
AcDbTextStyleTableRecord
  2
STANDARD
 70
     0
 40
0.0
 41
1.0
 50
0.0
 71
     0
 42
2.5
  3
ISOCP
  4

  0
ENDTAB
  0
TABLE
  2
VIEW
  5
10
100
AcDbSymbolTable
 70
     0
  0
ENDTAB
  0
TABLE
  2
UCS
  5
11
100
AcDbSymbolTable
 70
     0
  0
ENDTAB
  0
TABLE
  2
APPID
  5
14
100
AcDbSymbolTable
 70
     1
  0
APPID
  5
15
100
AcDbSymbolTableRecord
100
AcDbRegAppTableRecord
  2
ACAD
 70
     0
  0
ENDTAB
  0
TABLE
  2
DIMSTYLE
  5
16
100
AcDbSymbolTable
 70
     1
  0
DIMSTYLE
105
1D
100
AcDbSymbolTableRecord
100
AcDbDimStyleTableRecord
  2
PALETTI
 70
     0
  3

  4

  5

  6

  7

 40
1.0
 41
2.0
 42
0.0
 43
0.0
 44
1.0
 45
0.0
 46
0.0
 47
0.2
 48
0.2
140
2.5
141
0.0
142
0.0
143
25.4
144
1.0
145
0.0
146
0.5
147
0.4
 71
     0
 72
     0
 73
     0
 74
     0
 75
     0
 76
     0
 77
     1
 78
     8
170
     0
171
     2
172
     1
173
     0
174
     0
175
     0
176
   256
177
   256
178
   256
270
     2
271
     4
272
     4
273
     2
274
     2
340
C
275
     0
280
     0
281
     0
282
     0
283
     1
284
     8
285
     8
286
     8
287
     5
288
     0
  0
ENDTAB
  0
TABLE
  2
BLOCK_RECORD
  5
1
100
AcDbSymbolTable
 70
     0
  0
BLOCK_RECORD
  5
2
100
AcDbSymbolTableRecord
100
AcDbBlockTableRecord
  2
*MODEL_SPACE
  0
BLOCK_RECORD
  5
7
100
AcDbSymbolTableRecord
100
AcDbBlockTableRecord
  2
*PAPER_SPACE
  0
ENDTAB
  0
ENDSEC
  0
SECTION
  2
BLOCKS
  0
BLOCK
  5
3
100
AcDbEntity
  8
0
100
AcDbBlockBegin
  2
*MODEL_SPACE
 70
     0
 10
0.0
 20
0.0
 30
0.0
  3
*MODEL_SPACE
  1

  0
ENDBLK
  5
6
100
AcDbEntity
  8
0
100
AcDbBlockEnd
  0
BLOCK
  5
8
100
AcDbEntity
 67
     1
  8
0
100
AcDbBlockBegin
  2
*PAPER_SPACE
 70
     0
 10
0.0
 20
0.0
 30
0.0
  3
*PAPER_SPACE
  1

  0
ENDBLK
  5
9
100
AcDbEntity
 67
     1
  8
0
100
AcDbBlockEnd
  0
ENDSEC
  0
SECTION
  2
ENTITIES
  0
LINE
  5
1E
100
AcDbEntity
  8
2D_PROFILE
100
AcDbLine
 10
-5.082526
 20
14.887943
 30
0.0
 11
-12.249979
 21
14.99996
 31
0.0
1001
ACAD
1000
R13OBJECT
1002
{
1005
66
1002
}
  0
ARC
  5
1F
100
AcDbEntity
  8
2D_PROFILE
100
AcDbCircle
 10
-5.099979
 20
13.888095
 30
0.0
 40
1.0
100
AcDbArc
 50
0.0
 51
89.0
1001
ACAD
1000
R13OBJECT
1002
{
1005
66
1002
}
  0
LINE
  5
20
100
AcDbEntity
  8
2D_PROFILE
100
AcDbLine
 10
-4.099979
 20
13.388019
 30
0.0
 11
-4.099979
 21
13.888095
 31
0.0
1001
ACAD
1000
R13OBJECT
1002
{
1005
66
1002
}
  0
ARC
  5
21
100
AcDbEntity
  8
2D_PROFILE
100
AcDbCircle
 10
-5.099979
 20
13.388019
 30
0.0
 40
1.0
100
AcDbArc
 50
269.0
 51
0.0
1001
ACAD
1000
R13OBJECT
1002
{
1005
66
1002
}
  0
LINE
  5
22
100
AcDbEntity
  8
2D_PROFILE
100
AcDbLine
 10
-8.858173
 20
12.453466
 30
0.0
 11
-5.117431
 21
12.388172
 31
0.0
1001
ACAD
1000
R13OBJECT
1002
{
1005
66
1002
}
  0
ARC
  5
23
100
AcDbEntity
  8
2D_PROFILE
100
AcDbCircle
 10
-8.870389
 20
11.753573
 30
0.0
 40
0.7
100
AcDbArc
 50
89.0
 51
226.619701
1001
ACAD
1000
R13OBJECT
1002
{
1005
66
1002
}
  0
LINE
  5
24
100
AcDbEntity
  8
2D_PROFILE
100
AcDbLine
 10
-3.656333
 20
5.863168
 30
0.0
 11
-9.351176
 21
11.244805
 31
0.0
1001
ACAD
1000
R13OBJECT
1002
{
1005
66
1002
}
  0
ARC
  5
25
100
AcDbEntity
  8
2D_PROFILE
100
AcDbCircle
 10
-0.908982
 20
8.770412
 30
0.0
 40
4.0
100
AcDbArc
 50
226.619701
 51
270.0
1001
ACAD
1000
R13OBJECT
1002
{
1005
66
1002
}
  0
LINE
  5
26
100
AcDbEntity
  8
2D_PROFILE
100
AcDbLine
 10
2.500021
 20
4.770412
 30
0.0
 11
-0.908982
 21
4.770412
 31
0.0
1001
ACAD
1000
R13OBJECT
1002
{
1005
66
1002
}
  0
ARC
  5
27
100
AcDbEntity
  8
2D_PROFILE
100
AcDbCircle
 10
2.500021
 20
8.770412
 30
0.0
 40
4.0
100
AcDbArc
 50
270.0
 51
306.524238
1001
ACAD
1000
R13OBJECT
1002
{
1005
66
1002
}
  0
ARC
  5
28
100
AcDbEntity
  8
2D_PROFILE
100
AcDbCircle
 10
-10.816582
 20
25.01354
 30
0.0
 40
25.0
100
AcDbArc
 50
308.894635
 51
325.961664
1001
ACAD
1000
R13OBJECT
1002
{
1005
66
1002
}
  0
ARC
  5
29
100
AcDbEntity
  8
2D_PROFILE
100
AcDbCircle
 10
9.000021
 20
11.455789
 30
0.0
 40
1.0
100
AcDbArc
 50
334.155096
 51
91.0
1001
ACAD
1000
R13OBJECT
1002
{
1005
66
1002
}
  0
LINE
  5
2A
100
AcDbEntity
  8
2D_PROFILE
100
AcDbLine
 10
5.117474
 20
12.388172
 30
0.0
 11
8.982569
 21
12.455637
 31
0.0
1001
ACAD
1000
R13OBJECT
1002
{
1005
66
1002
}
  0
ARC
  5
2B
100
AcDbEntity
  8
2D_PROFILE
100
AcDbCircle
 10
5.100021
 20
13.388019
 30
0.0
 40
1.0
100
AcDbArc
 50
180.0
 51
271.0
1001
ACAD
1000
R13OBJECT
1002
{
1005
66
1002
}
  0
LINE
  5
2C
100
AcDbEntity
  8
2D_PROFILE
100
AcDbLine
 10
4.100021
 20
13.888095
 30
0.0
 11
4.100021
 21
13.388019
 31
0.0
1001
ACAD
1000
R13OBJECT
1002
{
1005
66
1002
}
  0
ARC
  5
2D
100
AcDbEntity
  8
2D_PROFILE
100
AcDbCircle
 10
5.100021
 20
13.888095
 30
0.0
 40
1.0
100
AcDbArc
 50
91.0
 51
180.0
1001
ACAD
1000
R13OBJECT
1002
{
1005
66
1002
}
  0
LINE
  5
2E
100
AcDbEntity
  8
2D_PROFILE
100
AcDbLine
 10
12.250021
 20
14.99996
 30
0.0
 11
5.082569
 21
14.887943
 31
0.0
1001
ACAD
1000
R13OBJECT
1002
{
1005
66
1002
}
  0
ARC
  5
2F
100
AcDbEntity
  8
2D_PROFILE
100
AcDbCircle
 10
12.250021
 20
12.24996
 30
0.0
 40
2.75
100
AcDbArc
 50
0.0
 51
90.0
1001
ACAD
1000
R13OBJECT
1002
{
1005
66
1002
}
  0
LINE
  5
30
100
AcDbEntity
  8
2D_PROFILE
100
AcDbLine
 10
14.888004
 20
5.082508
 30
0.0
 11
15.000021
 21
12.24996
 31
0.0
1001
ACAD
1000
R13OBJECT
1002
{
1005
66
1002
}
  0
ARC
  5
31
100
AcDbEntity
  8
2D_PROFILE
100
AcDbCircle
 10
13.888156
 20
5.09996
 30
0.0
 40
1.0
100
AcDbArc
 50
270.0
 51
359.0
1001
ACAD
1000
R13OBJECT
1002
{
1005
66
1002
}
  0
LINE
  5
32
100
AcDbEntity
  8
2D_PROFILE
100
AcDbLine
 10
13.38808
 20
4.09996
 30
0.0
 11
13.888156
 21
4.09996
 31
0.0
1001
ACAD
1000
R13OBJECT
1002
{
1005
66
1002
}
  0
ARC
  5
33
100
AcDbEntity
  8
2D_PROFILE
100
AcDbCircle
 10
13.38808
 20
5.09996
 30
0.0
 40
1.0
100
AcDbArc
 50
179.0
 51
270.0
1001
ACAD
1000
R13OBJECT
1002
{
1005
66
1002
}
  0
LINE
  5
34
100
AcDbEntity
  8
2D_PROFILE
100
AcDbLine
 10
12.453527
 20
8.858154
 30
0.0
 11
12.388233
 21
5.117413
 31
0.0
1001
ACAD
1000
R13OBJECT
1002
{
1005
66
1002
}
  0
ARC
  5
35
100
AcDbEntity
  8
2D_PROFILE
100
AcDbCircle
 10
11.753634
 20
8.870371
 30
0.0
 40
0.7
100
AcDbArc
 50
359.0
 51
136.619701
1001
ACAD
1000
R13OBJECT
1002
{
1005
66
1002
}
  0
LINE
  5
36
100
AcDbEntity
  8
2D_PROFILE
100
AcDbLine
 10
5.863229
 20
3.656314
 30
0.0
 11
11.244866
 21
9.351157
 31
0.0
1001
ACAD
1000
R13OBJECT
1002
{
1005
66
1002
}
  0
ARC
  5
37
100
AcDbEntity
  8
2D_PROFILE
100
AcDbCircle
 10
8.770473
 20
0.908963
 30
0.0
 40
4.0
100
AcDbArc
 50
136.619701
 51
180.0
1001
ACAD
1000
R13OBJECT
1002
{
1005
66
1002
}
  0
LINE
  5
38
100
AcDbEntity
  8
2D_PROFILE
100
AcDbLine
 10
4.770473
 20
-2.50004
 30
0.0
 11
4.770473
 21
0.908963
 31
0.0
1001
ACAD
1000
R13OBJECT
1002
{
1005
66
1002
}
  0
ARC
  5
39
100
AcDbEntity
  8
2D_PROFILE
100
AcDbCircle
 10
8.770473
 20
-2.50004
 30
0.0
 40
4.0
100
AcDbArc
 50
180.0
 51
216.524238
1001
ACAD
1000
R13OBJECT
1002
{
1005
66
1002
}
  0
ARC
  5
3A
100
AcDbEntity
  8
2D_PROFILE
100
AcDbCircle
 10
25.013601
 20
10.816564
 30
0.0
 40
25.0
100
AcDbArc
 50
218.894635
 51
235.961664
1001
ACAD
1000
R13OBJECT
1002
{
1005
66
1002
}
  0
ARC
  5
3B
100
AcDbEntity
  8
2D_PROFILE
100
AcDbCircle
 10
11.45585
 20
-9.00004
 30
0.0
 40
1.0
100
AcDbArc
 50
244.155096
 51
1.0
1001
ACAD
1000
R13OBJECT
1002
{
1005
66
1002
}
  0
LINE
  5
3C
100
AcDbEntity
  8
2D_PROFILE
100
AcDbLine
 10
12.388233
 20
-5.117492
 30
0.0
 11
12.455698
 21
-8.982587
 31
0.0
1001
ACAD
1000
R13OBJECT
1002
{
1005
66
1002
}
  0
ARC
  5
3D
100
AcDbEntity
  8
2D_PROFILE
100
AcDbCircle
 10
13.38808
 20
-5.10004
 30
0.0
 40
1.0
100
AcDbArc
 50
90.0
 51
181.0
1001
ACAD
1000
R13OBJECT
1002
{
1005
66
1002
}
  0
LINE
  5
3E
100
AcDbEntity
  8
2D_PROFILE
100
AcDbLine
 10
13.888156
 20
-4.10004
 30
0.0
 11
13.38808
 21
-4.10004
 31
0.0
1001
ACAD
1000
R13OBJECT
1002
{
1005
66
1002
}
  0
ARC
  5
3F
100
AcDbEntity
  8
2D_PROFILE
100
AcDbCircle
 10
13.888156
 20
-5.10004
 30
0.0
 40
1.0
100
AcDbArc
 50
1.0
 51
90.0
1001
ACAD
1000
R13OBJECT
1002
{
1005
66
1002
}
  0
LINE
  5
40
100
AcDbEntity
  8
2D_PROFILE
100
AcDbLine
 10
15.000021
 20
-12.25004
 30
0.0
 11
14.888004
 21
-5.082587
 31
0.0
1001
ACAD
1000
R13OBJECT
1002
{
1005
66
1002
}
  0
ARC
  5
41
100
AcDbEntity
  8
2D_PROFILE
100
AcDbCircle
 10
12.250021
 20
-12.25004
 30
0.0
 40
2.75
100
AcDbArc
 50
270.0
 51
360.0
1001
ACAD
1000
R13OBJECT
1002
{
1005
66
1002
}
  0
LINE
  5
42
100
AcDbEntity
  8
2D_PROFILE
100
AcDbLine
 10
5.082569
 20
-14.888023
 30
0.0
 11
12.250021
 21
-15.00004
 31
0.0
1001
ACAD
1000
R13OBJECT
1002
{
1005
66
1002
}
  0
ARC
  5
43
100
AcDbEntity
  8
2D_PROFILE
100
AcDbCircle
 10
5.100021
 20
-13.888175
 30
0.0
 40
1.0
100
AcDbArc
 50
180.0
 51
269.0
1001
ACAD
1000
R13OBJECT
1002
{
1005
66
1002
}
  0
LINE
  5
44
100
AcDbEntity
  8
2D_PROFILE
100
AcDbLine
 10
4.100021
 20
-13.388099
 30
0.0
 11
4.100021
 21
-13.888175
 31
0.0
1001
ACAD
1000
R13OBJECT
1002
{
1005
66
1002
}
  0
ARC
  5
45
100
AcDbEntity
  8
2D_PROFILE
100
AcDbCircle
 10
5.100021
 20
-13.388099
 30
0.0
 40
1.0
100
AcDbArc
 50
89.0
 51
180.0
1001
ACAD
1000
R13OBJECT
1002
{
1005
66
1002
}
  0
LINE
  5
46
100
AcDbEntity
  8
2D_PROFILE
100
AcDbLine
 10
8.858215
 20
-12.453546
 30
0.0
 11
5.117474
 21
-12.388251
 31
0.0
1001
ACAD
1000
R13OBJECT
1002
{
1005
66
1002
}
  0
ARC
  5
47
100
AcDbEntity
  8
2D_PROFILE
100
AcDbCircle
 10
8.870431
 20
-11.753653
 30
0.0
 40
0.7
100
AcDbArc
 50
269.0
 51
46.619701
1001
ACAD
1000
R13OBJECT
1002
{
1005
66
1002
}
  0
LINE
  5
48
100
AcDbEntity
  8
2D_PROFILE
100
AcDbLine
 10
3.656375
 20
-5.863248
 30
0.0
 11
9.351218
 21
-11.244885
 31
0.0
1001
ACAD
1000
R13OBJECT
1002
{
1005
66
1002
}
  0
ARC
  5
49
100
AcDbEntity
  8
2D_PROFILE
100
AcDbCircle
 10
0.909024
 20
-8.770491
 30
0.0
 40
4.0
100
AcDbArc
 50
46.619701
 51
90.0
1001
ACAD
1000
R13OBJECT
1002
{
1005
66
1002
}
  0
LINE
  5
4A
100
AcDbEntity
  8
2D_PROFILE
100
AcDbLine
 10
-2.499979
 20
-4.770491
 30
0.0
 11
0.909024
 21
-4.770491
 31
0.0
1001
ACAD
1000
R13OBJECT
1002
{
1005
66
1002
}
  0
ARC
  5
4B
100
AcDbEntity
  8
2D_PROFILE
100
AcDbCircle
 10
-2.499979
 20
-8.770491
 30
0.0
 40
4.0
100
AcDbArc
 50
90.0
 51
126.524238
1001
ACAD
1000
R13OBJECT
1002
{
1005
66
1002
}
  0
ARC
  5
4C
100
AcDbEntity
  8
2D_PROFILE
100
AcDbCircle
 10
10.816625
 20
-25.013619
 30
0.0
 40
25.0
100
AcDbArc
 50
128.894635
 51
145.961664
1001
ACAD
1000
R13OBJECT
1002
{
1005
66
1002
}
  0
ARC
  5
4D
100
AcDbEntity
  8
2D_PROFILE
100
AcDbCircle
 10
-8.999979
 20
-11.455869
 30
0.0
 40
1.0
100
AcDbArc
 50
154.155096
 51
271.0
1001
ACAD
1000
R13OBJECT
1002
{
1005
66
1002
}
  0
LINE
  5
4E
100
AcDbEntity
  8
2D_PROFILE
100
AcDbLine
 10
-5.117431
 20
-12.388251
 30
0.0
 11
-8.982526
 21
-12.455717
 31
0.0
1001
ACAD
1000
R13OBJECT
1002
{
1005
66
1002
}
  0
ARC
  5
4F
100
AcDbEntity
  8
2D_PROFILE
100
AcDbCircle
 10
-5.099979
 20
-13.388099
 30
0.0
 40
1.0
100
AcDbArc
 50
0.0
 51
91.0
1001
ACAD
1000
R13OBJECT
1002
{
1005
66
1002
}
  0
LINE
  5
50
100
AcDbEntity
  8
2D_PROFILE
100
AcDbLine
 10
-4.099979
 20
-13.888175
 30
0.0
 11
-4.099979
 21
-13.388099
 31
0.0
1001
ACAD
1000
R13OBJECT
1002
{
1005
66
1002
}
  0
ARC
  5
51
100
AcDbEntity
  8
2D_PROFILE
100
AcDbCircle
 10
-5.099979
 20
-13.888175
 30
0.0
 40
1.0
100
AcDbArc
 50
271.0
 51
0.0
1001
ACAD
1000
R13OBJECT
1002
{
1005
66
1002
}
  0
LINE
  5
52
100
AcDbEntity
  8
2D_PROFILE
100
AcDbLine
 10
-12.249979
 20
-15.00004
 30
0.0
 11
-5.082526
 21
-14.888023
 31
0.0
1001
ACAD
1000
R13OBJECT
1002
{
1005
66
1002
}
  0
ARC
  5
53
100
AcDbEntity
  8
2D_PROFILE
100
AcDbCircle
 10
-12.249979
 20
-12.25004
 30
0.0
 40
2.75
100
AcDbArc
 50
180.0
 51
270.0
1001
ACAD
1000
R13OBJECT
1002
{
1005
66
1002
}
  0
LINE
  5
54
100
AcDbEntity
  8
2D_PROFILE
100
AcDbLine
 10
-14.887962
 20
-5.082587
 30
0.0
 11
-14.999979
 21
-12.25004
 31
0.0
1001
ACAD
1000
R13OBJECT
1002
{
1005
66
1002
}
  0
ARC
  5
55
100
AcDbEntity
  8
2D_PROFILE
100
AcDbCircle
 10
-13.888114
 20
-5.10004
 30
0.0
 40
1.0
100
AcDbArc
 50
90.0
 51
179.0
1001
ACAD
1000
R13OBJECT
1002
{
1005
66
1002
}
  0
LINE
  5
56
100
AcDbEntity
  8
2D_PROFILE
100
AcDbLine
 10
-13.388038
 20
-4.10004
 30
0.0
 11
-13.888114
 21
-4.10004
 31
0.0
1001
ACAD
1000
R13OBJECT
1002
{
1005
66
1002
}
  0
ARC
  5
57
100
AcDbEntity
  8
2D_PROFILE
100
AcDbCircle
 10
-13.388038
 20
-5.10004
 30
0.0
 40
1.0
100
AcDbArc
 50
359.0
 51
90.0
1001
ACAD
1000
R13OBJECT
1002
{
1005
66
1002
}
  0
LINE
  5
58
100
AcDbEntity
  8
2D_PROFILE
100
AcDbLine
 10
-12.453485
 20
-8.858233
 30
0.0
 11
-12.38819
 21
-5.117492
 31
0.0
1001
ACAD
1000
R13OBJECT
1002
{
1005
66
1002
}
  0
ARC
  5
59
100
AcDbEntity
  8
2D_PROFILE
100
AcDbCircle
 10
-11.753592
 20
-8.87045
 30
0.0
 40
0.7
100
AcDbArc
 50
179.0
 51
316.619701
1001
ACAD
1000
R13OBJECT
1002
{
1005
66
1002
}
  0
LINE
  5
5A
100
AcDbEntity
  8
2D_PROFILE
100
AcDbLine
 10
-5.863187
 20
-3.656394
 30
0.0
 11
-11.244824
 21
-9.351236
 31
0.0
1001
ACAD
1000
R13OBJECT
1002
{
1005
66
1002
}
  0
ARC
  5
5B
100
AcDbEntity
  8
2D_PROFILE
100
AcDbCircle
 10
-8.770431
 20
-0.909043
 30
0.0
 40
4.0
100
AcDbArc
 50
316.619701
 51
360.0
1001
ACAD
1000
R13OBJECT
1002
{
1005
66
1002
}
  0
LINE
  5
5C
100
AcDbEntity
  8
2D_PROFILE
100
AcDbLine
 10
-4.770431
 20
2.49996
 30
0.0
 11
-4.770431
 21
-0.909043
 31
0.0
1001
ACAD
1000
R13OBJECT
1002
{
1005
66
1002
}
  0
ARC
  5
5D
100
AcDbEntity
  8
2D_PROFILE
100
AcDbCircle
 10
-8.770431
 20
2.49996
 30
0.0
 40
4.0
100
AcDbArc
 50
360.0
 51
36.524238
1001
ACAD
1000
R13OBJECT
1002
{
1005
66
1002
}
  0
ARC
  5
5E
100
AcDbEntity
  8
2D_PROFILE
100
AcDbCircle
 10
-25.013558
 20
-10.816643
 30
0.0
 40
25.0
100
AcDbArc
 50
38.894635
 51
55.961664
1001
ACAD
1000
R13OBJECT
1002
{
1005
66
1002
}
  0
ARC
  5
5F
100
AcDbEntity
  8
2D_PROFILE
100
AcDbCircle
 10
-11.455808
 20
8.99996
 30
0.0
 40
1.0
100
AcDbArc
 50
64.155096
 51
181.0
1001
ACAD
1000
R13OBJECT
1002
{
1005
66
1002
}
  0
LINE
  5
60
100
AcDbEntity
  8
2D_PROFILE
100
AcDbLine
 10
-12.38819
 20
5.117413
 30
0.0
 11
-12.455656
 21
8.982508
 31
0.0
1001
ACAD
1000
R13OBJECT
1002
{
1005
66
1002
}
  0
ARC
  5
61
100
AcDbEntity
  8
2D_PROFILE
100
AcDbCircle
 10
-13.388038
 20
5.09996
 30
0.0
 40
1.0
100
AcDbArc
 50
270.0
 51
1.0
1001
ACAD
1000
R13OBJECT
1002
{
1005
66
1002
}
  0
LINE
  5
62
100
AcDbEntity
  8
2D_PROFILE
100
AcDbLine
 10
-13.888114
 20
4.09996
 30
0.0
 11
-13.388038
 21
4.09996
 31
0.0
1001
ACAD
1000
R13OBJECT
1002
{
1005
66
1002
}
  0
ARC
  5
63
100
AcDbEntity
  8
2D_PROFILE
100
AcDbCircle
 10
-13.888114
 20
5.09996
 30
0.0
 40
1.0
100
AcDbArc
 50
181.0
 51
270.0
1001
ACAD
1000
R13OBJECT
1002
{
1005
66
1002
}
  0
LINE
  5
64
100
AcDbEntity
  8
2D_PROFILE
100
AcDbLine
 10
-14.999979
 20
12.24996
 30
0.0
 11
-14.887962
 21
5.082508
 31
0.0
1001
ACAD
1000
R13OBJECT
1002
{
1005
66
1002
}
  0
ARC
  5
65
100
AcDbEntity
  8
2D_PROFILE
100
AcDbCircle
 10
-12.249979
 20
12.24996
 30
0.0
 40
2.75
100
AcDbArc
 50
90.0
 51
180.0
1001
ACAD
1000
R13OBJECT
1002
{
1005
66
1002
}
  0
CIRCLE
  5
66
100
AcDbEntity
  8
2D_PROFILE
100
AcDbCircle
 10
-0.000021
 20
-0.00004
 30
0.0
 40
3.4
210
0.0
220
0.0
230
-1.0
  0
ENDSEC
  0
SECTION
  2
OBJECTS
  0
DICTIONARY
  5
1A
100
AcDbDictionary
  3
ACAD_GROUP
350
18
  3
ACAD_MLINESTYLE
350
19
  0
DICTIONARY
  5
18
102
{ACAD_REACTORS
330
1A
102
}
100
AcDbDictionary
  0
DICTIONARY
  5
19
102
{ACAD_REACTORS
330
1A
102
}
100
AcDbDictionary
  3
STANDARD
350
1C
  0
MLINESTYLE
  5
1C
102
{ACAD_REACTORS
330
19
102
}
100
AcDbMlineStyle
  2
STANDARD
 70
     0
  3

 62
   256
 51
90.0
 52
90.0
 71
     2
 49
0.5
 62
   256
  6
BYLAYER
 49
-0.5
 62
   256
  6
BYLAYER
  0
ENDSEC
  0
EOF
