  0
SECTION
  2
HEADER
  9
$ACADVER
  1
AC1014
  9
$ACADMAINTVER
 70
     9
  9
$DWGCODEPAGE
  3
ANSI_1252
  9
$INSBASE
 10
0.0
 20
0.0
 30
0.0
  9
$EXTMIN
 10
-51.946064
 20
-73.32774
 30
0.0
  9
$EXTMAX
 10
31.18222
 20
30.188293
 30
274.987694
  9
$LIMMIN
 10
0.0
 20
0.0
  9
$LIMMAX
 10
210.0
 20
297.0
  9
$ORTHOMODE
 70
     1
  9
$REGENMODE
 70
     1
  9
$FILLMODE
 70
     1
  9
$QTEXTMODE
 70
     0
  9
$MIRRTEXT
 70
     1
  9
$DRAGMODE
 70
     2
  9
$LTSCALE
 40
5.0
  9
$OSMODE
 70
     0
  9
$ATTMODE
 70
     1
  9
$TEXTSIZE
 40
2.5
  9
$TRACEWID
 40
1.0
  9
$TEXTSTYLE
  7
STANDARD
  9
$CLAYER
  8
2D_PROFILE
  9
$CELTYPE
  6
BYLAYER
  9
$CECOLOR
 62
   256
  9
$CELTSCALE
 40
1.0
  9
$DELOBJ
 70
     1
  9
$DISPSILH
 70
     0
  9
$DIMSCALE
 40
1.0
  9
$DIMASZ
 40
3.0
  9
$DIMEXO
 40
1.0
  9
$DIMDLI
 40
0.0
  9
$DIMRND
 40
0.0
  9
$DIMDLE
 40
0.0
  9
$DIMEXE
 40
1.0
  9
$DIMTP
 40
0.2
  9
$DIMTM
 40
0.2
  9
$DIMTXT
 40
3.0
  9
$DIMCEN
 40
0.0
  9
$DIMTSZ
 40
0.0
  9
$DIMTOL
 70
     0
  9
$DIMLIM
 70
     0
  9
$DIMTIH
 70
     0
  9
$DIMTOH
 70
     0
  9
$DIMSE1
 70
     0
  9
$DIMSE2
 70
     0
  9
$DIMTAD
 70
     1
  9
$DIMZIN
 70
     8
  9
$DIMBLK
  1

  9
$DIMASO
 70
     1
  9
$DIMSHO
 70
     1
  9
$DIMPOST
  1

  9
$DIMAPOST
  1

  9
$DIMALT
 70
     0
  9
$DIMALTD
 70
     2
  9
$DIMALTF
 40
25.4
  9
$DIMLFAC
 40
1.0
  9
$DIMTOFL
 70
     1
  9
$DIMTVP
 40
0.0
  9
$DIMTIX
 70
     0
  9
$DIMSOXD
 70
     0
  9
$DIMSAH
 70
     0
  9
$DIMBLK1
  1

  9
$DIMBLK2
  1

  9
$DIMSTYLE
  2
PALETTI
  9
$DIMCLRD
 70
   256
  9
$DIMCLRE
 70
   256
  9
$DIMCLRT
 70
   256
  9
$DIMTFAC
 40
0.5
  9
$DIMGAP
 40
0.7
  9
$DIMJUST
 70
     0
  9
$DIMSD1
 70
     0
  9
$DIMSD2
 70
     0
  9
$DIMTOLJ
 70
     1
  9
$DIMTZIN
 70
     8
  9
$DIMALTZ
 70
     8
  9
$DIMALTTZ
 70
     8
  9
$DIMFIT
 70
     5
  9
$DIMUPT
 70
     0
  9
$DIMUNIT
 70
     2
  9
$DIMDEC
 70
     4
  9
$DIMTDEC
 70
     4
  9
$DIMALTU
 70
     2
  9
$DIMALTTD
 70
     2
  9
$DIMTXSTY
  7
STANDARD
  9
$DIMAUNIT
 70
     0
  9
$LUNITS
 70
     2
  9
$LUPREC
 70
     4
  9
$SKETCHINC
 40
1.0
  9
$FILLETRAD
 40
0.0
  9
$AUNITS
 70
     0
  9
$AUPREC
 70
     0
  9
$MENU
  1
acad
  9
$ELEVATION
 40
0.0
  9
$PELEVATION
 40
0.0
  9
$THICKNESS
 40
0.0
  9
$LIMCHECK
 70
     0
  9
$BLIPMODE
 70
     0
  9
$CHAMFERA
 40
10.0
  9
$CHAMFERB
 40
10.0
  9
$CHAMFERC
 40
0.0
  9
$CHAMFERD
 40
0.0
  9
$SKPOLY
 70
     0
  9
$TDCREATE
 40
2451229.669210671
  9
$TDUPDATE
 40
2451229.669210671
  9
$TDINDWG
 40
0.0000000000
  9
$TDUSRTIMER
 40
0.0000000000
  9
$USRTIMER
 70
     1
  9
$ANGBASE
 50
0.0
  9
$ANGDIR
 70
     0
  9
$PDMODE
 70
     0
  9
$PDSIZE
 40
0.0
  9
$PLINEWID
 40
0.0
  9
$COORDS
 70
     1
  9
$SPLFRAME
 70
     0
  9
$SPLINETYPE
 70
     6
  9
$SPLINESEGS
 70
     8
  9
$ATTDIA
 70
     1
  9
$ATTREQ
 70
     1
  9
$HANDLING
 70
     1
  9
$HANDSEED
  5
2C0
  9
$SURFTAB1
 70
     6
  9
$SURFTAB2
 70
     6
  9
$SURFTYPE
 70
     6
  9
$SURFU
 70
     6
  9
$SURFV
 70
     6
  9
$UCSNAME
  2

  9
$UCSORG
 10
0.0
 20
0.0
 30
0.0
  9
$UCSXDIR
 10
1.0
 20
0.0
 30
0.0
  9
$UCSYDIR
 10
0.0
 20
1.0
 30
0.0
  9
$PUCSNAME
  2

  9
$PUCSORG
 10
0.0
 20
0.0
 30
0.0
  9
$PUCSXDIR
 10
1.0
 20
0.0
 30
0.0
  9
$PUCSYDIR
 10
0.0
 20
1.0
 30
0.0
  9
$USERI1
 70
     0
  9
$USERI2
 70
     0
  9
$USERI3
 70
     0
  9
$USERI4
 70
     0
  9
$USERI5
 70
     0
  9
$USERR1
 40
1.0
  9
$USERR2
 40
0.0
  9
$USERR3
 40
0.0
  9
$USERR4
 40
0.0
  9
$USERR5
 40
0.0
  9
$WORLDVIEW
 70
     1
  9
$SHADEDGE
 70
     3
  9
$SHADEDIF
 70
    70
  9
$TILEMODE
 70
     1
  9
$MAXACTVP
 70
    16
  9
$PINSBASE
 10
0.0
 20
0.0
 30
0.0
  9
$PLIMCHECK
 70
     0
  9
$PEXTMIN
 10
1.000000E+20
 20
1.000000E+20
 30
1.000000E+20
  9
$PEXTMAX
 10
-1.000000E+20
 20
-1.000000E+20
 30
-1.000000E+20
  9
$PLIMMIN
 10
0.0
 20
0.0
  9
$PLIMMAX
 10
420.0
 20
297.0
  9
$UNITMODE
 70
     0
  9
$VISRETAIN
 70
     0
  9
$PLINEGEN
 70
     0
  9
$PSLTSCALE
 70
     1
  9
$TREEDEPTH
 70
  3020
  9
$PICKSTYLE
 70
     1
  9
$CMLSTYLE
  2
STANDARD
  9
$CMLJUST
 70
     0
  9
$CMLSCALE
 40
1.0
  9
$PROXYGRAPHICS
 70
     1
  9
$MEASUREMENT
 70
     0
  0
ENDSEC
  0
SECTION
  2
CLASSES
  0
CLASS
  1
DICTIONARYVAR
  2
AcDbDictionaryVar
  3
"AutoCAD"
 90
        0
280
     0
281
     0
  0
ENDSEC
  0
SECTION
  2
TABLES
  0
TABLE
  2
VPORT
  5
12
100
AcDbSymbolTable
 70
     2
  0
VPORT
  5
2BF
100
AcDbSymbolTableRecord
100
AcDbViewportTableRecord
  2
*ACTIVE
 70
     0
 10
0.0
 20
0.0
 11
1.0
 21
1.0
 12
60.123799
 22
7.536329
 13
0.0
 23
0.0
 14
5.0
 24
5.0
 15
5.0
 25
5.0
 16
0.0
 26
0.0
 36
1.0
 17
0.0
 27
0.0
 37
0.0
 40
154.51472
 41
1.700368
 42
50.0
 43
0.0
 44
0.0
 50
0.0
 51
0.0
 71
     0
 72
 20000
 73
     1
 74
     3
 75
     0
 76
     0
 77
     0
 78
     0
  0
ENDTAB
  0
TABLE
  2
LTYPE
  5
D
100
AcDbSymbolTable
 70
     1
  0
LTYPE
  5
E
100
AcDbSymbolTableRecord
100
AcDbLinetypeTableRecord
  2
BYBLOCK
 70
     0
  3

 72
    65
 73
     0
 40
0.0
  0
LTYPE
  5
F
100
AcDbSymbolTableRecord
100
AcDbLinetypeTableRecord
  2
BYLAYER
 70
     0
  3

 72
    65
 73
     0
 40
0.0
  0
LTYPE
  5
5
100
AcDbSymbolTableRecord
100
AcDbLinetypeTableRecord
  2
CONTINUOUS
 70
     0
  3
Solid line
 72
    65
 73
     0
 40
0.0
  0
ENDTAB
  0
TABLE
  2
LAYER
  5
A
100
AcDbSymbolTable
 70
     3
  0
LAYER
  5
4
100
AcDbSymbolTableRecord
100
AcDbLayerTableRecord
  2
0
 70
     1
 62
     5
  6
CONTINUOUS
  0
LAYER
  5
1B
100
AcDbSymbolTableRecord
100
AcDbLayerTableRecord
  2
2D_PROFILE
 70
     0
 62
     5
  6
CONTINUOUS
  0
LAYER
  5
2A3
100
AcDbSymbolTableRecord
100
AcDbLayerTableRecord
  2
ASHADE
 70
     5
 62
     7
  6
CONTINUOUS
  0
ENDTAB
  0
TABLE
  2
STYLE
  5
B
100
AcDbSymbolTable
 70
     2
  0
STYLE
  5
C
100
AcDbSymbolTableRecord
100
AcDbTextStyleTableRecord
  2
STANDARD
 70
     0
 40
0.0
 41
1.0
 50
0.0
 71
     0
 42
2.5
  3
ISOCP
  4

  0
STYLE
  5
2A4
100
AcDbSymbolTableRecord
100
AcDbTextStyleTableRecord
  2
ASHADE
 70
     0
 40
0.2
 41
1.0
 50
0.0
 71
     0
 42
2.5
  3
simplex
  4

  0
ENDTAB
  0
TABLE
  2
VIEW
  5
10
100
AcDbSymbolTable
 70
     0
  0
ENDTAB
  0
TABLE
  2
UCS
  5
11
100
AcDbSymbolTable
 70
     0
  0
ENDTAB
  0
TABLE
  2
APPID
  5
14
100
AcDbSymbolTable
 70
     2
  0
APPID
  5
15
100
AcDbSymbolTableRecord
100
AcDbRegAppTableRecord
  2
ACAD
 70
     0
  0
APPID
  5
2BE
100
AcDbSymbolTableRecord
100
AcDbRegAppTableRecord
  2
AVE_MATERIAL
 70
     0
  0
ENDTAB
  0
TABLE
  2
DIMSTYLE
  5
16
100
AcDbSymbolTable
 70
     1
  0
DIMSTYLE
105
1D
100
AcDbSymbolTableRecord
100
AcDbDimStyleTableRecord
  2
PALETTI
 70
     0
  3

  4

  5

  6

  7

 40
1.0
 41
3.0
 42
1.0
 43
0.0
 44
1.0
 45
0.0
 46
0.0
 47
0.2
 48
0.2
140
3.0
141
0.0
142
0.0
143
25.4
144
1.0
145
0.0
146
0.5
147
0.7
 71
     0
 72
     0
 73
     0
 74
     0
 75
     0
 76
     0
 77
     1
 78
     8
170
     0
171
     2
172
     1
173
     0
174
     0
175
     0
176
   256
177
   256
178
   256
270
     2
271
     4
272
     4
273
     2
274
     2
340
C
275
     0
280
     0
281
     0
282
     0
283
     1
284
     8
285
     8
286
     8
287
     5
288
     0
  0
ENDTAB
  0
TABLE
  2
BLOCK_RECORD
  5
1
100
AcDbSymbolTable
 70
     1
  0
BLOCK_RECORD
  5
2
100
AcDbSymbolTableRecord
100
AcDbBlockTableRecord
  2
*MODEL_SPACE
  0
BLOCK_RECORD
  5
7
100
AcDbSymbolTableRecord
100
AcDbBlockTableRecord
  2
*PAPER_SPACE
  0
BLOCK_RECORD
  5
2A1
100
AcDbSymbolTableRecord
100
AcDbBlockTableRecord
  2
RM_SDB
  0
ENDTAB
  0
ENDSEC
  0
SECTION
  2
BLOCKS
  0
BLOCK
  5
3
100
AcDbEntity
  8
0
100
AcDbBlockBegin
  2
*MODEL_SPACE
 70
     0
 10
0.0
 20
0.0
 30
0.0
  3
*MODEL_SPACE
  1

  0
ENDBLK
  5
6
100
AcDbEntity
  8
0
100
AcDbBlockEnd
  0
BLOCK
  5
8
100
AcDbEntity
 67
     1
  8
0
100
AcDbBlockBegin
  2
*PAPER_SPACE
 70
     0
 10
0.0
 20
0.0
 30
0.0
  3
*PAPER_SPACE
  1

  0
ENDBLK
  5
9
100
AcDbEntity
 67
     1
  8
0
100
AcDbBlockEnd
  0
BLOCK
  5
2BB
100
AcDbEntity
  8
0
100
AcDbBlockBegin
  2
RM_SDB
 70
     2
 10
0.0
 20
0.0
 30
0.0
  3
RM_SDB
  1
RM_SDB
  0
ATTDEF
  5
2A2
100
AcDbEntity
  8
ASHADE
  6
CONTINUOUS
 62
     1
100
AcDbText
 10
0.0
 20
-0.15
 30
0.0
 40
0.2
  1

  7
ASHADE
 72
     1
 11
0.0
 21
-0.15
 31
0.0
100
AcDbAttributeDefinition
  3
Name
  2
NAME
 70
     1
  0
ATTDEF
  5
2A5
100
AcDbEntity
  8
ASHADE
  6
CONTINUOUS
 62
     1
100
AcDbText
 10
0.23
 20
-0.475
 30
0.0
 40
0.1
  1
-1
  7
ASHADE
100
AcDbAttributeDefinition
  3
ACAD Color Index
  2
ACADCOLOR
 70
     1
  0
ATTDEF
  5
2A6
100
AcDbEntity
  8
ASHADE
  6
CONTINUOUS
 62
     7
100
AcDbText
 10
-0.15
 20
-0.19
 30
0.0
 40
0.01
  1
-1,-1,-1
100
AcDbAttributeDefinition
  3
RGB Color
  2
COLOR
 70
     1
  0
ATTDEF
  5
2A7
100
AcDbEntity
  8
ASHADE
  6
CONTINUOUS
 62
     7
100
AcDbText
 10
-0.15
 20
-0.205
 30
0.0
 40
0.01
  1
1,1,1
100
AcDbAttributeDefinition
  3
Opacity
  2
OPACITY
 70
     1
  0
ATTDEF
  5
2A8
100
AcDbEntity
  8
ASHADE
  6
CONTINUOUS
 62
     7
100
AcDbText
 10
-0.15
 20
-0.22
 30
0.0
 40
0.01
  1
("nullsurf" "")
100
AcDbAttributeDefinition
  3
Surface Shader
  2
SURFACE
 70
     1
  0
ATTDEF
  5
2A9
100
AcDbEntity
  8
ASHADE
  6
CONTINUOUS
 62
     7
100
AcDbText
 10
-0.15
 20
-0.235
 30
0.0
 40
0.01
  1

100
AcDbAttributeDefinition
  3
Surface Parameters 1
  2
SURF1
 70
     1
  0
ATTDEF
  5
2AA
100
AcDbEntity
  8
ASHADE
  6
CONTINUOUS
 62
     7
100
AcDbText
 10
-0.15
 20
-0.25
 30
0.0
 40
0.01
  1

100
AcDbAttributeDefinition
  3
Surface Parameters 2
  2
SURF2
 70
     1
  0
ATTDEF
  5
2AB
100
AcDbEntity
  8
ASHADE
  6
CONTINUOUS
 62
     7
100
AcDbText
 10
-0.15
 20
-0.265
 30
0.0
 40
0.01
  1

100
AcDbAttributeDefinition
  3
Surface Parameters 3
  2
SURF3
 70
     1
  0
ATTDEF
  5
2AC
100
AcDbEntity
  8
ASHADE
  6
CONTINUOUS
 62
     7
100
AcDbText
 10
-0.15
 20
-0.28
 30
0.0
 40
0.01
  1

100
AcDbAttributeDefinition
  3
Surface Parameters 4
  2
SURF4
 70
     1
  0
ATTDEF
  5
2AD
100
AcDbEntity
  8
ASHADE
  6
CONTINUOUS
 62
     7
100
AcDbText
 10
-0.15
 20
-0.295
 30
0.0
 40
0.01
  1
-1
100
AcDbAttributeDefinition
  3
Shading Rate
  2
SHADINGRATE
 70
     1
  0
ATTDEF
  5
2AE
100
AcDbEntity
  8
ASHADE
  6
CONTINUOUS
 62
     7
100
AcDbText
 10
-0.15
 20
-0.31
 30
0.0
 40
0.01
  1
("nulldisp" "")
100
AcDbAttributeDefinition
  3
Displacement Shader
  2
DISPLACEMENT
 70
     1
  0
ATTDEF
  5
2AF
100
AcDbEntity
  8
ASHADE
  6
CONTINUOUS
 62
     7
100
AcDbText
 10
-0.15
 20
-0.325
 30
0.0
 40
0.01
  1

100
AcDbAttributeDefinition
  3
Displacement Parameters 1
  2
DISP1
 70
     1
  0
ATTDEF
  5
2B0
100
AcDbEntity
  8
ASHADE
  6
CONTINUOUS
 62
     7
100
AcDbText
 10
-0.15
 20
-0.34
 30
0.0
 40
0.01
  1

100
AcDbAttributeDefinition
  3
Displacement Parameters 2
  2
DISP2
 70
     1
  0
ATTDEF
  5
2B1
100
AcDbEntity
  8
ASHADE
  6
CONTINUOUS
 62
     7
100
AcDbText
 10
-0.15
 20
-0.355
 30
0.0
 40
0.01
  1

100
AcDbAttributeDefinition
  3
Displacement Parameters 3
  2
DISP3
 70
     1
  0
ATTDEF
  5
2B2
100
AcDbEntity
  8
ASHADE
  6
CONTINUOUS
 62
     7
100
AcDbText
 10
-0.15
 20
-0.37
 30
0.0
 40
0.01
  1

100
AcDbAttributeDefinition
  3
Displacement Parameters 4
  2
DISP4
 70
     1
  0
ATTDEF
  5
2B3
100
AcDbEntity
  8
ASHADE
  6
CONTINUOUS
 62
     7
100
AcDbText
 10
-0.15
 20
-0.385
 30
0.0
 40
0.01
  1
0.0
100
AcDbAttributeDefinition
  3
Displacement Bounds
  2
DBOUND
 70
     1
  0
ATTDEF
  5
2B4
100
AcDbEntity
  8
ASHADE
  6
CONTINUOUS
 62
     7
100
AcDbText
 10
-0.15
 20
-0.4
 30
0.0
 40
0.01
  1
0
100
AcDbAttributeDefinition
  3
Smooth Surface
  2
SMOOTH
 70
     1
  0
ATTDEF
  5
2B5
100
AcDbEntity
  8
ASHADE
  6
CONTINUOUS
 62
     7
100
AcDbText
 10
-0.15
 20
-0.415
 30
0.0
 40
0.01
  1
("" "")
100
AcDbAttributeDefinition
  3
Atmosphere Shader
  2
ATMOSPHERE
 70
     1
  0
ATTDEF
  5
2B6
100
AcDbEntity
  8
ASHADE
  6
CONTINUOUS
 62
     7
100
AcDbText
 10
-0.15
 20
-0.43024
 30
0.0
 40
0.01
  1

100
AcDbAttributeDefinition
  3
Atmosphere Parameters 1
  2
ATMO1
 70
     1
  0
ATTDEF
  5
2B7
100
AcDbEntity
  8
ASHADE
  6
CONTINUOUS
 62
     7
100
AcDbText
 10
-0.15
 20
-0.44524
 30
0.0
 40
0.01
  1

100
AcDbAttributeDefinition
  3
Atmosphere Parameters 2
  2
ATMO2
 70
     1
  0
ATTDEF
  5
2B8
100
AcDbEntity
  8
ASHADE
  6
CONTINUOUS
 62
     7
100
AcDbText
 10
-0.15
 20
-0.46024
 30
0.0
 40
0.01
  1

100
AcDbAttributeDefinition
  3
Atmosphere Parameters 3
  2
ATMO3
 70
     1
  0
ATTDEF
  5
2B9
100
AcDbEntity
  8
ASHADE
  6
CONTINUOUS
 62
     7
100
AcDbText
 10
-0.15
 20
-0.47524
 30
0.0
 40
0.01
  1

100
AcDbAttributeDefinition
  3
Atmosphere Parameters 4
  2
ATMO4
 70
     1
  0
ATTDEF
  5
2BA
100
AcDbEntity
  8
ASHADE
  6
CONTINUOUS
 62
     7
100
AcDbText
 10
-0.15
 20
-0.49
 30
0.0
 40
0.01
  1
0 0 1 0 0 1 1 1
100
AcDbAttributeDefinition
  3
Texture Map Coordinates
  2
TCOORD
 70
     1
  0
ENDBLK
  5
2BC
100
AcDbEntity
  8
0
100
AcDbBlockEnd
  0
ENDSEC
  0
SECTION
  2
ENTITIES
  0
ARC
  5
1E
100
AcDbEntity
  8
2D_PROFILE
100
AcDbCircle
 10
-2.940752
 20
-10.524652
 30
0.0
 40
2.0
100
AcDbArc
 50
90.0
 51
127.26536
1001
ACAD
1000
R13OBJECT
1002
{
1005
287
1002
}
  0
ARC
  5
1F
100
AcDbEntity
  8
2D_PROFILE
100
AcDbCircle
 10
11.859882
 20
-29.977647
 30
0.0
 40
26.443358
100
AcDbArc
 50
127.26536
 51
144.334995
1001
ACAD
1000
R13OBJECT
1002
{
1005
287
1002
}
  0
ARC
  5
20
100
AcDbEntity
  8
2D_PROFILE
100
AcDbCircle
 10
-7.998875
 20
-15.726067
 30
0.0
 40
2.0
100
AcDbArc
 50
144.334995
 51
180.0
1001
ACAD
1000
R13OBJECT
1002
{
1005
287
1002
}
  0
LINE
  5
21
100
AcDbEntity
  8
2D_PROFILE
100
AcDbLine
 10
-9.998875
 20
-15.726067
 30
0.0
 11
-9.998875
 21
-17.59126
 31
0.0
1001
ACAD
1000
R13OBJECT
1002
{
1005
287
1002
}
  0
ARC
  5
22
100
AcDbEntity
  8
2D_PROFILE
100
AcDbCircle
 10
-8.998875
 20
-17.59126
 30
0.0
 40
1.0
100
AcDbArc
 50
180.0
 51
271.0
1001
ACAD
1000
R13OBJECT
1002
{
1005
287
1002
}
  0
LINE
  5
23
100
AcDbEntity
  8
2D_PROFILE
100
AcDbLine
 10
-8.981423
 20
-18.591107
 30
0.0
 11
-6.835786
 21
-18.553655
 31
0.0
1001
ACAD
1000
R13OBJECT
1002
{
1005
287
1002
}
  0
ARC
  5
24
100
AcDbEntity
  8
2D_PROFILE
100
AcDbCircle
 10
-6.848875
 20
-17.803769
 30
0.0
 40
0.75
100
AcDbArc
 50
271.0
 51
0.0
1001
ACAD
1000
R13OBJECT
1002
{
1005
287
1002
}
  0
LINE
  5
25
100
AcDbEntity
  8
2D_PROFILE
100
AcDbLine
 10
-6.098875
 20
-17.803769
 30
0.0
 11
-6.098875
 21
-17.274652
 31
0.0
1001
ACAD
1000
R13OBJECT
1002
{
1005
287
1002
}
  0
ARC
  5
26
100
AcDbEntity
  8
2D_PROFILE
100
AcDbCircle
 10
-5.348875
 20
-17.274652
 30
0.0
 40
0.75
100
AcDbArc
 50
90.0
 51
180.0
1001
ACAD
1000
R13OBJECT
1002
{
1005
287
1002
}
  0
LINE
  5
27
100
AcDbEntity
  8
2D_PROFILE
100
AcDbLine
 10
-5.348875
 20
-16.524652
 30
0.0
 11
-4.848875
 21
-16.524652
 31
0.0
1001
ACAD
1000
R13OBJECT
1002
{
1005
287
1002
}
  0
ARC
  5
28
100
AcDbEntity
  8
2D_PROFILE
100
AcDbCircle
 10
-4.848875
 20
-17.274652
 30
0.0
 40
0.75
100
AcDbArc
 50
0.0
 51
90.0
1001
ACAD
1000
R13OBJECT
1002
{
1005
287
1002
}
  0
LINE
  5
29
100
AcDbEntity
  8
2D_PROFILE
100
AcDbLine
 10
-4.098875
 20
-17.274652
 30
0.0
 11
-4.098875
 21
-19.823535
 31
0.0
1001
ACAD
1000
R13OBJECT
1002
{
1005
287
1002
}
  0
ARC
  5
2A
100
AcDbEntity
  8
2D_PROFILE
100
AcDbCircle
 10
-5.098875
 20
-19.823535
 30
0.0
 40
1.0
100
AcDbArc
 50
271.0
 51
0.0
1001
ACAD
1000
R13OBJECT
1002
{
1005
287
1002
}
  0
LINE
  5
2B
100
AcDbEntity
  8
2D_PROFILE
100
AcDbLine
 10
-5.081423
 20
-20.823383
 30
0.0
 11
-16.612123
 21
-21.024652
 31
0.0
1001
ACAD
1000
R13OBJECT
1002
{
1005
287
1002
}
  0
LINE
  5
2C
100
AcDbEntity
  8
2D_PROFILE
100
AcDbLine
 10
-16.612123
 20
-21.024652
 30
0.0
 11
-18.183264
 21
-21.024652
 31
0.0
1001
ACAD
1000
R13OBJECT
1002
{
1005
287
1002
}
  0
ARC
  5
2D
100
AcDbEntity
  8
2D_PROFILE
100
AcDbCircle
 10
-18.183264
 20
-17.524652
 30
0.0
 40
3.5
100
AcDbArc
 50
213.262055
 51
270.0
1001
ACAD
1000
R13OBJECT
1002
{
1005
287
1002
}
  0
ARC
  5
2E
100
AcDbEntity
  8
2D_PROFILE
100
AcDbCircle
 10
3.975261
 20
-2.990219
 30
0.0
 40
30.0
100
AcDbArc
 50
177.080636
 51
213.262055
1001
ACAD
1000
R13OBJECT
1002
{
1005
287
1002
}
  0
LINE
  5
2F
100
AcDbEntity
  8
2D_PROFILE
100
AcDbLine
 10
-25.985805
 20
-1.462305
 30
0.0
 11
-25.548152
 21
-1.024652
 31
0.0
1001
ACAD
1000
R13OBJECT
1002
{
1005
287
1002
}
  0
LINE
  5
30
100
AcDbEntity
  8
2D_PROFILE
100
AcDbLine
 10
-25.548152
 20
-1.024652
 30
0.0
 11
-25.995035
 21
-0.57777
 31
0.0
1001
ACAD
1000
R13OBJECT
1002
{
1005
287
1002
}
  0
ARC
  5
31
100
AcDbEntity
  8
2D_PROFILE
100
AcDbCircle
 10
0.001125
 20
-1.024652
 30
0.0
 40
26.0
100
AcDbArc
 50
90.657349
 51
179.015164
1001
ACAD
1000
R13OBJECT
1002
{
1005
287
1002
}
  0
LINE
  5
32
100
AcDbEntity
  8
2D_PROFILE
100
AcDbLine
 10
-0.297164
 20
24.973637
 30
0.0
 11
0.001125
 21
24.675348
 31
0.0
1001
ACAD
1000
R13OBJECT
1002
{
1005
287
1002
}
  0
LINE
  5
33
100
AcDbEntity
  8
2D_PROFILE
100
AcDbLine
 10
0.299414
 20
24.973637
 30
0.0
 11
0.001125
 21
24.675348
 31
0.0
1001
ACAD
1000
R13OBJECT
1002
{
1005
287
1002
}
  0
ARC
  5
34
100
AcDbEntity
  8
2D_PROFILE
100
AcDbCircle
 10
0.001125
 20
-1.024652
 30
0.0
 40
26.0
100
AcDbArc
 50
0.984836
 51
89.342651
1001
ACAD
1000
R13OBJECT
1002
{
1005
287
1002
}
  0
LINE
  5
35
100
AcDbEntity
  8
2D_PROFILE
100
AcDbLine
 10
25.550402
 20
-1.024652
 30
0.0
 11
25.997284
 21
-0.57777
 31
0.0
1001
ACAD
1000
R13OBJECT
1002
{
1005
287
1002
}
  0
LINE
  5
36
100
AcDbEntity
  8
2D_PROFILE
100
AcDbLine
 10
25.988054
 20
-1.462305
 30
0.0
 11
25.550402
 21
-1.024652
 31
0.0
1001
ACAD
1000
R13OBJECT
1002
{
1005
287
1002
}
  0
ARC
  5
37
100
AcDbEntity
  8
2D_PROFILE
100
AcDbCircle
 10
-3.973012
 20
-2.990219
 30
0.0
 40
30.0
100
AcDbArc
 50
326.737945
 51
2.919364
1001
ACAD
1000
R13OBJECT
1002
{
1005
287
1002
}
  0
ARC
  5
38
100
AcDbEntity
  8
2D_PROFILE
100
AcDbCircle
 10
18.185514
 20
-17.524652
 30
0.0
 40
3.5
100
AcDbArc
 50
270.0
 51
326.737945
1001
ACAD
1000
R13OBJECT
1002
{
1005
287
1002
}
  0
LINE
  5
39
100
AcDbEntity
  8
2D_PROFILE
100
AcDbLine
 10
16.614372
 20
-21.024652
 30
0.0
 11
18.185514
 21
-21.024652
 31
0.0
1001
ACAD
1000
R13OBJECT
1002
{
1005
287
1002
}
  0
LINE
  5
3A
100
AcDbEntity
  8
2D_PROFILE
100
AcDbLine
 10
5.083672
 20
-20.823383
 30
0.0
 11
16.614372
 21
-21.024652
 31
0.0
1001
ACAD
1000
R13OBJECT
1002
{
1005
287
1002
}
  0
ARC
  5
3B
100
AcDbEntity
  8
2D_PROFILE
100
AcDbCircle
 10
5.101125
 20
-19.823535
 30
0.0
 40
1.0
100
AcDbArc
 50
180.0
 51
269.0
1001
ACAD
1000
R13OBJECT
1002
{
1005
287
1002
}
  0
LINE
  5
3C
100
AcDbEntity
  8
2D_PROFILE
100
AcDbLine
 10
4.101125
 20
-17.274652
 30
0.0
 11
4.101125
 21
-19.823535
 31
0.0
1001
ACAD
1000
R13OBJECT
1002
{
1005
287
1002
}
  0
ARC
  5
3D
100
AcDbEntity
  8
2D_PROFILE
100
AcDbCircle
 10
4.851125
 20
-17.274652
 30
0.0
 40
0.75
100
AcDbArc
 50
90.0
 51
180.0
1001
ACAD
1000
R13OBJECT
1002
{
1005
287
1002
}
  0
LINE
  5
3E
100
AcDbEntity
  8
2D_PROFILE
100
AcDbLine
 10
5.351125
 20
-16.524652
 30
0.0
 11
4.851125
 21
-16.524652
 31
0.0
1001
ACAD
1000
R13OBJECT
1002
{
1005
287
1002
}
  0
ARC
  5
3F
100
AcDbEntity
  8
2D_PROFILE
100
AcDbCircle
 10
5.351125
 20
-17.274652
 30
0.0
 40
0.75
100
AcDbArc
 50
0.0
 51
90.0
1001
ACAD
1000
R13OBJECT
1002
{
1005
287
1002
}
  0
LINE
  5
40
100
AcDbEntity
  8
2D_PROFILE
100
AcDbLine
 10
6.101125
 20
-17.803769
 30
0.0
 11
6.101125
 21
-17.274652
 31
0.0
1001
ACAD
1000
R13OBJECT
1002
{
1005
287
1002
}
  0
ARC
  5
41
100
AcDbEntity
  8
2D_PROFILE
100
AcDbCircle
 10
6.851125
 20
-17.803769
 30
0.0
 40
0.75
100
AcDbArc
 50
180.0
 51
269.0
1001
ACAD
1000
R13OBJECT
1002
{
1005
287
1002
}
  0
LINE
  5
42
100
AcDbEntity
  8
2D_PROFILE
100
AcDbLine
 10
8.983672
 20
-18.591107
 30
0.0
 11
6.838035
 21
-18.553655
 31
0.0
1001
ACAD
1000
R13OBJECT
1002
{
1005
287
1002
}
  0
ARC
  5
43
100
AcDbEntity
  8
2D_PROFILE
100
AcDbCircle
 10
9.001125
 20
-17.59126
 30
0.0
 40
1.0
100
AcDbArc
 50
269.0
 51
0.0
1001
ACAD
1000
R13OBJECT
1002
{
1005
287
1002
}
  0
LINE
  5
44
100
AcDbEntity
  8
2D_PROFILE
100
AcDbLine
 10
10.001125
 20
-15.726067
 30
0.0
 11
10.001125
 21
-17.59126
 31
0.0
1001
ACAD
1000
R13OBJECT
1002
{
1005
287
1002
}
  0
ARC
  5
45
100
AcDbEntity
  8
2D_PROFILE
100
AcDbCircle
 10
8.001125
 20
-15.726067
 30
0.0
 40
2.0
100
AcDbArc
 50
0.0
 51
35.665005
1001
ACAD
1000
R13OBJECT
1002
{
1005
287
1002
}
  0
ARC
  5
46
100
AcDbEntity
  8
2D_PROFILE
100
AcDbCircle
 10
-11.857632
 20
-29.977647
 30
0.0
 40
26.443358
100
AcDbArc
 50
35.665005
 51
52.73464
1001
ACAD
1000
R13OBJECT
1002
{
1005
287
1002
}
  0
ARC
  5
47
100
AcDbEntity
  8
2D_PROFILE
100
AcDbCircle
 10
2.943001
 20
-10.524652
 30
0.0
 40
2.0
100
AcDbArc
 50
52.73464
 51
90.0
1001
ACAD
1000
R13OBJECT
1002
{
1005
287
1002
}
  0
LINE
  5
48
100
AcDbEntity
  8
2D_PROFILE
100
AcDbLine
 10
-2.940752
 20
-8.524652
 30
0.0
 11
2.943001
 21
-8.524652
 31
0.0
1001
ACAD
1000
R13OBJECT
1002
{
1005
287
1002
}
  0
CIRCLE
  5
49
100
AcDbEntity
  8
2D_PROFILE
100
AcDbCircle
 10
-0.001125
 20
-1.024652
 30
0.0
 40
3.4
210
0.0
220
0.0
230
-1.0
1001
ACAD
1000
R13OBJECT
1002
{
1005
287
1002
}
  0
LINE
  5
4A
100
AcDbEntity
  8
2D_PROFILE
100
AcDbLine
 10
16.313613
 20
16.17172
 30
0.0
 11
7.708231
 21
7.566338
 31
0.0
1001
ACAD
1000
R13OBJECT
1002
{
1005
287
1002
}
  0
ARC
  5
4B
100
AcDbEntity
  8
2D_PROFILE
100
AcDbCircle
 10
-15.606507
 20
16.878827
 30
0.0
 40
1.0
210
0.0
220
0.0
230
-1.0
100
AcDbArc
 50
131.076697
 51
225.0
1001
ACAD
1000
R13OBJECT
1002
{
1005
287
1002
}
  0
ARC
  5
4C
100
AcDbEntity
  8
2D_PROFILE
100
AcDbCircle
 10
-0.001125
 20
-1.024652
 30
0.0
 40
24.75
210
0.0
220
0.0
230
-1.0
100
AcDbArc
 50
107.141758
 51
131.076697
1001
ACAD
1000
R13OBJECT
1002
{
1005
287
1002
}
  0
ARC
  5
4D
100
AcDbEntity
  8
2D_PROFILE
100
AcDbCircle
 10
-7.001125
 20
21.670336
 30
0.0
 40
1.0
210
0.0
220
0.0
230
-1.0
100
AcDbArc
 50
360.0
 51
107.141758
1001
ACAD
1000
R13OBJECT
1002
{
1005
287
1002
}
  0
LINE
  5
4E
100
AcDbEntity
  8
2D_PROFILE
100
AcDbLine
 10
6.001125
 20
8.273445
 30
0.0
 11
6.001125
 21
21.670336
 31
0.0
1001
ACAD
1000
R13OBJECT
1002
{
1005
287
1002
}
  0
ARC
  5
4F
100
AcDbEntity
  8
2D_PROFILE
100
AcDbCircle
 10
-7.001125
 20
8.273445
 30
0.0
 40
1.0
210
0.0
220
0.0
230
-1.0
100
AcDbArc
 50
225.0
 51
0.0
1001
ACAD
1000
R13OBJECT
1002
{
1005
287
1002
}
  0
ARC
  5
50
100
AcDbEntity
  8
2D_PROFILE
100
AcDbCircle
 10
0.001125
 20
-1.024652
 30
0.0
 40
6.0
100
AcDbArc
 50
63.256316
 51
116.743684
1001
ACAD
1000
R13OBJECT
1002
{
1005
287
1002
}
  0
ARC
  5
51
100
AcDbEntity
  8
2D_PROFILE
100
AcDbCircle
 10
-3.151125
 20
5.226548
 30
0.0
 40
1.0
210
0.0
220
0.0
230
-1.0
100
AcDbArc
 50
180.0
 51
296.743684
1001
ACAD
1000
R13OBJECT
1002
{
1005
287
1002
}
  0
LINE
  5
52
100
AcDbEntity
  8
2D_PROFILE
100
AcDbLine
 10
4.151125
 20
6.013745
 30
0.0
 11
4.151125
 21
5.226548
 31
0.0
1001
ACAD
1000
R13OBJECT
1002
{
1005
287
1002
}
  0
ARC
  5
53
100
AcDbEntity
  8
2D_PROFILE
100
AcDbCircle
 10
-4.001125
 20
6.013745
 30
0.0
 40
0.15
210
0.0
220
0.0
230
-1.0
100
AcDbArc
 50
120.0
 51
180.0
1001
ACAD
1000
R13OBJECT
1002
{
1005
287
1002
}
  0
LINE
  5
54
100
AcDbEntity
  8
2D_PROFILE
100
AcDbLine
 10
3.476125
 20
6.490059
 30
0.0
 11
4.076125
 21
6.143649
 31
0.0
1001
ACAD
1000
R13OBJECT
1002
{
1005
287
1002
}
  0
ARC
  5
55
100
AcDbEntity
  8
2D_PROFILE
100
AcDbCircle
 10
3.551125
 20
6.619963
 30
0.0
 40
0.15
100
AcDbArc
 50
180.0
 51
240.0
1001
ACAD
1000
R13OBJECT
1002
{
1005
287
1002
}
  0
LINE
  5
56
100
AcDbEntity
  8
2D_PROFILE
100
AcDbLine
 10
3.401125
 20
6.830733
 30
0.0
 11
3.401125
 21
6.619963
 31
0.0
1001
ACAD
1000
R13OBJECT
1002
{
1005
287
1002
}
  0
ARC
  5
57
100
AcDbEntity
  8
2D_PROFILE
100
AcDbCircle
 10
3.551125
 20
6.830733
 30
0.0
 40
0.15
100
AcDbArc
 50
120.0
 51
180.0
1001
ACAD
1000
R13OBJECT
1002
{
1005
287
1002
}
  0
LINE
  5
58
100
AcDbEntity
  8
2D_PROFILE
100
AcDbLine
 10
3.926125
 20
7.220444
 30
0.0
 11
3.476125
 21
6.960636
 31
0.0
1001
ACAD
1000
R13OBJECT
1002
{
1005
287
1002
}
  0
ARC
  5
59
100
AcDbEntity
  8
2D_PROFILE
100
AcDbCircle
 10
-3.851125
 20
7.350348
 30
0.0
 40
0.15
210
0.0
220
0.0
230
-1.0
100
AcDbArc
 50
120.0
 51
240.0
1001
ACAD
1000
R13OBJECT
1002
{
1005
287
1002
}
  0
LINE
  5
5A
100
AcDbEntity
  8
2D_PROFILE
100
AcDbLine
 10
3.476125
 20
7.740059
 30
0.0
 11
3.926125
 21
7.480252
 31
0.0
1001
ACAD
1000
R13OBJECT
1002
{
1005
287
1002
}
  0
ARC
  5
5B
100
AcDbEntity
  8
2D_PROFILE
100
AcDbCircle
 10
3.551125
 20
7.869963
 30
0.0
 40
0.15
100
AcDbArc
 50
180.0
 51
240.0
1001
ACAD
1000
R13OBJECT
1002
{
1005
287
1002
}
  0
LINE
  5
5C
100
AcDbEntity
  8
2D_PROFILE
100
AcDbLine
 10
3.401125
 20
8.080733
 30
0.0
 11
3.401125
 21
7.869963
 31
0.0
1001
ACAD
1000
R13OBJECT
1002
{
1005
287
1002
}
  0
ARC
  5
5D
100
AcDbEntity
  8
2D_PROFILE
100
AcDbCircle
 10
3.551125
 20
8.080733
 30
0.0
 40
0.15
100
AcDbArc
 50
120.0
 51
180.0
1001
ACAD
1000
R13OBJECT
1002
{
1005
287
1002
}
  0
LINE
  5
5E
100
AcDbEntity
  8
2D_PROFILE
100
AcDbLine
 10
3.926125
 20
8.470444
 30
0.0
 11
3.476125
 21
8.210636
 31
0.0
1001
ACAD
1000
R13OBJECT
1002
{
1005
287
1002
}
  0
ARC
  5
5F
100
AcDbEntity
  8
2D_PROFILE
100
AcDbCircle
 10
-3.851125
 20
8.600348
 30
0.0
 40
0.15
210
0.0
220
0.0
230
-1.0
100
AcDbArc
 50
120.0
 51
240.0
1001
ACAD
1000
R13OBJECT
1002
{
1005
287
1002
}
  0
LINE
  5
60
100
AcDbEntity
  8
2D_PROFILE
100
AcDbLine
 10
3.476125
 20
8.990059
 30
0.0
 11
3.926125
 21
8.730252
 31
0.0
1001
ACAD
1000
R13OBJECT
1002
{
1005
287
1002
}
  0
ARC
  5
61
100
AcDbEntity
  8
2D_PROFILE
100
AcDbCircle
 10
3.551125
 20
9.119963
 30
0.0
 40
0.15
100
AcDbArc
 50
180.0
 51
240.0
1001
ACAD
1000
R13OBJECT
1002
{
1005
287
1002
}
  0
LINE
  5
62
100
AcDbEntity
  8
2D_PROFILE
100
AcDbLine
 10
3.401125
 20
9.330733
 30
0.0
 11
3.401125
 21
9.119963
 31
0.0
1001
ACAD
1000
R13OBJECT
1002
{
1005
287
1002
}
  0
ARC
  5
63
100
AcDbEntity
  8
2D_PROFILE
100
AcDbCircle
 10
3.551125
 20
9.330733
 30
0.0
 40
0.15
100
AcDbArc
 50
120.0
 51
180.0
1001
ACAD
1000
R13OBJECT
1002
{
1005
287
1002
}
  0
LINE
  5
64
100
AcDbEntity
  8
2D_PROFILE
100
AcDbLine
 10
3.926125
 20
9.720444
 30
0.0
 11
3.476125
 21
9.460636
 31
0.0
1001
ACAD
1000
R13OBJECT
1002
{
1005
287
1002
}
  0
ARC
  5
65
100
AcDbEntity
  8
2D_PROFILE
100
AcDbCircle
 10
-3.851125
 20
9.850348
 30
0.0
 40
0.15
210
0.0
220
0.0
230
-1.0
100
AcDbArc
 50
120.0
 51
240.0
1001
ACAD
1000
R13OBJECT
1002
{
1005
287
1002
}
  0
LINE
  5
66
100
AcDbEntity
  8
2D_PROFILE
100
AcDbLine
 10
3.476125
 20
10.240059
 30
0.0
 11
3.926125
 21
9.980252
 31
0.0
1001
ACAD
1000
R13OBJECT
1002
{
1005
287
1002
}
  0
ARC
  5
67
100
AcDbEntity
  8
2D_PROFILE
100
AcDbCircle
 10
3.551125
 20
10.369963
 30
0.0
 40
0.15
100
AcDbArc
 50
180.0
 51
240.0
1001
ACAD
1000
R13OBJECT
1002
{
1005
287
1002
}
  0
LINE
  5
68
100
AcDbEntity
  8
2D_PROFILE
100
AcDbLine
 10
3.401125
 20
10.580733
 30
0.0
 11
3.401125
 21
10.369963
 31
0.0
1001
ACAD
1000
R13OBJECT
1002
{
1005
287
1002
}
  0
ARC
  5
69
100
AcDbEntity
  8
2D_PROFILE
100
AcDbCircle
 10
3.551125
 20
10.580733
 30
0.0
 40
0.15
100
AcDbArc
 50
120.0
 51
180.0
1001
ACAD
1000
R13OBJECT
1002
{
1005
287
1002
}
  0
LINE
  5
6A
100
AcDbEntity
  8
2D_PROFILE
100
AcDbLine
 10
3.926125
 20
10.970444
 30
0.0
 11
3.476125
 21
10.710636
 31
0.0
1001
ACAD
1000
R13OBJECT
1002
{
1005
287
1002
}
  0
ARC
  5
6B
100
AcDbEntity
  8
2D_PROFILE
100
AcDbCircle
 10
-3.851125
 20
11.100348
 30
0.0
 40
0.15
210
0.0
220
0.0
230
-1.0
100
AcDbArc
 50
120.0
 51
240.0
1001
ACAD
1000
R13OBJECT
1002
{
1005
287
1002
}
  0
LINE
  5
6C
100
AcDbEntity
  8
2D_PROFILE
100
AcDbLine
 10
3.476125
 20
11.490059
 30
0.0
 11
3.926125
 21
11.230252
 31
0.0
1001
ACAD
1000
R13OBJECT
1002
{
1005
287
1002
}
  0
ARC
  5
6D
100
AcDbEntity
  8
2D_PROFILE
100
AcDbCircle
 10
3.551125
 20
11.619963
 30
0.0
 40
0.15
100
AcDbArc
 50
180.0
 51
240.0
1001
ACAD
1000
R13OBJECT
1002
{
1005
287
1002
}
  0
LINE
  5
6E
100
AcDbEntity
  8
2D_PROFILE
100
AcDbLine
 10
3.401125
 20
11.830733
 30
0.0
 11
3.401125
 21
11.619963
 31
0.0
1001
ACAD
1000
R13OBJECT
1002
{
1005
287
1002
}
  0
ARC
  5
6F
100
AcDbEntity
  8
2D_PROFILE
100
AcDbCircle
 10
3.551125
 20
11.830733
 30
0.0
 40
0.15
100
AcDbArc
 50
120.0
 51
180.0
1001
ACAD
1000
R13OBJECT
1002
{
1005
287
1002
}
  0
LINE
  5
70
100
AcDbEntity
  8
2D_PROFILE
100
AcDbLine
 10
3.926125
 20
12.220444
 30
0.0
 11
3.476125
 21
11.960636
 31
0.0
1001
ACAD
1000
R13OBJECT
1002
{
1005
287
1002
}
  0
ARC
  5
71
100
AcDbEntity
  8
2D_PROFILE
100
AcDbCircle
 10
-3.851125
 20
12.350348
 30
0.0
 40
0.15
210
0.0
220
0.0
230
-1.0
100
AcDbArc
 50
120.0
 51
240.0
1001
ACAD
1000
R13OBJECT
1002
{
1005
287
1002
}
  0
LINE
  5
72
100
AcDbEntity
  8
2D_PROFILE
100
AcDbLine
 10
3.476125
 20
12.740059
 30
0.0
 11
3.926125
 21
12.480252
 31
0.0
1001
ACAD
1000
R13OBJECT
1002
{
1005
287
1002
}
  0
ARC
  5
73
100
AcDbEntity
  8
2D_PROFILE
100
AcDbCircle
 10
3.551125
 20
12.869963
 30
0.0
 40
0.15
100
AcDbArc
 50
180.0
 51
240.0
1001
ACAD
1000
R13OBJECT
1002
{
1005
287
1002
}
  0
LINE
  5
74
100
AcDbEntity
  8
2D_PROFILE
100
AcDbLine
 10
3.401125
 20
13.080733
 30
0.0
 11
3.401125
 21
12.869963
 31
0.0
1001
ACAD
1000
R13OBJECT
1002
{
1005
287
1002
}
  0
ARC
  5
75
100
AcDbEntity
  8
2D_PROFILE
100
AcDbCircle
 10
3.551125
 20
13.080733
 30
0.0
 40
0.15
100
AcDbArc
 50
120.0
 51
180.0
1001
ACAD
1000
R13OBJECT
1002
{
1005
287
1002
}
  0
LINE
  5
76
100
AcDbEntity
  8
2D_PROFILE
100
AcDbLine
 10
3.926125
 20
13.470444
 30
0.0
 11
3.476125
 21
13.210636
 31
0.0
1001
ACAD
1000
R13OBJECT
1002
{
1005
287
1002
}
  0
ARC
  5
77
100
AcDbEntity
  8
2D_PROFILE
100
AcDbCircle
 10
-3.851125
 20
13.600348
 30
0.0
 40
0.15
210
0.0
220
0.0
230
-1.0
100
AcDbArc
 50
120.0
 51
240.0
1001
ACAD
1000
R13OBJECT
1002
{
1005
287
1002
}
  0
LINE
  5
78
100
AcDbEntity
  8
2D_PROFILE
100
AcDbLine
 10
3.476125
 20
13.990059
 30
0.0
 11
3.926125
 21
13.730252
 31
0.0
1001
ACAD
1000
R13OBJECT
1002
{
1005
287
1002
}
  0
ARC
  5
79
100
AcDbEntity
  8
2D_PROFILE
100
AcDbCircle
 10
3.551125
 20
14.119963
 30
0.0
 40
0.15
100
AcDbArc
 50
180.0
 51
240.0
1001
ACAD
1000
R13OBJECT
1002
{
1005
287
1002
}
  0
LINE
  5
7A
100
AcDbEntity
  8
2D_PROFILE
100
AcDbLine
 10
3.401125
 20
14.330733
 30
0.0
 11
3.401125
 21
14.119963
 31
0.0
1001
ACAD
1000
R13OBJECT
1002
{
1005
287
1002
}
  0
ARC
  5
7B
100
AcDbEntity
  8
2D_PROFILE
100
AcDbCircle
 10
3.551125
 20
14.330733
 30
0.0
 40
0.15
100
AcDbArc
 50
120.0
 51
180.0
1001
ACAD
1000
R13OBJECT
1002
{
1005
287
1002
}
  0
LINE
  5
7C
100
AcDbEntity
  8
2D_PROFILE
100
AcDbLine
 10
3.926125
 20
14.720444
 30
0.0
 11
3.476125
 21
14.460636
 31
0.0
1001
ACAD
1000
R13OBJECT
1002
{
1005
287
1002
}
  0
ARC
  5
7D
100
AcDbEntity
  8
2D_PROFILE
100
AcDbCircle
 10
-3.851125
 20
14.850348
 30
0.0
 40
0.15
210
0.0
220
0.0
230
-1.0
100
AcDbArc
 50
120.0
 51
240.0
1001
ACAD
1000
R13OBJECT
1002
{
1005
287
1002
}
  0
LINE
  5
7E
100
AcDbEntity
  8
2D_PROFILE
100
AcDbLine
 10
3.476125
 20
15.240059
 30
0.0
 11
3.926125
 21
14.980252
 31
0.0
1001
ACAD
1000
R13OBJECT
1002
{
1005
287
1002
}
  0
ARC
  5
7F
100
AcDbEntity
  8
2D_PROFILE
100
AcDbCircle
 10
3.551125
 20
15.369963
 30
0.0
 40
0.15
100
AcDbArc
 50
180.0
 51
240.0
1001
ACAD
1000
R13OBJECT
1002
{
1005
287
1002
}
  0
LINE
  5
80
100
AcDbEntity
  8
2D_PROFILE
100
AcDbLine
 10
3.401125
 20
15.580733
 30
0.0
 11
3.401125
 21
15.369963
 31
0.0
1001
ACAD
1000
R13OBJECT
1002
{
1005
287
1002
}
  0
ARC
  5
81
100
AcDbEntity
  8
2D_PROFILE
100
AcDbCircle
 10
3.551125
 20
15.580733
 30
0.0
 40
0.15
100
AcDbArc
 50
120.0
 51
180.0
1001
ACAD
1000
R13OBJECT
1002
{
1005
287
1002
}
  0
LINE
  5
82
100
AcDbEntity
  8
2D_PROFILE
100
AcDbLine
 10
3.926125
 20
15.970444
 30
0.0
 11
3.476125
 21
15.710636
 31
0.0
1001
ACAD
1000
R13OBJECT
1002
{
1005
287
1002
}
  0
ARC
  5
83
100
AcDbEntity
  8
2D_PROFILE
100
AcDbCircle
 10
-3.851125
 20
16.100348
 30
0.0
 40
0.15
210
0.0
220
0.0
230
-1.0
100
AcDbArc
 50
120.0
 51
240.0
1001
ACAD
1000
R13OBJECT
1002
{
1005
287
1002
}
  0
LINE
  5
84
100
AcDbEntity
  8
2D_PROFILE
100
AcDbLine
 10
3.476125
 20
16.490059
 30
0.0
 11
3.926125
 21
16.230252
 31
0.0
1001
ACAD
1000
R13OBJECT
1002
{
1005
287
1002
}
  0
ARC
  5
85
100
AcDbEntity
  8
2D_PROFILE
100
AcDbCircle
 10
3.551125
 20
16.619963
 30
0.0
 40
0.15
100
AcDbArc
 50
180.0
 51
240.0
1001
ACAD
1000
R13OBJECT
1002
{
1005
287
1002
}
  0
LINE
  5
86
100
AcDbEntity
  8
2D_PROFILE
100
AcDbLine
 10
3.401125
 20
16.830733
 30
0.0
 11
3.401125
 21
16.619963
 31
0.0
1001
ACAD
1000
R13OBJECT
1002
{
1005
287
1002
}
  0
ARC
  5
87
100
AcDbEntity
  8
2D_PROFILE
100
AcDbCircle
 10
3.551125
 20
16.830733
 30
0.0
 40
0.15
100
AcDbArc
 50
120.0
 51
180.0
1001
ACAD
1000
R13OBJECT
1002
{
1005
287
1002
}
  0
LINE
  5
88
100
AcDbEntity
  8
2D_PROFILE
100
AcDbLine
 10
3.926125
 20
17.220444
 30
0.0
 11
3.476125
 21
16.960636
 31
0.0
1001
ACAD
1000
R13OBJECT
1002
{
1005
287
1002
}
  0
ARC
  5
89
100
AcDbEntity
  8
2D_PROFILE
100
AcDbCircle
 10
-3.851125
 20
17.350348
 30
0.0
 40
0.15
210
0.0
220
0.0
230
-1.0
100
AcDbArc
 50
120.0
 51
240.0
1001
ACAD
1000
R13OBJECT
1002
{
1005
287
1002
}
  0
LINE
  5
8A
100
AcDbEntity
  8
2D_PROFILE
100
AcDbLine
 10
3.476125
 20
17.740059
 30
0.0
 11
3.926125
 21
17.480252
 31
0.0
1001
ACAD
1000
R13OBJECT
1002
{
1005
287
1002
}
  0
ARC
  5
8B
100
AcDbEntity
  8
2D_PROFILE
100
AcDbCircle
 10
3.551125
 20
17.869963
 30
0.0
 40
0.15
100
AcDbArc
 50
180.0
 51
240.0
1001
ACAD
1000
R13OBJECT
1002
{
1005
287
1002
}
  0
LINE
  5
8C
100
AcDbEntity
  8
2D_PROFILE
100
AcDbLine
 10
3.401125
 20
18.080733
 30
0.0
 11
3.401125
 21
17.869963
 31
0.0
1001
ACAD
1000
R13OBJECT
1002
{
1005
287
1002
}
  0
ARC
  5
8D
100
AcDbEntity
  8
2D_PROFILE
100
AcDbCircle
 10
3.551125
 20
18.080733
 30
0.0
 40
0.15
100
AcDbArc
 50
120.0
 51
180.0
1001
ACAD
1000
R13OBJECT
1002
{
1005
287
1002
}
  0
LINE
  5
8E
100
AcDbEntity
  8
2D_PROFILE
100
AcDbLine
 10
3.926125
 20
18.470444
 30
0.0
 11
3.476125
 21
18.210636
 31
0.0
1001
ACAD
1000
R13OBJECT
1002
{
1005
287
1002
}
  0
ARC
  5
8F
100
AcDbEntity
  8
2D_PROFILE
100
AcDbCircle
 10
-3.851125
 20
18.600348
 30
0.0
 40
0.15
210
0.0
220
0.0
230
-1.0
100
AcDbArc
 50
120.0
 51
240.0
1001
ACAD
1000
R13OBJECT
1002
{
1005
287
1002
}
  0
LINE
  5
90
100
AcDbEntity
  8
2D_PROFILE
100
AcDbLine
 10
3.476125
 20
18.990059
 30
0.0
 11
3.926125
 21
18.730252
 31
0.0
1001
ACAD
1000
R13OBJECT
1002
{
1005
287
1002
}
  0
ARC
  5
91
100
AcDbEntity
  8
2D_PROFILE
100
AcDbCircle
 10
3.551125
 20
19.119963
 30
0.0
 40
0.15
100
AcDbArc
 50
180.0
 51
240.0
1001
ACAD
1000
R13OBJECT
1002
{
1005
287
1002
}
  0
LINE
  5
92
100
AcDbEntity
  8
2D_PROFILE
100
AcDbLine
 10
3.401125
 20
19.330733
 30
0.0
 11
3.401125
 21
19.119963
 31
0.0
1001
ACAD
1000
R13OBJECT
1002
{
1005
287
1002
}
  0
ARC
  5
93
100
AcDbEntity
  8
2D_PROFILE
100
AcDbCircle
 10
3.551125
 20
19.330733
 30
0.0
 40
0.15
100
AcDbArc
 50
120.0
 51
180.0
1001
ACAD
1000
R13OBJECT
1002
{
1005
287
1002
}
  0
LINE
  5
94
100
AcDbEntity
  8
2D_PROFILE
100
AcDbLine
 10
3.926125
 20
19.720444
 30
0.0
 11
3.476125
 21
19.460636
 31
0.0
1001
ACAD
1000
R13OBJECT
1002
{
1005
287
1002
}
  0
ARC
  5
95
100
AcDbEntity
  8
2D_PROFILE
100
AcDbCircle
 10
-3.851125
 20
19.850348
 30
0.0
 40
0.15
210
0.0
220
0.0
230
-1.0
100
AcDbArc
 50
120.0
 51
240.0
1001
ACAD
1000
R13OBJECT
1002
{
1005
287
1002
}
  0
LINE
  5
96
100
AcDbEntity
  8
2D_PROFILE
100
AcDbLine
 10
3.476125
 20
20.240059
 30
0.0
 11
3.926125
 21
19.980252
 31
0.0
1001
ACAD
1000
R13OBJECT
1002
{
1005
287
1002
}
  0
ARC
  5
97
100
AcDbEntity
  8
2D_PROFILE
100
AcDbCircle
 10
3.551125
 20
20.369963
 30
0.0
 40
0.15
100
AcDbArc
 50
180.0
 51
240.0
1001
ACAD
1000
R13OBJECT
1002
{
1005
287
1002
}
  0
LINE
  5
98
100
AcDbEntity
  8
2D_PROFILE
100
AcDbLine
 10
3.401125
 20
20.580733
 30
0.0
 11
3.401125
 21
20.369963
 31
0.0
1001
ACAD
1000
R13OBJECT
1002
{
1005
287
1002
}
  0
ARC
  5
99
100
AcDbEntity
  8
2D_PROFILE
100
AcDbCircle
 10
3.551125
 20
20.580733
 30
0.0
 40
0.15
100
AcDbArc
 50
120.0
 51
180.0
1001
ACAD
1000
R13OBJECT
1002
{
1005
287
1002
}
  0
LINE
  5
9A
100
AcDbEntity
  8
2D_PROFILE
100
AcDbLine
 10
3.926125
 20
20.970444
 30
0.0
 11
3.476125
 21
20.710636
 31
0.0
1001
ACAD
1000
R13OBJECT
1002
{
1005
287
1002
}
  0
ARC
  5
9B
100
AcDbEntity
  8
2D_PROFILE
100
AcDbCircle
 10
-3.851125
 20
21.100348
 30
0.0
 40
0.15
210
0.0
220
0.0
230
-1.0
100
AcDbArc
 50
120.0
 51
240.0
1001
ACAD
1000
R13OBJECT
1002
{
1005
287
1002
}
  0
LINE
  5
9C
100
AcDbEntity
  8
2D_PROFILE
100
AcDbLine
 10
3.476125
 20
21.490059
 30
0.0
 11
3.926125
 21
21.230252
 31
0.0
1001
ACAD
1000
R13OBJECT
1002
{
1005
287
1002
}
  0
ARC
  5
9D
100
AcDbEntity
  8
2D_PROFILE
100
AcDbCircle
 10
3.551125
 20
21.619963
 30
0.0
 40
0.15
100
AcDbArc
 50
180.0
 51
240.0
1001
ACAD
1000
R13OBJECT
1002
{
1005
287
1002
}
  0
LINE
  5
9E
100
AcDbEntity
  8
2D_PROFILE
100
AcDbLine
 10
3.401125
 20
21.830733
 30
0.0
 11
3.401125
 21
21.619963
 31
0.0
1001
ACAD
1000
R13OBJECT
1002
{
1005
287
1002
}
  0
ARC
  5
9F
100
AcDbEntity
  8
2D_PROFILE
100
AcDbCircle
 10
3.551125
 20
21.830733
 30
0.0
 40
0.15
100
AcDbArc
 50
120.0
 51
180.0
1001
ACAD
1000
R13OBJECT
1002
{
1005
287
1002
}
  0
LINE
  5
A0
100
AcDbEntity
  8
2D_PROFILE
100
AcDbLine
 10
3.926125
 20
22.220444
 30
0.0
 11
3.476125
 21
21.960636
 31
0.0
1001
ACAD
1000
R13OBJECT
1002
{
1005
287
1002
}
  0
ARC
  5
A1
100
AcDbEntity
  8
2D_PROFILE
100
AcDbCircle
 10
-3.851125
 20
22.350348
 30
0.0
 40
0.15
210
0.0
220
0.0
230
-1.0
100
AcDbArc
 50
120.0
 51
240.0
1001
ACAD
1000
R13OBJECT
1002
{
1005
287
1002
}
  0
LINE
  5
A2
100
AcDbEntity
  8
2D_PROFILE
100
AcDbLine
 10
3.476125
 20
22.740059
 30
0.0
 11
3.926125
 21
22.480252
 31
0.0
1001
ACAD
1000
R13OBJECT
1002
{
1005
287
1002
}
  0
ARC
  5
A3
100
AcDbEntity
  8
2D_PROFILE
100
AcDbCircle
 10
3.551125
 20
22.869963
 30
0.0
 40
0.15
100
AcDbArc
 50
180.0
 51
240.0
1001
ACAD
1000
R13OBJECT
1002
{
1005
287
1002
}
  0
LINE
  5
A4
100
AcDbEntity
  8
2D_PROFILE
100
AcDbLine
 10
3.401125
 20
23.080733
 30
0.0
 11
3.401125
 21
22.869963
 31
0.0
1001
ACAD
1000
R13OBJECT
1002
{
1005
287
1002
}
  0
ARC
  5
A5
100
AcDbEntity
  8
2D_PROFILE
100
AcDbCircle
 10
3.551125
 20
23.080733
 30
0.0
 40
0.15
100
AcDbArc
 50
120.0
 51
180.0
1001
ACAD
1000
R13OBJECT
1002
{
1005
287
1002
}
  0
ARC
  5
A6
100
AcDbEntity
  8
2D_PROFILE
100
AcDbCircle
 10
-3.399324
 20
23.339496
 30
0.0
 40
0.150011
210
0.0
220
0.0
230
-1.0
100
AcDbArc
 50
97.943063
 51
239.204815
1001
ACAD
1000
R13OBJECT
1002
{
1005
287
1002
}
  0
ARC
  5
A7
100
AcDbEntity
  8
2D_PROFILE
100
AcDbCircle
 10
-0.001125
 20
-1.024652
 30
0.0
 40
24.75
210
0.0
220
0.0
230
-1.0
100
AcDbArc
 50
82.059854
 51
97.940146
1001
ACAD
1000
R13OBJECT
1002
{
1005
287
1002
}
  0
ARC
  5
A8
100
AcDbEntity
  8
2D_PROFILE
100
AcDbCircle
 10
3.397074
 20
23.339496
 30
0.0
 40
0.150011
210
0.0
220
0.0
230
-1.0
100
AcDbArc
 50
300.795185
 51
82.056937
1001
ACAD
1000
R13OBJECT
1002
{
1005
287
1002
}
  0
ARC
  5
A9
100
AcDbEntity
  8
2D_PROFILE
100
AcDbCircle
 10
-3.548875
 20
23.080733
 30
0.0
 40
0.15
100
AcDbArc
 50
360.0
 51
60.0
1001
ACAD
1000
R13OBJECT
1002
{
1005
287
1002
}
  0
LINE
  5
AA
100
AcDbEntity
  8
2D_PROFILE
100
AcDbLine
 10
-3.398875
 20
22.869963
 30
0.0
 11
-3.398875
 21
23.080733
 31
0.0
1001
ACAD
1000
R13OBJECT
1002
{
1005
287
1002
}
  0
ARC
  5
AB
100
AcDbEntity
  8
2D_PROFILE
100
AcDbCircle
 10
-3.548875
 20
22.869963
 30
0.0
 40
0.15
100
AcDbArc
 50
300.0
 51
0.0
1001
ACAD
1000
R13OBJECT
1002
{
1005
287
1002
}
  0
LINE
  5
AC
100
AcDbEntity
  8
2D_PROFILE
100
AcDbLine
 10
-3.923875
 20
22.480252
 30
0.0
 11
-3.473875
 21
22.740059
 31
0.0
1001
ACAD
1000
R13OBJECT
1002
{
1005
287
1002
}
  0
ARC
  5
AD
100
AcDbEntity
  8
2D_PROFILE
100
AcDbCircle
 10
3.848875
 20
22.350348
 30
0.0
 40
0.15
210
0.0
220
0.0
230
-1.0
100
AcDbArc
 50
300.0
 51
60.0
1001
ACAD
1000
R13OBJECT
1002
{
1005
287
1002
}
  0
LINE
  5
AE
100
AcDbEntity
  8
2D_PROFILE
100
AcDbLine
 10
-3.473875
 20
21.960636
 30
0.0
 11
-3.923875
 21
22.220444
 31
0.0
1001
ACAD
1000
R13OBJECT
1002
{
1005
287
1002
}
  0
ARC
  5
AF
100
AcDbEntity
  8
2D_PROFILE
100
AcDbCircle
 10
-3.548875
 20
21.830733
 30
0.0
 40
0.15
100
AcDbArc
 50
360.0
 51
60.0
1001
ACAD
1000
R13OBJECT
1002
{
1005
287
1002
}
  0
LINE
  5
B0
100
AcDbEntity
  8
2D_PROFILE
100
AcDbLine
 10
-3.398875
 20
21.619963
 30
0.0
 11
-3.398875
 21
21.830733
 31
0.0
1001
ACAD
1000
R13OBJECT
1002
{
1005
287
1002
}
  0
ARC
  5
B1
100
AcDbEntity
  8
2D_PROFILE
100
AcDbCircle
 10
-3.548875
 20
21.619963
 30
0.0
 40
0.15
100
AcDbArc
 50
300.0
 51
0.0
1001
ACAD
1000
R13OBJECT
1002
{
1005
287
1002
}
  0
LINE
  5
B2
100
AcDbEntity
  8
2D_PROFILE
100
AcDbLine
 10
-3.923875
 20
21.230252
 30
0.0
 11
-3.473875
 21
21.490059
 31
0.0
1001
ACAD
1000
R13OBJECT
1002
{
1005
287
1002
}
  0
ARC
  5
B3
100
AcDbEntity
  8
2D_PROFILE
100
AcDbCircle
 10
3.848875
 20
21.100348
 30
0.0
 40
0.15
210
0.0
220
0.0
230
-1.0
100
AcDbArc
 50
300.0
 51
60.0
1001
ACAD
1000
R13OBJECT
1002
{
1005
287
1002
}
  0
LINE
  5
B4
100
AcDbEntity
  8
2D_PROFILE
100
AcDbLine
 10
-3.473875
 20
20.710636
 30
0.0
 11
-3.923875
 21
20.970444
 31
0.0
1001
ACAD
1000
R13OBJECT
1002
{
1005
287
1002
}
  0
ARC
  5
B5
100
AcDbEntity
  8
2D_PROFILE
100
AcDbCircle
 10
-3.548875
 20
20.580733
 30
0.0
 40
0.15
100
AcDbArc
 50
0.0
 51
60.0
1001
ACAD
1000
R13OBJECT
1002
{
1005
287
1002
}
  0
LINE
  5
B6
100
AcDbEntity
  8
2D_PROFILE
100
AcDbLine
 10
-3.398875
 20
20.369963
 30
0.0
 11
-3.398875
 21
20.580733
 31
0.0
1001
ACAD
1000
R13OBJECT
1002
{
1005
287
1002
}
  0
ARC
  5
B7
100
AcDbEntity
  8
2D_PROFILE
100
AcDbCircle
 10
-3.548875
 20
20.369963
 30
0.0
 40
0.15
100
AcDbArc
 50
300.0
 51
0.0
1001
ACAD
1000
R13OBJECT
1002
{
1005
287
1002
}
  0
LINE
  5
B8
100
AcDbEntity
  8
2D_PROFILE
100
AcDbLine
 10
-3.923875
 20
19.980252
 30
0.0
 11
-3.473875
 21
20.240059
 31
0.0
1001
ACAD
1000
R13OBJECT
1002
{
1005
287
1002
}
  0
ARC
  5
B9
100
AcDbEntity
  8
2D_PROFILE
100
AcDbCircle
 10
3.848875
 20
19.850348
 30
0.0
 40
0.15
210
0.0
220
0.0
230
-1.0
100
AcDbArc
 50
300.0
 51
60.0
1001
ACAD
1000
R13OBJECT
1002
{
1005
287
1002
}
  0
LINE
  5
BA
100
AcDbEntity
  8
2D_PROFILE
100
AcDbLine
 10
-3.473875
 20
19.460636
 30
0.0
 11
-3.923875
 21
19.720444
 31
0.0
1001
ACAD
1000
R13OBJECT
1002
{
1005
287
1002
}
  0
ARC
  5
BB
100
AcDbEntity
  8
2D_PROFILE
100
AcDbCircle
 10
-3.548875
 20
19.330733
 30
0.0
 40
0.15
100
AcDbArc
 50
0.0
 51
60.0
1001
ACAD
1000
R13OBJECT
1002
{
1005
287
1002
}
  0
LINE
  5
BC
100
AcDbEntity
  8
2D_PROFILE
100
AcDbLine
 10
-3.398875
 20
19.119963
 30
0.0
 11
-3.398875
 21
19.330733
 31
0.0
1001
ACAD
1000
R13OBJECT
1002
{
1005
287
1002
}
  0
ARC
  5
BD
100
AcDbEntity
  8
2D_PROFILE
100
AcDbCircle
 10
-3.548875
 20
19.119963
 30
0.0
 40
0.15
100
AcDbArc
 50
300.0
 51
0.0
1001
ACAD
1000
R13OBJECT
1002
{
1005
287
1002
}
  0
LINE
  5
BE
100
AcDbEntity
  8
2D_PROFILE
100
AcDbLine
 10
-3.923875
 20
18.730252
 30
0.0
 11
-3.473875
 21
18.990059
 31
0.0
1001
ACAD
1000
R13OBJECT
1002
{
1005
287
1002
}
  0
ARC
  5
BF
100
AcDbEntity
  8
2D_PROFILE
100
AcDbCircle
 10
3.848875
 20
18.600348
 30
0.0
 40
0.15
210
0.0
220
0.0
230
-1.0
100
AcDbArc
 50
300.0
 51
60.0
1001
ACAD
1000
R13OBJECT
1002
{
1005
287
1002
}
  0
LINE
  5
C0
100
AcDbEntity
  8
2D_PROFILE
100
AcDbLine
 10
-3.473875
 20
18.210636
 30
0.0
 11
-3.923875
 21
18.470444
 31
0.0
1001
ACAD
1000
R13OBJECT
1002
{
1005
287
1002
}
  0
ARC
  5
C1
100
AcDbEntity
  8
2D_PROFILE
100
AcDbCircle
 10
-3.548875
 20
18.080733
 30
0.0
 40
0.15
100
AcDbArc
 50
0.0
 51
60.0
1001
ACAD
1000
R13OBJECT
1002
{
1005
287
1002
}
  0
LINE
  5
C2
100
AcDbEntity
  8
2D_PROFILE
100
AcDbLine
 10
-3.398875
 20
17.869963
 30
0.0
 11
-3.398875
 21
18.080733
 31
0.0
1001
ACAD
1000
R13OBJECT
1002
{
1005
287
1002
}
  0
ARC
  5
C3
100
AcDbEntity
  8
2D_PROFILE
100
AcDbCircle
 10
-3.548875
 20
17.869963
 30
0.0
 40
0.15
100
AcDbArc
 50
300.0
 51
0.0
1001
ACAD
1000
R13OBJECT
1002
{
1005
287
1002
}
  0
LINE
  5
C4
100
AcDbEntity
  8
2D_PROFILE
100
AcDbLine
 10
-3.923875
 20
17.480252
 30
0.0
 11
-3.473875
 21
17.740059
 31
0.0
1001
ACAD
1000
R13OBJECT
1002
{
1005
287
1002
}
  0
ARC
  5
C5
100
AcDbEntity
  8
2D_PROFILE
100
AcDbCircle
 10
3.848875
 20
17.350348
 30
0.0
 40
0.15
210
0.0
220
0.0
230
-1.0
100
AcDbArc
 50
300.0
 51
60.0
1001
ACAD
1000
R13OBJECT
1002
{
1005
287
1002
}
  0
LINE
  5
C6
100
AcDbEntity
  8
2D_PROFILE
100
AcDbLine
 10
-3.473875
 20
16.960636
 30
0.0
 11
-3.923875
 21
17.220444
 31
0.0
1001
ACAD
1000
R13OBJECT
1002
{
1005
287
1002
}
  0
ARC
  5
C7
100
AcDbEntity
  8
2D_PROFILE
100
AcDbCircle
 10
-3.548875
 20
16.830733
 30
0.0
 40
0.15
100
AcDbArc
 50
360.0
 51
60.0
1001
ACAD
1000
R13OBJECT
1002
{
1005
287
1002
}
  0
LINE
  5
C8
100
AcDbEntity
  8
2D_PROFILE
100
AcDbLine
 10
-3.398875
 20
16.619963
 30
0.0
 11
-3.398875
 21
16.830733
 31
0.0
1001
ACAD
1000
R13OBJECT
1002
{
1005
287
1002
}
  0
ARC
  5
C9
100
AcDbEntity
  8
2D_PROFILE
100
AcDbCircle
 10
-3.548875
 20
16.619963
 30
0.0
 40
0.15
100
AcDbArc
 50
300.0
 51
0.0
1001
ACAD
1000
R13OBJECT
1002
{
1005
287
1002
}
  0
LINE
  5
CA
100
AcDbEntity
  8
2D_PROFILE
100
AcDbLine
 10
-3.923875
 20
16.230252
 30
0.0
 11
-3.473875
 21
16.490059
 31
0.0
1001
ACAD
1000
R13OBJECT
1002
{
1005
287
1002
}
  0
ARC
  5
CB
100
AcDbEntity
  8
2D_PROFILE
100
AcDbCircle
 10
3.848875
 20
16.100348
 30
0.0
 40
0.15
210
0.0
220
0.0
230
-1.0
100
AcDbArc
 50
300.0
 51
60.0
1001
ACAD
1000
R13OBJECT
1002
{
1005
287
1002
}
  0
LINE
  5
CC
100
AcDbEntity
  8
2D_PROFILE
100
AcDbLine
 10
-3.473875
 20
15.710636
 30
0.0
 11
-3.923875
 21
15.970444
 31
0.0
1001
ACAD
1000
R13OBJECT
1002
{
1005
287
1002
}
  0
ARC
  5
CD
100
AcDbEntity
  8
2D_PROFILE
100
AcDbCircle
 10
-3.548875
 20
15.580733
 30
0.0
 40
0.15
100
AcDbArc
 50
360.0
 51
60.0
1001
ACAD
1000
R13OBJECT
1002
{
1005
287
1002
}
  0
LINE
  5
CE
100
AcDbEntity
  8
2D_PROFILE
100
AcDbLine
 10
-3.398875
 20
15.369963
 30
0.0
 11
-3.398875
 21
15.580733
 31
0.0
1001
ACAD
1000
R13OBJECT
1002
{
1005
287
1002
}
  0
ARC
  5
CF
100
AcDbEntity
  8
2D_PROFILE
100
AcDbCircle
 10
-3.548875
 20
15.369963
 30
0.0
 40
0.15
100
AcDbArc
 50
300.0
 51
360.0
1001
ACAD
1000
R13OBJECT
1002
{
1005
287
1002
}
  0
LINE
  5
D0
100
AcDbEntity
  8
2D_PROFILE
100
AcDbLine
 10
-3.923875
 20
14.980252
 30
0.0
 11
-3.473875
 21
15.240059
 31
0.0
1001
ACAD
1000
R13OBJECT
1002
{
1005
287
1002
}
  0
ARC
  5
D1
100
AcDbEntity
  8
2D_PROFILE
100
AcDbCircle
 10
3.848875
 20
14.850348
 30
0.0
 40
0.15
210
0.0
220
0.0
230
-1.0
100
AcDbArc
 50
300.0
 51
60.0
1001
ACAD
1000
R13OBJECT
1002
{
1005
287
1002
}
  0
LINE
  5
D2
100
AcDbEntity
  8
2D_PROFILE
100
AcDbLine
 10
-3.473875
 20
14.460636
 30
0.0
 11
-3.923875
 21
14.720444
 31
0.0
1001
ACAD
1000
R13OBJECT
1002
{
1005
287
1002
}
  0
ARC
  5
D3
100
AcDbEntity
  8
2D_PROFILE
100
AcDbCircle
 10
-3.548875
 20
14.330733
 30
0.0
 40
0.15
100
AcDbArc
 50
0.0
 51
60.0
1001
ACAD
1000
R13OBJECT
1002
{
1005
287
1002
}
  0
LINE
  5
D4
100
AcDbEntity
  8
2D_PROFILE
100
AcDbLine
 10
-3.398875
 20
14.119963
 30
0.0
 11
-3.398875
 21
14.330733
 31
0.0
1001
ACAD
1000
R13OBJECT
1002
{
1005
287
1002
}
  0
ARC
  5
D5
100
AcDbEntity
  8
2D_PROFILE
100
AcDbCircle
 10
-3.548875
 20
14.119963
 30
0.0
 40
0.15
100
AcDbArc
 50
300.0
 51
360.0
1001
ACAD
1000
R13OBJECT
1002
{
1005
287
1002
}
  0
LINE
  5
D6
100
AcDbEntity
  8
2D_PROFILE
100
AcDbLine
 10
-3.923875
 20
13.730252
 30
0.0
 11
-3.473875
 21
13.990059
 31
0.0
1001
ACAD
1000
R13OBJECT
1002
{
1005
287
1002
}
  0
ARC
  5
D7
100
AcDbEntity
  8
2D_PROFILE
100
AcDbCircle
 10
3.848875
 20
13.600348
 30
0.0
 40
0.15
210
0.0
220
0.0
230
-1.0
100
AcDbArc
 50
300.0
 51
60.0
1001
ACAD
1000
R13OBJECT
1002
{
1005
287
1002
}
  0
LINE
  5
D8
100
AcDbEntity
  8
2D_PROFILE
100
AcDbLine
 10
-3.473875
 20
13.210636
 30
0.0
 11
-3.923875
 21
13.470444
 31
0.0
1001
ACAD
1000
R13OBJECT
1002
{
1005
287
1002
}
  0
ARC
  5
D9
100
AcDbEntity
  8
2D_PROFILE
100
AcDbCircle
 10
-3.548875
 20
13.080733
 30
0.0
 40
0.15
100
AcDbArc
 50
0.0
 51
60.0
1001
ACAD
1000
R13OBJECT
1002
{
1005
287
1002
}
  0
LINE
  5
DA
100
AcDbEntity
  8
2D_PROFILE
100
AcDbLine
 10
-3.398875
 20
12.869963
 30
0.0
 11
-3.398875
 21
13.080733
 31
0.0
1001
ACAD
1000
R13OBJECT
1002
{
1005
287
1002
}
  0
ARC
  5
DB
100
AcDbEntity
  8
2D_PROFILE
100
AcDbCircle
 10
-3.548875
 20
12.869963
 30
0.0
 40
0.15
100
AcDbArc
 50
300.0
 51
360.0
1001
ACAD
1000
R13OBJECT
1002
{
1005
287
1002
}
  0
LINE
  5
DC
100
AcDbEntity
  8
2D_PROFILE
100
AcDbLine
 10
-3.923875
 20
12.480252
 30
0.0
 11
-3.473875
 21
12.740059
 31
0.0
1001
ACAD
1000
R13OBJECT
1002
{
1005
287
1002
}
  0
ARC
  5
DD
100
AcDbEntity
  8
2D_PROFILE
100
AcDbCircle
 10
3.848875
 20
12.350348
 30
0.0
 40
0.15
210
0.0
220
0.0
230
-1.0
100
AcDbArc
 50
300.0
 51
60.0
1001
ACAD
1000
R13OBJECT
1002
{
1005
287
1002
}
  0
LINE
  5
DE
100
AcDbEntity
  8
2D_PROFILE
100
AcDbLine
 10
-3.473875
 20
11.960636
 30
0.0
 11
-3.923875
 21
12.220444
 31
0.0
1001
ACAD
1000
R13OBJECT
1002
{
1005
287
1002
}
  0
ARC
  5
DF
100
AcDbEntity
  8
2D_PROFILE
100
AcDbCircle
 10
-3.548875
 20
11.830733
 30
0.0
 40
0.15
100
AcDbArc
 50
0.0
 51
60.0
1001
ACAD
1000
R13OBJECT
1002
{
1005
287
1002
}
  0
LINE
  5
E0
100
AcDbEntity
  8
2D_PROFILE
100
AcDbLine
 10
-3.398875
 20
11.619963
 30
0.0
 11
-3.398875
 21
11.830733
 31
0.0
1001
ACAD
1000
R13OBJECT
1002
{
1005
287
1002
}
  0
ARC
  5
E1
100
AcDbEntity
  8
2D_PROFILE
100
AcDbCircle
 10
-3.548875
 20
11.619963
 30
0.0
 40
0.15
100
AcDbArc
 50
300.0
 51
360.0
1001
ACAD
1000
R13OBJECT
1002
{
1005
287
1002
}
  0
LINE
  5
E2
100
AcDbEntity
  8
2D_PROFILE
100
AcDbLine
 10
-3.923875
 20
11.230252
 30
0.0
 11
-3.473875
 21
11.490059
 31
0.0
1001
ACAD
1000
R13OBJECT
1002
{
1005
287
1002
}
  0
ARC
  5
E3
100
AcDbEntity
  8
2D_PROFILE
100
AcDbCircle
 10
3.848875
 20
11.100348
 30
0.0
 40
0.15
210
0.0
220
0.0
230
-1.0
100
AcDbArc
 50
300.0
 51
60.0
1001
ACAD
1000
R13OBJECT
1002
{
1005
287
1002
}
  0
LINE
  5
E4
100
AcDbEntity
  8
2D_PROFILE
100
AcDbLine
 10
-3.473875
 20
10.710636
 30
0.0
 11
-3.923875
 21
10.970444
 31
0.0
1001
ACAD
1000
R13OBJECT
1002
{
1005
287
1002
}
  0
ARC
  5
E5
100
AcDbEntity
  8
2D_PROFILE
100
AcDbCircle
 10
-3.548875
 20
10.580733
 30
0.0
 40
0.15
100
AcDbArc
 50
0.0
 51
60.0
1001
ACAD
1000
R13OBJECT
1002
{
1005
287
1002
}
  0
LINE
  5
E6
100
AcDbEntity
  8
2D_PROFILE
100
AcDbLine
 10
-3.398875
 20
10.369963
 30
0.0
 11
-3.398875
 21
10.580733
 31
0.0
1001
ACAD
1000
R13OBJECT
1002
{
1005
287
1002
}
  0
ARC
  5
E7
100
AcDbEntity
  8
2D_PROFILE
100
AcDbCircle
 10
-3.548875
 20
10.369963
 30
0.0
 40
0.15
100
AcDbArc
 50
300.0
 51
0.0
1001
ACAD
1000
R13OBJECT
1002
{
1005
287
1002
}
  0
LINE
  5
E8
100
AcDbEntity
  8
2D_PROFILE
100
AcDbLine
 10
-3.923875
 20
9.980252
 30
0.0
 11
-3.473875
 21
10.240059
 31
0.0
1001
ACAD
1000
R13OBJECT
1002
{
1005
287
1002
}
  0
ARC
  5
E9
100
AcDbEntity
  8
2D_PROFILE
100
AcDbCircle
 10
3.848875
 20
9.850348
 30
0.0
 40
0.15
210
0.0
220
0.0
230
-1.0
100
AcDbArc
 50
300.0
 51
60.0
1001
ACAD
1000
R13OBJECT
1002
{
1005
287
1002
}
  0
LINE
  5
EA
100
AcDbEntity
  8
2D_PROFILE
100
AcDbLine
 10
-3.473875
 20
9.460636
 30
0.0
 11
-3.923875
 21
9.720444
 31
0.0
1001
ACAD
1000
R13OBJECT
1002
{
1005
287
1002
}
  0
ARC
  5
EB
100
AcDbEntity
  8
2D_PROFILE
100
AcDbCircle
 10
-3.548875
 20
9.330733
 30
0.0
 40
0.15
100
AcDbArc
 50
0.0
 51
60.0
1001
ACAD
1000
R13OBJECT
1002
{
1005
287
1002
}
  0
LINE
  5
EC
100
AcDbEntity
  8
2D_PROFILE
100
AcDbLine
 10
-3.398875
 20
9.119963
 30
0.0
 11
-3.398875
 21
9.330733
 31
0.0
1001
ACAD
1000
R13OBJECT
1002
{
1005
287
1002
}
  0
ARC
  5
ED
100
AcDbEntity
  8
2D_PROFILE
100
AcDbCircle
 10
-3.548875
 20
9.119963
 30
0.0
 40
0.15
100
AcDbArc
 50
300.0
 51
0.0
1001
ACAD
1000
R13OBJECT
1002
{
1005
287
1002
}
  0
LINE
  5
EE
100
AcDbEntity
  8
2D_PROFILE
100
AcDbLine
 10
-3.923875
 20
8.730252
 30
0.0
 11
-3.473875
 21
8.990059
 31
0.0
1001
ACAD
1000
R13OBJECT
1002
{
1005
287
1002
}
  0
ARC
  5
EF
100
AcDbEntity
  8
2D_PROFILE
100
AcDbCircle
 10
3.848875
 20
8.600348
 30
0.0
 40
0.15
210
0.0
220
0.0
230
-1.0
100
AcDbArc
 50
300.0
 51
60.0
1001
ACAD
1000
R13OBJECT
1002
{
1005
287
1002
}
  0
LINE
  5
F0
100
AcDbEntity
  8
2D_PROFILE
100
AcDbLine
 10
-3.473875
 20
8.210636
 30
0.0
 11
-3.923875
 21
8.470444
 31
0.0
1001
ACAD
1000
R13OBJECT
1002
{
1005
287
1002
}
  0
ARC
  5
F1
100
AcDbEntity
  8
2D_PROFILE
100
AcDbCircle
 10
-3.548875
 20
8.080733
 30
0.0
 40
0.15
100
AcDbArc
 50
0.0
 51
60.0
1001
ACAD
1000
R13OBJECT
1002
{
1005
287
1002
}
  0
LINE
  5
F2
100
AcDbEntity
  8
2D_PROFILE
100
AcDbLine
 10
-3.398875
 20
7.869963
 30
0.0
 11
-3.398875
 21
8.080733
 31
0.0
1001
ACAD
1000
R13OBJECT
1002
{
1005
287
1002
}
  0
ARC
  5
F3
100
AcDbEntity
  8
2D_PROFILE
100
AcDbCircle
 10
-3.548875
 20
7.869963
 30
0.0
 40
0.15
100
AcDbArc
 50
300.0
 51
0.0
1001
ACAD
1000
R13OBJECT
1002
{
1005
287
1002
}
  0
LINE
  5
F4
100
AcDbEntity
  8
2D_PROFILE
100
AcDbLine
 10
-3.923875
 20
7.480252
 30
0.0
 11
-3.473875
 21
7.740059
 31
0.0
1001
ACAD
1000
R13OBJECT
1002
{
1005
287
1002
}
  0
ARC
  5
F5
100
AcDbEntity
  8
2D_PROFILE
100
AcDbCircle
 10
3.848875
 20
7.350348
 30
0.0
 40
0.15
210
0.0
220
0.0
230
-1.0
100
AcDbArc
 50
300.0
 51
60.0
1001
ACAD
1000
R13OBJECT
1002
{
1005
287
1002
}
  0
LINE
  5
F6
100
AcDbEntity
  8
2D_PROFILE
100
AcDbLine
 10
-3.473875
 20
6.960636
 30
0.0
 11
-3.923875
 21
7.220444
 31
0.0
1001
ACAD
1000
R13OBJECT
1002
{
1005
287
1002
}
  0
ARC
  5
F7
100
AcDbEntity
  8
2D_PROFILE
100
AcDbCircle
 10
-3.548875
 20
6.830733
 30
0.0
 40
0.15
100
AcDbArc
 50
0.0
 51
60.0
1001
ACAD
1000
R13OBJECT
1002
{
1005
287
1002
}
  0
LINE
  5
F8
100
AcDbEntity
  8
2D_PROFILE
100
AcDbLine
 10
-3.398875
 20
6.619963
 30
0.0
 11
-3.398875
 21
6.830733
 31
0.0
1001
ACAD
1000
R13OBJECT
1002
{
1005
287
1002
}
  0
ARC
  5
F9
100
AcDbEntity
  8
2D_PROFILE
100
AcDbCircle
 10
-3.548875
 20
6.619963
 30
0.0
 40
0.15
100
AcDbArc
 50
300.0
 51
0.0
1001
ACAD
1000
R13OBJECT
1002
{
1005
287
1002
}
  0
LINE
  5
FA
100
AcDbEntity
  8
2D_PROFILE
100
AcDbLine
 10
-4.073875
 20
6.143649
 30
0.0
 11
-3.473875
 21
6.490059
 31
0.0
1001
ACAD
1000
R13OBJECT
1002
{
1005
287
1002
}
  0
ARC
  5
FB
100
AcDbEntity
  8
2D_PROFILE
100
AcDbCircle
 10
3.998875
 20
6.013745
 30
0.0
 40
0.15
210
0.0
220
0.0
230
-1.0
100
AcDbArc
 50
0.0
 51
60.0
1001
ACAD
1000
R13OBJECT
1002
{
1005
287
1002
}
  0
LINE
  5
FC
100
AcDbEntity
  8
2D_PROFILE
100
AcDbLine
 10
-4.148875
 20
5.226548
 30
0.0
 11
-4.148875
 21
6.013745
 31
0.0
1001
ACAD
1000
R13OBJECT
1002
{
1005
287
1002
}
  0
ARC
  5
FD
100
AcDbEntity
  8
2D_PROFILE
100
AcDbCircle
 10
3.148875
 20
5.226548
 30
0.0
 40
1.0
210
0.0
220
0.0
230
-1.0
100
AcDbArc
 50
243.256316
 51
0.0
1001
ACAD
1000
R13OBJECT
1002
{
1005
287
1002
}
  0
ARC
  5
FE
100
AcDbEntity
  8
2D_PROFILE
100
AcDbCircle
 10
15.604257
 20
16.878827
 30
0.0
 40
1.0
210
0.0
220
0.0
230
-1.0
100
AcDbArc
 50
315.0
 51
48.923303
1001
ACAD
1000
R13OBJECT
1002
{
1005
287
1002
}
  0
LINE
  5
FF
100
AcDbEntity
  8
2D_PROFILE
100
AcDbLine
 10
-7.705982
 20
7.566338
 30
0.0
 11
-16.311364
 21
16.17172
 31
0.0
1001
ACAD
1000
R13OBJECT
1002
{
1005
287
1002
}
  0
ARC
  5
100
100
AcDbEntity
  8
2D_PROFILE
100
AcDbCircle
 10
6.998875
 20
8.273445
 30
0.0
 40
1.0
210
0.0
220
0.0
230
-1.0
100
AcDbArc
 50
180.0
 51
315.0
1001
ACAD
1000
R13OBJECT
1002
{
1005
287
1002
}
  0
LINE
  5
101
100
AcDbEntity
  8
2D_PROFILE
100
AcDbLine
 10
-5.998875
 20
21.670336
 30
0.0
 11
-5.998875
 21
8.273445
 31
0.0
1001
ACAD
1000
R13OBJECT
1002
{
1005
287
1002
}
  0
ARC
  5
102
100
AcDbEntity
  8
2D_PROFILE
100
AcDbCircle
 10
6.998875
 20
21.670336
 30
0.0
 40
1.0
210
0.0
220
0.0
230
-1.0
100
AcDbArc
 50
72.858242
 51
180.0
1001
ACAD
1000
R13OBJECT
1002
{
1005
287
1002
}
  0
ARC
  5
103
100
AcDbEntity
  8
2D_PROFILE
100
AcDbCircle
 10
-0.001125
 20
-1.024652
 30
0.0
 40
24.75
210
0.0
220
0.0
230
-1.0
100
AcDbArc
 50
48.923303
 51
72.858242
1001
ACAD
1000
R13OBJECT
1002
{
1005
287
1002
}
  0
ARC
  5
104
100
AcDbEntity
  8
2D_PROFILE
100
AcDbCircle
 10
22.693864
 20
5.975348
 30
0.0
 40
1.0
210
0.0
220
0.0
230
-1.0
100
AcDbArc
 50
270.0
 51
17.141758
1001
ACAD
1000
R13OBJECT
1002
{
1005
287
1002
}
  0
LINE
  5
105
100
AcDbEntity
  8
2D_PROFILE
100
AcDbLine
 10
-9.296972
 20
4.975348
 30
0.0
 11
-22.693864
 21
4.975348
 31
0.0
1001
ACAD
1000
R13OBJECT
1002
{
1005
287
1002
}
  0
ARC
  5
106
100
AcDbEntity
  8
2D_PROFILE
100
AcDbCircle
 10
9.296972
 20
5.975348
 30
0.0
 40
1.0
210
0.0
220
0.0
230
-1.0
100
AcDbArc
 50
135.0
 51
270.0
1001
ACAD
1000
R13OBJECT
1002
{
1005
287
1002
}
  0
LINE
  5
107
100
AcDbEntity
  8
2D_PROFILE
100
AcDbLine
 10
-17.195247
 20
15.287836
 30
0.0
 11
-8.589866
 21
6.682455
 31
0.0
1001
ACAD
1000
R13OBJECT
1002
{
1005
287
1002
}
  0
ARC
  5
108
100
AcDbEntity
  8
2D_PROFILE
100
AcDbCircle
 10
17.902354
 20
14.58073
 30
0.0
 40
1.0
210
0.0
220
0.0
230
-1.0
100
AcDbArc
 50
41.076697
 51
135.0
1001
ACAD
1000
R13OBJECT
1002
{
1005
287
1002
}
  0
ARC
  5
109
100
AcDbEntity
  8
2D_PROFILE
100
AcDbCircle
 10
-0.001125
 20
-1.024652
 30
0.0
 40
24.75
210
0.0
220
0.0
230
-1.0
100
AcDbArc
 50
17.141758
 51
41.076697
1001
ACAD
1000
R13OBJECT
1002
{
1005
287
1002
}
  0
ARC
  5
10A
100
AcDbEntity
  8
2D_PROFILE
100
AcDbCircle
 10
0.001125
 20
-1.024652
 30
0.0
 40
6.0
100
AcDbArc
 50
153.256316
 51
206.743684
1001
ACAD
1000
R13OBJECT
1002
{
1005
287
1002
}
  0
ARC
  5
10B
100
AcDbEntity
  8
2D_PROFILE
100
AcDbCircle
 10
6.250075
 20
2.125348
 30
0.0
 40
1.0
210
0.0
220
0.0
230
-1.0
100
AcDbArc
 50
90.0
 51
206.743684
1001
ACAD
1000
R13OBJECT
1002
{
1005
287
1002
}
  0
LINE
  5
10C
100
AcDbEntity
  8
2D_PROFILE
100
AcDbLine
 10
-6.32567
 20
3.125348
 30
0.0
 11
-6.250075
 21
3.125348
 31
0.0
1001
ACAD
1000
R13OBJECT
1002
{
1005
287
1002
}
  0
ARC
  5
10D
100
AcDbEntity
  8
2D_PROFILE
100
AcDbCircle
 10
6.32567
 20
2.825348
 30
0.0
 40
0.3
210
0.0
220
0.0
230
-1.0
100
AcDbArc
 50
30.0
 51
90.0
1001
ACAD
1000
R13OBJECT
1002
{
1005
287
1002
}
  0
LINE
  5
10E
100
AcDbEntity
  8
2D_PROFILE
100
AcDbLine
 10
-6.888587
 20
2.450348
 30
0.0
 11
-6.585478
 21
2.975348
 31
0.0
1001
ACAD
1000
R13OBJECT
1002
{
1005
287
1002
}
  0
ARC
  5
10F
100
AcDbEntity
  8
2D_PROFILE
100
AcDbCircle
 10
-7.018491
 20
2.525348
 30
0.0
 40
0.15
100
AcDbArc
 50
270.0
 51
330.0
1001
ACAD
1000
R13OBJECT
1002
{
1005
287
1002
}
  0
LINE
  5
110
100
AcDbEntity
  8
2D_PROFILE
100
AcDbLine
 10
-7.22926
 20
2.375348
 30
0.0
 11
-7.018491
 21
2.375348
 31
0.0
1001
ACAD
1000
R13OBJECT
1002
{
1005
287
1002
}
  0
ARC
  5
111
100
AcDbEntity
  8
2D_PROFILE
100
AcDbCircle
 10
-7.22926
 20
2.525348
 30
0.0
 40
0.15
100
AcDbArc
 50
210.0
 51
270.0
1001
ACAD
1000
R13OBJECT
1002
{
1005
287
1002
}
  0
LINE
  5
112
100
AcDbEntity
  8
2D_PROFILE
100
AcDbLine
 10
-7.618972
 20
2.900348
 30
0.0
 11
-7.359164
 21
2.450348
 31
0.0
1001
ACAD
1000
R13OBJECT
1002
{
1005
287
1002
}
  0
ARC
  5
113
100
AcDbEntity
  8
2D_PROFILE
100
AcDbCircle
 10
7.748875
 20
2.825348
 30
0.0
 40
0.15
210
0.0
220
0.0
230
-1.0
100
AcDbArc
 50
30.0
 51
150.0
1001
ACAD
1000
R13OBJECT
1002
{
1005
287
1002
}
  0
LINE
  5
114
100
AcDbEntity
  8
2D_PROFILE
100
AcDbLine
 10
-8.138587
 20
2.450348
 30
0.0
 11
-7.878779
 21
2.900348
 31
0.0
1001
ACAD
1000
R13OBJECT
1002
{
1005
287
1002
}
  0
ARC
  5
115
100
AcDbEntity
  8
2D_PROFILE
100
AcDbCircle
 10
-8.268491
 20
2.525348
 30
0.0
 40
0.15
100
AcDbArc
 50
270.0
 51
330.0
1001
ACAD
1000
R13OBJECT
1002
{
1005
287
1002
}
  0
LINE
  5
116
100
AcDbEntity
  8
2D_PROFILE
100
AcDbLine
 10
-8.47926
 20
2.375348
 30
0.0
 11
-8.268491
 21
2.375348
 31
0.0
1001
ACAD
1000
R13OBJECT
1002
{
1005
287
1002
}
  0
ARC
  5
117
100
AcDbEntity
  8
2D_PROFILE
100
AcDbCircle
 10
-8.47926
 20
2.525348
 30
0.0
 40
0.15
100
AcDbArc
 50
210.0
 51
270.0
1001
ACAD
1000
R13OBJECT
1002
{
1005
287
1002
}
  0
LINE
  5
118
100
AcDbEntity
  8
2D_PROFILE
100
AcDbLine
 10
-8.868972
 20
2.900348
 30
0.0
 11
-8.609164
 21
2.450348
 31
0.0
1001
ACAD
1000
R13OBJECT
1002
{
1005
287
1002
}
  0
ARC
  5
119
100
AcDbEntity
  8
2D_PROFILE
100
AcDbCircle
 10
8.998875
 20
2.825348
 30
0.0
 40
0.15
210
0.0
220
0.0
230
-1.0
100
AcDbArc
 50
30.0
 51
150.0
1001
ACAD
1000
R13OBJECT
1002
{
1005
287
1002
}
  0
LINE
  5
11A
100
AcDbEntity
  8
2D_PROFILE
100
AcDbLine
 10
-9.388587
 20
2.450348
 30
0.0
 11
-9.128779
 21
2.900348
 31
0.0
1001
ACAD
1000
R13OBJECT
1002
{
1005
287
1002
}
  0
ARC
  5
11B
100
AcDbEntity
  8
2D_PROFILE
100
AcDbCircle
 10
-9.518491
 20
2.525348
 30
0.0
 40
0.15
100
AcDbArc
 50
270.0
 51
330.0
1001
ACAD
1000
R13OBJECT
1002
{
1005
287
1002
}
  0
LINE
  5
11C
100
AcDbEntity
  8
2D_PROFILE
100
AcDbLine
 10
-9.72926
 20
2.375348
 30
0.0
 11
-9.518491
 21
2.375348
 31
0.0
1001
ACAD
1000
R13OBJECT
1002
{
1005
287
1002
}
  0
ARC
  5
11D
100
AcDbEntity
  8
2D_PROFILE
100
AcDbCircle
 10
-9.72926
 20
2.525348
 30
0.0
 40
0.15
100
AcDbArc
 50
210.0
 51
270.0
1001
ACAD
1000
R13OBJECT
1002
{
1005
287
1002
}
  0
LINE
  5
11E
100
AcDbEntity
  8
2D_PROFILE
100
AcDbLine
 10
-10.118972
 20
2.900348
 30
0.0
 11
-9.859164
 21
2.450348
 31
0.0
1001
ACAD
1000
R13OBJECT
1002
{
1005
287
1002
}
  0
ARC
  5
11F
100
AcDbEntity
  8
2D_PROFILE
100
AcDbCircle
 10
10.248875
 20
2.825348
 30
0.0
 40
0.15
210
0.0
220
0.0
230
-1.0
100
AcDbArc
 50
30.0
 51
150.0
1001
ACAD
1000
R13OBJECT
1002
{
1005
287
1002
}
  0
LINE
  5
120
100
AcDbEntity
  8
2D_PROFILE
100
AcDbLine
 10
-10.638587
 20
2.450348
 30
0.0
 11
-10.378779
 21
2.900348
 31
0.0
1001
ACAD
1000
R13OBJECT
1002
{
1005
287
1002
}
  0
ARC
  5
121
100
AcDbEntity
  8
2D_PROFILE
100
AcDbCircle
 10
-10.768491
 20
2.525348
 30
0.0
 40
0.15
100
AcDbArc
 50
270.0
 51
330.0
1001
ACAD
1000
R13OBJECT
1002
{
1005
287
1002
}
  0
LINE
  5
122
100
AcDbEntity
  8
2D_PROFILE
100
AcDbLine
 10
-10.97926
 20
2.375348
 30
0.0
 11
-10.768491
 21
2.375348
 31
0.0
1001
ACAD
1000
R13OBJECT
1002
{
1005
287
1002
}
  0
ARC
  5
123
100
AcDbEntity
  8
2D_PROFILE
100
AcDbCircle
 10
-10.97926
 20
2.525348
 30
0.0
 40
0.15
100
AcDbArc
 50
210.0
 51
270.0
1001
ACAD
1000
R13OBJECT
1002
{
1005
287
1002
}
  0
LINE
  5
124
100
AcDbEntity
  8
2D_PROFILE
100
AcDbLine
 10
-11.368972
 20
2.900348
 30
0.0
 11
-11.109164
 21
2.450348
 31
0.0
1001
ACAD
1000
R13OBJECT
1002
{
1005
287
1002
}
  0
ARC
  5
125
100
AcDbEntity
  8
2D_PROFILE
100
AcDbCircle
 10
11.498875
 20
2.825348
 30
0.0
 40
0.15
210
0.0
220
0.0
230
-1.0
100
AcDbArc
 50
30.0
 51
150.0
1001
ACAD
1000
R13OBJECT
1002
{
1005
287
1002
}
  0
LINE
  5
126
100
AcDbEntity
  8
2D_PROFILE
100
AcDbLine
 10
-11.888587
 20
2.450348
 30
0.0
 11
-11.628779
 21
2.900348
 31
0.0
1001
ACAD
1000
R13OBJECT
1002
{
1005
287
1002
}
  0
ARC
  5
127
100
AcDbEntity
  8
2D_PROFILE
100
AcDbCircle
 10
-12.018491
 20
2.525348
 30
0.0
 40
0.15
100
AcDbArc
 50
270.0
 51
330.0
1001
ACAD
1000
R13OBJECT
1002
{
1005
287
1002
}
  0
LINE
  5
128
100
AcDbEntity
  8
2D_PROFILE
100
AcDbLine
 10
-12.22926
 20
2.375348
 30
0.0
 11
-12.018491
 21
2.375348
 31
0.0
1001
ACAD
1000
R13OBJECT
1002
{
1005
287
1002
}
  0
ARC
  5
129
100
AcDbEntity
  8
2D_PROFILE
100
AcDbCircle
 10
-12.22926
 20
2.525348
 30
0.0
 40
0.15
100
AcDbArc
 50
210.0
 51
270.0
1001
ACAD
1000
R13OBJECT
1002
{
1005
287
1002
}
  0
LINE
  5
12A
100
AcDbEntity
  8
2D_PROFILE
100
AcDbLine
 10
-12.618972
 20
2.900348
 30
0.0
 11
-12.359164
 21
2.450348
 31
0.0
1001
ACAD
1000
R13OBJECT
1002
{
1005
287
1002
}
  0
ARC
  5
12B
100
AcDbEntity
  8
2D_PROFILE
100
AcDbCircle
 10
12.748875
 20
2.825348
 30
0.0
 40
0.15
210
0.0
220
0.0
230
-1.0
100
AcDbArc
 50
30.0
 51
150.0
1001
ACAD
1000
R13OBJECT
1002
{
1005
287
1002
}
  0
LINE
  5
12C
100
AcDbEntity
  8
2D_PROFILE
100
AcDbLine
 10
-13.138587
 20
2.450348
 30
0.0
 11
-12.878779
 21
2.900348
 31
0.0
1001
ACAD
1000
R13OBJECT
1002
{
1005
287
1002
}
  0
ARC
  5
12D
100
AcDbEntity
  8
2D_PROFILE
100
AcDbCircle
 10
-13.268491
 20
2.525348
 30
0.0
 40
0.15
100
AcDbArc
 50
270.0
 51
330.0
1001
ACAD
1000
R13OBJECT
1002
{
1005
287
1002
}
  0
LINE
  5
12E
100
AcDbEntity
  8
2D_PROFILE
100
AcDbLine
 10
-13.47926
 20
2.375348
 30
0.0
 11
-13.268491
 21
2.375348
 31
0.0
1001
ACAD
1000
R13OBJECT
1002
{
1005
287
1002
}
  0
ARC
  5
12F
100
AcDbEntity
  8
2D_PROFILE
100
AcDbCircle
 10
-13.47926
 20
2.525348
 30
0.0
 40
0.15
100
AcDbArc
 50
210.0
 51
270.0
1001
ACAD
1000
R13OBJECT
1002
{
1005
287
1002
}
  0
LINE
  5
130
100
AcDbEntity
  8
2D_PROFILE
100
AcDbLine
 10
-13.868972
 20
2.900348
 30
0.0
 11
-13.609164
 21
2.450348
 31
0.0
1001
ACAD
1000
R13OBJECT
1002
{
1005
287
1002
}
  0
ARC
  5
131
100
AcDbEntity
  8
2D_PROFILE
100
AcDbCircle
 10
13.998875
 20
2.825348
 30
0.0
 40
0.15
210
0.0
220
0.0
230
-1.0
100
AcDbArc
 50
30.0
 51
150.0
1001
ACAD
1000
R13OBJECT
1002
{
1005
287
1002
}
  0
LINE
  5
132
100
AcDbEntity
  8
2D_PROFILE
100
AcDbLine
 10
-14.388587
 20
2.450348
 30
0.0
 11
-14.128779
 21
2.900348
 31
0.0
1001
ACAD
1000
R13OBJECT
1002
{
1005
287
1002
}
  0
ARC
  5
133
100
AcDbEntity
  8
2D_PROFILE
100
AcDbCircle
 10
-14.518491
 20
2.525348
 30
0.0
 40
0.15
100
AcDbArc
 50
270.0
 51
330.0
1001
ACAD
1000
R13OBJECT
1002
{
1005
287
1002
}
  0
LINE
  5
134
100
AcDbEntity
  8
2D_PROFILE
100
AcDbLine
 10
-14.72926
 20
2.375348
 30
0.0
 11
-14.518491
 21
2.375348
 31
0.0
1001
ACAD
1000
R13OBJECT
1002
{
1005
287
1002
}
  0
ARC
  5
135
100
AcDbEntity
  8
2D_PROFILE
100
AcDbCircle
 10
-14.72926
 20
2.525348
 30
0.0
 40
0.15
100
AcDbArc
 50
210.0
 51
270.0
1001
ACAD
1000
R13OBJECT
1002
{
1005
287
1002
}
  0
LINE
  5
136
100
AcDbEntity
  8
2D_PROFILE
100
AcDbLine
 10
-15.118972
 20
2.900348
 30
0.0
 11
-14.859164
 21
2.450348
 31
0.0
1001
ACAD
1000
R13OBJECT
1002
{
1005
287
1002
}
  0
ARC
  5
137
100
AcDbEntity
  8
2D_PROFILE
100
AcDbCircle
 10
15.248875
 20
2.825348
 30
0.0
 40
0.15
210
0.0
220
0.0
230
-1.0
100
AcDbArc
 50
30.0
 51
150.0
1001
ACAD
1000
R13OBJECT
1002
{
1005
287
1002
}
  0
LINE
  5
138
100
AcDbEntity
  8
2D_PROFILE
100
AcDbLine
 10
-15.638587
 20
2.450348
 30
0.0
 11
-15.378779
 21
2.900348
 31
0.0
1001
ACAD
1000
R13OBJECT
1002
{
1005
287
1002
}
  0
ARC
  5
139
100
AcDbEntity
  8
2D_PROFILE
100
AcDbCircle
 10
-15.768491
 20
2.525348
 30
0.0
 40
0.15
100
AcDbArc
 50
270.0
 51
330.0
1001
ACAD
1000
R13OBJECT
1002
{
1005
287
1002
}
  0
LINE
  5
13A
100
AcDbEntity
  8
2D_PROFILE
100
AcDbLine
 10
-15.97926
 20
2.375348
 30
0.0
 11
-15.768491
 21
2.375348
 31
0.0
1001
ACAD
1000
R13OBJECT
1002
{
1005
287
1002
}
  0
ARC
  5
13B
100
AcDbEntity
  8
2D_PROFILE
100
AcDbCircle
 10
-15.97926
 20
2.525348
 30
0.0
 40
0.15
100
AcDbArc
 50
210.0
 51
270.0
1001
ACAD
1000
R13OBJECT
1002
{
1005
287
1002
}
  0
LINE
  5
13C
100
AcDbEntity
  8
2D_PROFILE
100
AcDbLine
 10
-16.368972
 20
2.900348
 30
0.0
 11
-16.109164
 21
2.450348
 31
0.0
1001
ACAD
1000
R13OBJECT
1002
{
1005
287
1002
}
  0
ARC
  5
13D
100
AcDbEntity
  8
2D_PROFILE
100
AcDbCircle
 10
16.498875
 20
2.825348
 30
0.0
 40
0.15
210
0.0
220
0.0
230
-1.0
100
AcDbArc
 50
30.0
 51
150.0
1001
ACAD
1000
R13OBJECT
1002
{
1005
287
1002
}
  0
LINE
  5
13E
100
AcDbEntity
  8
2D_PROFILE
100
AcDbLine
 10
-16.888587
 20
2.450348
 30
0.0
 11
-16.628779
 21
2.900348
 31
0.0
1001
ACAD
1000
R13OBJECT
1002
{
1005
287
1002
}
  0
ARC
  5
13F
100
AcDbEntity
  8
2D_PROFILE
100
AcDbCircle
 10
-17.018491
 20
2.525348
 30
0.0
 40
0.15
100
AcDbArc
 50
270.0
 51
330.0
1001
ACAD
1000
R13OBJECT
1002
{
1005
287
1002
}
  0
LINE
  5
140
100
AcDbEntity
  8
2D_PROFILE
100
AcDbLine
 10
-17.22926
 20
2.375348
 30
0.0
 11
-17.018491
 21
2.375348
 31
0.0
1001
ACAD
1000
R13OBJECT
1002
{
1005
287
1002
}
  0
ARC
  5
141
100
AcDbEntity
  8
2D_PROFILE
100
AcDbCircle
 10
-17.22926
 20
2.525348
 30
0.0
 40
0.15
100
AcDbArc
 50
210.0
 51
270.0
1001
ACAD
1000
R13OBJECT
1002
{
1005
287
1002
}
  0
LINE
  5
142
100
AcDbEntity
  8
2D_PROFILE
100
AcDbLine
 10
-17.618972
 20
2.900348
 30
0.0
 11
-17.359164
 21
2.450348
 31
0.0
1001
ACAD
1000
R13OBJECT
1002
{
1005
287
1002
}
  0
ARC
  5
143
100
AcDbEntity
  8
2D_PROFILE
100
AcDbCircle
 10
17.748875
 20
2.825348
 30
0.0
 40
0.15
210
0.0
220
0.0
230
-1.0
100
AcDbArc
 50
30.0
 51
150.0
1001
ACAD
1000
R13OBJECT
1002
{
1005
287
1002
}
  0
LINE
  5
144
100
AcDbEntity
  8
2D_PROFILE
100
AcDbLine
 10
-18.138587
 20
2.450348
 30
0.0
 11
-17.878779
 21
2.900348
 31
0.0
1001
ACAD
1000
R13OBJECT
1002
{
1005
287
1002
}
  0
ARC
  5
145
100
AcDbEntity
  8
2D_PROFILE
100
AcDbCircle
 10
-18.268491
 20
2.525348
 30
0.0
 40
0.15
100
AcDbArc
 50
270.0
 51
330.0
1001
ACAD
1000
R13OBJECT
1002
{
1005
287
1002
}
  0
LINE
  5
146
100
AcDbEntity
  8
2D_PROFILE
100
AcDbLine
 10
-18.47926
 20
2.375348
 30
0.0
 11
-18.268491
 21
2.375348
 31
0.0
1001
ACAD
1000
R13OBJECT
1002
{
1005
287
1002
}
  0
ARC
  5
147
100
AcDbEntity
  8
2D_PROFILE
100
AcDbCircle
 10
-18.47926
 20
2.525348
 30
0.0
 40
0.15
100
AcDbArc
 50
210.0
 51
270.0
1001
ACAD
1000
R13OBJECT
1002
{
1005
287
1002
}
  0
LINE
  5
148
100
AcDbEntity
  8
2D_PROFILE
100
AcDbLine
 10
-18.868972
 20
2.900348
 30
0.0
 11
-18.609164
 21
2.450348
 31
0.0
1001
ACAD
1000
R13OBJECT
1002
{
1005
287
1002
}
  0
ARC
  5
149
100
AcDbEntity
  8
2D_PROFILE
100
AcDbCircle
 10
18.998875
 20
2.825348
 30
0.0
 40
0.15
210
0.0
220
0.0
230
-1.0
100
AcDbArc
 50
30.0
 51
150.0
1001
ACAD
1000
R13OBJECT
1002
{
1005
287
1002
}
  0
LINE
  5
14A
100
AcDbEntity
  8
2D_PROFILE
100
AcDbLine
 10
-19.388587
 20
2.450348
 30
0.0
 11
-19.128779
 21
2.900348
 31
0.0
1001
ACAD
1000
R13OBJECT
1002
{
1005
287
1002
}
  0
ARC
  5
14B
100
AcDbEntity
  8
2D_PROFILE
100
AcDbCircle
 10
-19.518491
 20
2.525348
 30
0.0
 40
0.15
100
AcDbArc
 50
270.0
 51
330.0
1001
ACAD
1000
R13OBJECT
1002
{
1005
287
1002
}
  0
LINE
  5
14C
100
AcDbEntity
  8
2D_PROFILE
100
AcDbLine
 10
-19.72926
 20
2.375348
 30
0.0
 11
-19.518491
 21
2.375348
 31
0.0
1001
ACAD
1000
R13OBJECT
1002
{
1005
287
1002
}
  0
ARC
  5
14D
100
AcDbEntity
  8
2D_PROFILE
100
AcDbCircle
 10
-19.72926
 20
2.525348
 30
0.0
 40
0.15
100
AcDbArc
 50
210.0
 51
270.0
1001
ACAD
1000
R13OBJECT
1002
{
1005
287
1002
}
  0
LINE
  5
14E
100
AcDbEntity
  8
2D_PROFILE
100
AcDbLine
 10
-20.118972
 20
2.900348
 30
0.0
 11
-19.859164
 21
2.450348
 31
0.0
1001
ACAD
1000
R13OBJECT
1002
{
1005
287
1002
}
  0
ARC
  5
14F
100
AcDbEntity
  8
2D_PROFILE
100
AcDbCircle
 10
20.248875
 20
2.825348
 30
0.0
 40
0.15
210
0.0
220
0.0
230
-1.0
100
AcDbArc
 50
30.0
 51
150.0
1001
ACAD
1000
R13OBJECT
1002
{
1005
287
1002
}
  0
LINE
  5
150
100
AcDbEntity
  8
2D_PROFILE
100
AcDbLine
 10
-20.638587
 20
2.450348
 30
0.0
 11
-20.378779
 21
2.900348
 31
0.0
1001
ACAD
1000
R13OBJECT
1002
{
1005
287
1002
}
  0
ARC
  5
151
100
AcDbEntity
  8
2D_PROFILE
100
AcDbCircle
 10
-20.768491
 20
2.525348
 30
0.0
 40
0.15
100
AcDbArc
 50
270.0
 51
330.0
1001
ACAD
1000
R13OBJECT
1002
{
1005
287
1002
}
  0
LINE
  5
152
100
AcDbEntity
  8
2D_PROFILE
100
AcDbLine
 10
-20.97926
 20
2.375348
 30
0.0
 11
-20.768491
 21
2.375348
 31
0.0
1001
ACAD
1000
R13OBJECT
1002
{
1005
287
1002
}
  0
ARC
  5
153
100
AcDbEntity
  8
2D_PROFILE
100
AcDbCircle
 10
-20.97926
 20
2.525348
 30
0.0
 40
0.15
100
AcDbArc
 50
210.0
 51
270.0
1001
ACAD
1000
R13OBJECT
1002
{
1005
287
1002
}
  0
LINE
  5
154
100
AcDbEntity
  8
2D_PROFILE
100
AcDbLine
 10
-21.368972
 20
2.900348
 30
0.0
 11
-21.109164
 21
2.450348
 31
0.0
1001
ACAD
1000
R13OBJECT
1002
{
1005
287
1002
}
  0
ARC
  5
155
100
AcDbEntity
  8
2D_PROFILE
100
AcDbCircle
 10
21.498875
 20
2.825348
 30
0.0
 40
0.15
210
0.0
220
0.0
230
-1.0
100
AcDbArc
 50
30.0
 51
150.0
1001
ACAD
1000
R13OBJECT
1002
{
1005
287
1002
}
  0
LINE
  5
156
100
AcDbEntity
  8
2D_PROFILE
100
AcDbLine
 10
-21.888587
 20
2.450348
 30
0.0
 11
-21.628779
 21
2.900348
 31
0.0
1001
ACAD
1000
R13OBJECT
1002
{
1005
287
1002
}
  0
ARC
  5
157
100
AcDbEntity
  8
2D_PROFILE
100
AcDbCircle
 10
-22.018491
 20
2.525348
 30
0.0
 40
0.15
100
AcDbArc
 50
270.0
 51
330.0
1001
ACAD
1000
R13OBJECT
1002
{
1005
287
1002
}
  0
LINE
  5
158
100
AcDbEntity
  8
2D_PROFILE
100
AcDbLine
 10
-22.22926
 20
2.375348
 30
0.0
 11
-22.018491
 21
2.375348
 31
0.0
1001
ACAD
1000
R13OBJECT
1002
{
1005
287
1002
}
  0
ARC
  5
159
100
AcDbEntity
  8
2D_PROFILE
100
AcDbCircle
 10
-22.22926
 20
2.525348
 30
0.0
 40
0.15
100
AcDbArc
 50
210.0
 51
270.0
1001
ACAD
1000
R13OBJECT
1002
{
1005
287
1002
}
  0
LINE
  5
15A
100
AcDbEntity
  8
2D_PROFILE
100
AcDbLine
 10
-22.618972
 20
2.900348
 30
0.0
 11
-22.359164
 21
2.450348
 31
0.0
1001
ACAD
1000
R13OBJECT
1002
{
1005
287
1002
}
  0
ARC
  5
15B
100
AcDbEntity
  8
2D_PROFILE
100
AcDbCircle
 10
22.748875
 20
2.825348
 30
0.0
 40
0.15
210
0.0
220
0.0
230
-1.0
100
AcDbArc
 50
30.0
 51
150.0
1001
ACAD
1000
R13OBJECT
1002
{
1005
287
1002
}
  0
LINE
  5
15C
100
AcDbEntity
  8
2D_PROFILE
100
AcDbLine
 10
-23.138587
 20
2.450348
 30
0.0
 11
-22.878779
 21
2.900348
 31
0.0
1001
ACAD
1000
R13OBJECT
1002
{
1005
287
1002
}
  0
ARC
  5
15D
100
AcDbEntity
  8
2D_PROFILE
100
AcDbCircle
 10
-23.268491
 20
2.525348
 30
0.0
 40
0.15
100
AcDbArc
 50
270.0
 51
330.0
1001
ACAD
1000
R13OBJECT
1002
{
1005
287
1002
}
  0
LINE
  5
15E
100
AcDbEntity
  8
2D_PROFILE
100
AcDbLine
 10
-23.47926
 20
2.375348
 30
0.0
 11
-23.268491
 21
2.375348
 31
0.0
1001
ACAD
1000
R13OBJECT
1002
{
1005
287
1002
}
  0
ARC
  5
15F
100
AcDbEntity
  8
2D_PROFILE
100
AcDbCircle
 10
-23.47926
 20
2.525348
 30
0.0
 40
0.15
100
AcDbArc
 50
210.0
 51
270.0
1001
ACAD
1000
R13OBJECT
1002
{
1005
287
1002
}
  0
LINE
  5
160
100
AcDbEntity
  8
2D_PROFILE
100
AcDbLine
 10
-23.868972
 20
2.900348
 30
0.0
 11
-23.609164
 21
2.450348
 31
0.0
1001
ACAD
1000
R13OBJECT
1002
{
1005
287
1002
}
  0
ARC
  5
161
100
AcDbEntity
  8
2D_PROFILE
100
AcDbCircle
 10
23.998875
 20
2.825348
 30
0.0
 40
0.15
210
0.0
220
0.0
230
-1.0
100
AcDbArc
 50
30.0
 51
150.0
1001
ACAD
1000
R13OBJECT
1002
{
1005
287
1002
}
  0
LINE
  5
162
100
AcDbEntity
  8
2D_PROFILE
100
AcDbLine
 10
-24.388587
 20
2.450348
 30
0.0
 11
-24.128779
 21
2.900348
 31
0.0
1001
ACAD
1000
R13OBJECT
1002
{
1005
287
1002
}
  0
ARC
  5
163
100
AcDbEntity
  8
2D_PROFILE
100
AcDbCircle
 10
-24.518491
 20
2.525348
 30
0.0
 40
0.15
100
AcDbArc
 50
295.819333
 51
330.0
1001
ACAD
1000
R13OBJECT
1002
{
1005
287
1002
}
  0
ARC
  5
164
100
AcDbEntity
  8
2D_PROFILE
100
AcDbCircle
 10
24.377732
 20
2.25961
 30
0.0
 40
0.150914
210
0.0
220
0.0
230
-1.0
100
AcDbArc
 50
7.757186
 51
60.012664
1001
ACAD
1000
R13OBJECT
1002
{
1005
287
1002
}
  0
ARC
  5
165
100
AcDbEntity
  8
2D_PROFILE
100
AcDbCircle
 10
-0.001125
 20
-1.024652
 30
0.0
 40
24.75
210
0.0
220
0.0
230
-1.0
100
AcDbArc
 50
352.059854
 51
7.673075
1001
ACAD
1000
R13OBJECT
1002
{
1005
287
1002
}
  0
ARC
  5
166
100
AcDbEntity
  8
2D_PROFILE
100
AcDbCircle
 10
24.363024
 20
-4.422851
 30
0.0
 40
0.150011
210
0.0
220
0.0
230
-1.0
100
AcDbArc
 50
210.795185
 51
352.056937
1001
ACAD
1000
R13OBJECT
1002
{
1005
287
1002
}
  0
ARC
  5
167
100
AcDbEntity
  8
2D_PROFILE
100
AcDbCircle
 10
-24.10426
 20
-4.574652
 30
0.0
 40
0.15
100
AcDbArc
 50
90.0
 51
150.0
1001
ACAD
1000
R13OBJECT
1002
{
1005
287
1002
}
  0
LINE
  5
168
100
AcDbEntity
  8
2D_PROFILE
100
AcDbLine
 10
-23.893491
 20
-4.424652
 30
0.0
 11
-24.10426
 21
-4.424652
 31
0.0
1001
ACAD
1000
R13OBJECT
1002
{
1005
287
1002
}
  0
ARC
  5
169
100
AcDbEntity
  8
2D_PROFILE
100
AcDbCircle
 10
-23.893491
 20
-4.574652
 30
0.0
 40
0.15
100
AcDbArc
 50
30.0
 51
90.0
1001
ACAD
1000
R13OBJECT
1002
{
1005
287
1002
}
  0
LINE
  5
16A
100
AcDbEntity
  8
2D_PROFILE
100
AcDbLine
 10
-23.503779
 20
-4.949652
 30
0.0
 11
-23.763587
 21
-4.499652
 31
0.0
1001
ACAD
1000
R13OBJECT
1002
{
1005
287
1002
}
  0
ARC
  5
16B
100
AcDbEntity
  8
2D_PROFILE
100
AcDbCircle
 10
23.373875
 20
-4.874652
 30
0.0
 40
0.15
210
0.0
220
0.0
230
-1.0
100
AcDbArc
 50
210.0
 51
330.0
1001
ACAD
1000
R13OBJECT
1002
{
1005
287
1002
}
  0
LINE
  5
16C
100
AcDbEntity
  8
2D_PROFILE
100
AcDbLine
 10
-22.984164
 20
-4.499652
 30
0.0
 11
-23.243972
 21
-4.949652
 31
0.0
1001
ACAD
1000
R13OBJECT
1002
{
1005
287
1002
}
  0
ARC
  5
16D
100
AcDbEntity
  8
2D_PROFILE
100
AcDbCircle
 10
-22.85426
 20
-4.574652
 30
0.0
 40
0.15
100
AcDbArc
 50
90.0
 51
150.0
1001
ACAD
1000
R13OBJECT
1002
{
1005
287
1002
}
  0
LINE
  5
16E
100
AcDbEntity
  8
2D_PROFILE
100
AcDbLine
 10
-22.643491
 20
-4.424652
 30
0.0
 11
-22.85426
 21
-4.424652
 31
0.0
1001
ACAD
1000
R13OBJECT
1002
{
1005
287
1002
}
  0
ARC
  5
16F
100
AcDbEntity
  8
2D_PROFILE
100
AcDbCircle
 10
-22.643491
 20
-4.574652
 30
0.0
 40
0.15
100
AcDbArc
 50
30.0
 51
90.0
1001
ACAD
1000
R13OBJECT
1002
{
1005
287
1002
}
  0
LINE
  5
170
100
AcDbEntity
  8
2D_PROFILE
100
AcDbLine
 10
-22.253779
 20
-4.949652
 30
0.0
 11
-22.513587
 21
-4.499652
 31
0.0
1001
ACAD
1000
R13OBJECT
1002
{
1005
287
1002
}
  0
ARC
  5
171
100
AcDbEntity
  8
2D_PROFILE
100
AcDbCircle
 10
22.123875
 20
-4.874652
 30
0.0
 40
0.15
210
0.0
220
0.0
230
-1.0
100
AcDbArc
 50
210.0
 51
330.0
1001
ACAD
1000
R13OBJECT
1002
{
1005
287
1002
}
  0
LINE
  5
172
100
AcDbEntity
  8
2D_PROFILE
100
AcDbLine
 10
-21.734164
 20
-4.499652
 30
0.0
 11
-21.993972
 21
-4.949652
 31
0.0
1001
ACAD
1000
R13OBJECT
1002
{
1005
287
1002
}
  0
ARC
  5
173
100
AcDbEntity
  8
2D_PROFILE
100
AcDbCircle
 10
-21.60426
 20
-4.574652
 30
0.0
 40
0.15
100
AcDbArc
 50
90.0
 51
150.0
1001
ACAD
1000
R13OBJECT
1002
{
1005
287
1002
}
  0
LINE
  5
174
100
AcDbEntity
  8
2D_PROFILE
100
AcDbLine
 10
-21.393491
 20
-4.424652
 30
0.0
 11
-21.60426
 21
-4.424652
 31
0.0
1001
ACAD
1000
R13OBJECT
1002
{
1005
287
1002
}
  0
ARC
  5
175
100
AcDbEntity
  8
2D_PROFILE
100
AcDbCircle
 10
-21.393491
 20
-4.574652
 30
0.0
 40
0.15
100
AcDbArc
 50
30.0
 51
90.0
1001
ACAD
1000
R13OBJECT
1002
{
1005
287
1002
}
  0
LINE
  5
176
100
AcDbEntity
  8
2D_PROFILE
100
AcDbLine
 10
-21.003779
 20
-4.949652
 30
0.0
 11
-21.263587
 21
-4.499652
 31
0.0
1001
ACAD
1000
R13OBJECT
1002
{
1005
287
1002
}
  0
ARC
  5
177
100
AcDbEntity
  8
2D_PROFILE
100
AcDbCircle
 10
20.873875
 20
-4.874652
 30
0.0
 40
0.15
210
0.0
220
0.0
230
-1.0
100
AcDbArc
 50
210.0
 51
330.0
1001
ACAD
1000
R13OBJECT
1002
{
1005
287
1002
}
  0
LINE
  5
178
100
AcDbEntity
  8
2D_PROFILE
100
AcDbLine
 10
-20.484164
 20
-4.499652
 30
0.0
 11
-20.743972
 21
-4.949652
 31
0.0
1001
ACAD
1000
R13OBJECT
1002
{
1005
287
1002
}
  0
ARC
  5
179
100
AcDbEntity
  8
2D_PROFILE
100
AcDbCircle
 10
-20.35426
 20
-4.574652
 30
0.0
 40
0.15
100
AcDbArc
 50
90.0
 51
150.0
1001
ACAD
1000
R13OBJECT
1002
{
1005
287
1002
}
  0
LINE
  5
17A
100
AcDbEntity
  8
2D_PROFILE
100
AcDbLine
 10
-20.143491
 20
-4.424652
 30
0.0
 11
-20.35426
 21
-4.424652
 31
0.0
1001
ACAD
1000
R13OBJECT
1002
{
1005
287
1002
}
  0
ARC
  5
17B
100
AcDbEntity
  8
2D_PROFILE
100
AcDbCircle
 10
-20.143491
 20
-4.574652
 30
0.0
 40
0.15
100
AcDbArc
 50
30.0
 51
90.0
1001
ACAD
1000
R13OBJECT
1002
{
1005
287
1002
}
  0
LINE
  5
17C
100
AcDbEntity
  8
2D_PROFILE
100
AcDbLine
 10
-19.753779
 20
-4.949652
 30
0.0
 11
-20.013587
 21
-4.499652
 31
0.0
1001
ACAD
1000
R13OBJECT
1002
{
1005
287
1002
}
  0
ARC
  5
17D
100
AcDbEntity
  8
2D_PROFILE
100
AcDbCircle
 10
19.623875
 20
-4.874652
 30
0.0
 40
0.15
210
0.0
220
0.0
230
-1.0
100
AcDbArc
 50
210.0
 51
330.0
1001
ACAD
1000
R13OBJECT
1002
{
1005
287
1002
}
  0
LINE
  5
17E
100
AcDbEntity
  8
2D_PROFILE
100
AcDbLine
 10
-19.234164
 20
-4.499652
 30
0.0
 11
-19.493972
 21
-4.949652
 31
0.0
1001
ACAD
1000
R13OBJECT
1002
{
1005
287
1002
}
  0
ARC
  5
17F
100
AcDbEntity
  8
2D_PROFILE
100
AcDbCircle
 10
-19.10426
 20
-4.574652
 30
0.0
 40
0.15
100
AcDbArc
 50
90.0
 51
150.0
1001
ACAD
1000
R13OBJECT
1002
{
1005
287
1002
}
  0
LINE
  5
180
100
AcDbEntity
  8
2D_PROFILE
100
AcDbLine
 10
-18.893491
 20
-4.424652
 30
0.0
 11
-19.10426
 21
-4.424652
 31
0.0
1001
ACAD
1000
R13OBJECT
1002
{
1005
287
1002
}
  0
ARC
  5
181
100
AcDbEntity
  8
2D_PROFILE
100
AcDbCircle
 10
-18.893491
 20
-4.574652
 30
0.0
 40
0.15
100
AcDbArc
 50
30.0
 51
90.0
1001
ACAD
1000
R13OBJECT
1002
{
1005
287
1002
}
  0
LINE
  5
182
100
AcDbEntity
  8
2D_PROFILE
100
AcDbLine
 10
-18.503779
 20
-4.949652
 30
0.0
 11
-18.763587
 21
-4.499652
 31
0.0
1001
ACAD
1000
R13OBJECT
1002
{
1005
287
1002
}
  0
ARC
  5
183
100
AcDbEntity
  8
2D_PROFILE
100
AcDbCircle
 10
18.373875
 20
-4.874652
 30
0.0
 40
0.15
210
0.0
220
0.0
230
-1.0
100
AcDbArc
 50
210.0
 51
330.0
1001
ACAD
1000
R13OBJECT
1002
{
1005
287
1002
}
  0
LINE
  5
184
100
AcDbEntity
  8
2D_PROFILE
100
AcDbLine
 10
-17.984164
 20
-4.499652
 30
0.0
 11
-18.243972
 21
-4.949652
 31
0.0
1001
ACAD
1000
R13OBJECT
1002
{
1005
287
1002
}
  0
ARC
  5
185
100
AcDbEntity
  8
2D_PROFILE
100
AcDbCircle
 10
-17.85426
 20
-4.574652
 30
0.0
 40
0.15
100
AcDbArc
 50
90.0
 51
150.0
1001
ACAD
1000
R13OBJECT
1002
{
1005
287
1002
}
  0
LINE
  5
186
100
AcDbEntity
  8
2D_PROFILE
100
AcDbLine
 10
-17.643491
 20
-4.424652
 30
0.0
 11
-17.85426
 21
-4.424652
 31
0.0
1001
ACAD
1000
R13OBJECT
1002
{
1005
287
1002
}
  0
ARC
  5
187
100
AcDbEntity
  8
2D_PROFILE
100
AcDbCircle
 10
-17.643491
 20
-4.574652
 30
0.0
 40
0.15
100
AcDbArc
 50
30.0
 51
90.0
1001
ACAD
1000
R13OBJECT
1002
{
1005
287
1002
}
  0
LINE
  5
188
100
AcDbEntity
  8
2D_PROFILE
100
AcDbLine
 10
-17.253779
 20
-4.949652
 30
0.0
 11
-17.513587
 21
-4.499652
 31
0.0
1001
ACAD
1000
R13OBJECT
1002
{
1005
287
1002
}
  0
ARC
  5
189
100
AcDbEntity
  8
2D_PROFILE
100
AcDbCircle
 10
17.123875
 20
-4.874652
 30
0.0
 40
0.15
210
0.0
220
0.0
230
-1.0
100
AcDbArc
 50
210.0
 51
330.0
1001
ACAD
1000
R13OBJECT
1002
{
1005
287
1002
}
  0
LINE
  5
18A
100
AcDbEntity
  8
2D_PROFILE
100
AcDbLine
 10
-16.734164
 20
-4.499652
 30
0.0
 11
-16.993972
 21
-4.949652
 31
0.0
1001
ACAD
1000
R13OBJECT
1002
{
1005
287
1002
}
  0
ARC
  5
18B
100
AcDbEntity
  8
2D_PROFILE
100
AcDbCircle
 10
-16.60426
 20
-4.574652
 30
0.0
 40
0.15
100
AcDbArc
 50
90.0
 51
150.0
1001
ACAD
1000
R13OBJECT
1002
{
1005
287
1002
}
  0
LINE
  5
18C
100
AcDbEntity
  8
2D_PROFILE
100
AcDbLine
 10
-16.393491
 20
-4.424652
 30
0.0
 11
-16.60426
 21
-4.424652
 31
0.0
1001
ACAD
1000
R13OBJECT
1002
{
1005
287
1002
}
  0
ARC
  5
18D
100
AcDbEntity
  8
2D_PROFILE
100
AcDbCircle
 10
-16.393491
 20
-4.574652
 30
0.0
 40
0.15
100
AcDbArc
 50
30.0
 51
90.0
1001
ACAD
1000
R13OBJECT
1002
{
1005
287
1002
}
  0
LINE
  5
18E
100
AcDbEntity
  8
2D_PROFILE
100
AcDbLine
 10
-16.003779
 20
-4.949652
 30
0.0
 11
-16.263587
 21
-4.499652
 31
0.0
1001
ACAD
1000
R13OBJECT
1002
{
1005
287
1002
}
  0
ARC
  5
18F
100
AcDbEntity
  8
2D_PROFILE
100
AcDbCircle
 10
15.873875
 20
-4.874652
 30
0.0
 40
0.15
210
0.0
220
0.0
230
-1.0
100
AcDbArc
 50
210.0
 51
330.0
1001
ACAD
1000
R13OBJECT
1002
{
1005
287
1002
}
  0
LINE
  5
190
100
AcDbEntity
  8
2D_PROFILE
100
AcDbLine
 10
-15.484164
 20
-4.499652
 30
0.0
 11
-15.743972
 21
-4.949652
 31
0.0
1001
ACAD
1000
R13OBJECT
1002
{
1005
287
1002
}
  0
ARC
  5
191
100
AcDbEntity
  8
2D_PROFILE
100
AcDbCircle
 10
-15.35426
 20
-4.574652
 30
0.0
 40
0.15
100
AcDbArc
 50
90.0
 51
150.0
1001
ACAD
1000
R13OBJECT
1002
{
1005
287
1002
}
  0
LINE
  5
192
100
AcDbEntity
  8
2D_PROFILE
100
AcDbLine
 10
-15.143491
 20
-4.424652
 30
0.0
 11
-15.35426
 21
-4.424652
 31
0.0
1001
ACAD
1000
R13OBJECT
1002
{
1005
287
1002
}
  0
ARC
  5
193
100
AcDbEntity
  8
2D_PROFILE
100
AcDbCircle
 10
-15.143491
 20
-4.574652
 30
0.0
 40
0.15
100
AcDbArc
 50
30.0
 51
90.0
1001
ACAD
1000
R13OBJECT
1002
{
1005
287
1002
}
  0
LINE
  5
194
100
AcDbEntity
  8
2D_PROFILE
100
AcDbLine
 10
-14.753779
 20
-4.949652
 30
0.0
 11
-15.013587
 21
-4.499652
 31
0.0
1001
ACAD
1000
R13OBJECT
1002
{
1005
287
1002
}
  0
ARC
  5
195
100
AcDbEntity
  8
2D_PROFILE
100
AcDbCircle
 10
14.623875
 20
-4.874652
 30
0.0
 40
0.15
210
0.0
220
0.0
230
-1.0
100
AcDbArc
 50
210.0
 51
330.0
1001
ACAD
1000
R13OBJECT
1002
{
1005
287
1002
}
  0
LINE
  5
196
100
AcDbEntity
  8
2D_PROFILE
100
AcDbLine
 10
-14.234164
 20
-4.499652
 30
0.0
 11
-14.493972
 21
-4.949652
 31
0.0
1001
ACAD
1000
R13OBJECT
1002
{
1005
287
1002
}
  0
ARC
  5
197
100
AcDbEntity
  8
2D_PROFILE
100
AcDbCircle
 10
-14.10426
 20
-4.574652
 30
0.0
 40
0.15
100
AcDbArc
 50
90.0
 51
150.0
1001
ACAD
1000
R13OBJECT
1002
{
1005
287
1002
}
  0
LINE
  5
198
100
AcDbEntity
  8
2D_PROFILE
100
AcDbLine
 10
-13.893491
 20
-4.424652
 30
0.0
 11
-14.10426
 21
-4.424652
 31
0.0
1001
ACAD
1000
R13OBJECT
1002
{
1005
287
1002
}
  0
ARC
  5
199
100
AcDbEntity
  8
2D_PROFILE
100
AcDbCircle
 10
-13.893491
 20
-4.574652
 30
0.0
 40
0.15
100
AcDbArc
 50
30.0
 51
90.0
1001
ACAD
1000
R13OBJECT
1002
{
1005
287
1002
}
  0
LINE
  5
19A
100
AcDbEntity
  8
2D_PROFILE
100
AcDbLine
 10
-13.503779
 20
-4.949652
 30
0.0
 11
-13.763587
 21
-4.499652
 31
0.0
1001
ACAD
1000
R13OBJECT
1002
{
1005
287
1002
}
  0
ARC
  5
19B
100
AcDbEntity
  8
2D_PROFILE
100
AcDbCircle
 10
13.373875
 20
-4.874652
 30
0.0
 40
0.15
210
0.0
220
0.0
230
-1.0
100
AcDbArc
 50
210.0
 51
330.0
1001
ACAD
1000
R13OBJECT
1002
{
1005
287
1002
}
  0
LINE
  5
19C
100
AcDbEntity
  8
2D_PROFILE
100
AcDbLine
 10
-12.984164
 20
-4.499652
 30
0.0
 11
-13.243972
 21
-4.949652
 31
0.0
1001
ACAD
1000
R13OBJECT
1002
{
1005
287
1002
}
  0
ARC
  5
19D
100
AcDbEntity
  8
2D_PROFILE
100
AcDbCircle
 10
-12.85426
 20
-4.574652
 30
0.0
 40
0.15
100
AcDbArc
 50
90.0
 51
150.0
1001
ACAD
1000
R13OBJECT
1002
{
1005
287
1002
}
  0
LINE
  5
19E
100
AcDbEntity
  8
2D_PROFILE
100
AcDbLine
 10
-12.643491
 20
-4.424652
 30
0.0
 11
-12.85426
 21
-4.424652
 31
0.0
1001
ACAD
1000
R13OBJECT
1002
{
1005
287
1002
}
  0
ARC
  5
19F
100
AcDbEntity
  8
2D_PROFILE
100
AcDbCircle
 10
-12.643491
 20
-4.574652
 30
0.0
 40
0.15
100
AcDbArc
 50
30.0
 51
90.0
1001
ACAD
1000
R13OBJECT
1002
{
1005
287
1002
}
  0
LINE
  5
1A0
100
AcDbEntity
  8
2D_PROFILE
100
AcDbLine
 10
-12.253779
 20
-4.949652
 30
0.0
 11
-12.513587
 21
-4.499652
 31
0.0
1001
ACAD
1000
R13OBJECT
1002
{
1005
287
1002
}
  0
ARC
  5
1A1
100
AcDbEntity
  8
2D_PROFILE
100
AcDbCircle
 10
12.123875
 20
-4.874652
 30
0.0
 40
0.15
210
0.0
220
0.0
230
-1.0
100
AcDbArc
 50
210.0
 51
330.0
1001
ACAD
1000
R13OBJECT
1002
{
1005
287
1002
}
  0
LINE
  5
1A2
100
AcDbEntity
  8
2D_PROFILE
100
AcDbLine
 10
-11.734164
 20
-4.499652
 30
0.0
 11
-11.993972
 21
-4.949652
 31
0.0
1001
ACAD
1000
R13OBJECT
1002
{
1005
287
1002
}
  0
ARC
  5
1A3
100
AcDbEntity
  8
2D_PROFILE
100
AcDbCircle
 10
-11.60426
 20
-4.574652
 30
0.0
 40
0.15
100
AcDbArc
 50
90.0
 51
150.0
1001
ACAD
1000
R13OBJECT
1002
{
1005
287
1002
}
  0
LINE
  5
1A4
100
AcDbEntity
  8
2D_PROFILE
100
AcDbLine
 10
-11.393491
 20
-4.424652
 30
0.0
 11
-11.60426
 21
-4.424652
 31
0.0
1001
ACAD
1000
R13OBJECT
1002
{
1005
287
1002
}
  0
ARC
  5
1A5
100
AcDbEntity
  8
2D_PROFILE
100
AcDbCircle
 10
-11.393491
 20
-4.574652
 30
0.0
 40
0.15
100
AcDbArc
 50
30.0
 51
90.0
1001
ACAD
1000
R13OBJECT
1002
{
1005
287
1002
}
  0
LINE
  5
1A6
100
AcDbEntity
  8
2D_PROFILE
100
AcDbLine
 10
-11.003779
 20
-4.949652
 30
0.0
 11
-11.263587
 21
-4.499652
 31
0.0
1001
ACAD
1000
R13OBJECT
1002
{
1005
287
1002
}
  0
ARC
  5
1A7
100
AcDbEntity
  8
2D_PROFILE
100
AcDbCircle
 10
10.873875
 20
-4.874652
 30
0.0
 40
0.15
210
0.0
220
0.0
230
-1.0
100
AcDbArc
 50
210.0
 51
330.0
1001
ACAD
1000
R13OBJECT
1002
{
1005
287
1002
}
  0
LINE
  5
1A8
100
AcDbEntity
  8
2D_PROFILE
100
AcDbLine
 10
-10.484164
 20
-4.499652
 30
0.0
 11
-10.743972
 21
-4.949652
 31
0.0
1001
ACAD
1000
R13OBJECT
1002
{
1005
287
1002
}
  0
ARC
  5
1A9
100
AcDbEntity
  8
2D_PROFILE
100
AcDbCircle
 10
-10.35426
 20
-4.574652
 30
0.0
 40
0.15
100
AcDbArc
 50
90.0
 51
150.0
1001
ACAD
1000
R13OBJECT
1002
{
1005
287
1002
}
  0
LINE
  5
1AA
100
AcDbEntity
  8
2D_PROFILE
100
AcDbLine
 10
-10.143491
 20
-4.424652
 30
0.0
 11
-10.35426
 21
-4.424652
 31
0.0
1001
ACAD
1000
R13OBJECT
1002
{
1005
287
1002
}
  0
ARC
  5
1AB
100
AcDbEntity
  8
2D_PROFILE
100
AcDbCircle
 10
-10.143491
 20
-4.574652
 30
0.0
 40
0.15
100
AcDbArc
 50
30.0
 51
90.0
1001
ACAD
1000
R13OBJECT
1002
{
1005
287
1002
}
  0
LINE
  5
1AC
100
AcDbEntity
  8
2D_PROFILE
100
AcDbLine
 10
-9.753779
 20
-4.949652
 30
0.0
 11
-10.013587
 21
-4.499652
 31
0.0
1001
ACAD
1000
R13OBJECT
1002
{
1005
287
1002
}
  0
ARC
  5
1AD
100
AcDbEntity
  8
2D_PROFILE
100
AcDbCircle
 10
9.623875
 20
-4.874652
 30
0.0
 40
0.15
210
0.0
220
0.0
230
-1.0
100
AcDbArc
 50
210.0
 51
330.0
1001
ACAD
1000
R13OBJECT
1002
{
1005
287
1002
}
  0
LINE
  5
1AE
100
AcDbEntity
  8
2D_PROFILE
100
AcDbLine
 10
-9.234164
 20
-4.499652
 30
0.0
 11
-9.493972
 21
-4.949652
 31
0.0
1001
ACAD
1000
R13OBJECT
1002
{
1005
287
1002
}
  0
ARC
  5
1AF
100
AcDbEntity
  8
2D_PROFILE
100
AcDbCircle
 10
-9.10426
 20
-4.574652
 30
0.0
 40
0.15
100
AcDbArc
 50
90.0
 51
150.0
1001
ACAD
1000
R13OBJECT
1002
{
1005
287
1002
}
  0
LINE
  5
1B0
100
AcDbEntity
  8
2D_PROFILE
100
AcDbLine
 10
-8.893491
 20
-4.424652
 30
0.0
 11
-9.10426
 21
-4.424652
 31
0.0
1001
ACAD
1000
R13OBJECT
1002
{
1005
287
1002
}
  0
ARC
  5
1B1
100
AcDbEntity
  8
2D_PROFILE
100
AcDbCircle
 10
-8.893491
 20
-4.574652
 30
0.0
 40
0.15
100
AcDbArc
 50
30.0
 51
90.0
1001
ACAD
1000
R13OBJECT
1002
{
1005
287
1002
}
  0
LINE
  5
1B2
100
AcDbEntity
  8
2D_PROFILE
100
AcDbLine
 10
-8.503779
 20
-4.949652
 30
0.0
 11
-8.763587
 21
-4.499652
 31
0.0
1001
ACAD
1000
R13OBJECT
1002
{
1005
287
1002
}
  0
ARC
  5
1B3
100
AcDbEntity
  8
2D_PROFILE
100
AcDbCircle
 10
8.373875
 20
-4.874652
 30
0.0
 40
0.15
210
0.0
220
0.0
230
-1.0
100
AcDbArc
 50
210.0
 51
330.0
1001
ACAD
1000
R13OBJECT
1002
{
1005
287
1002
}
  0
LINE
  5
1B4
100
AcDbEntity
  8
2D_PROFILE
100
AcDbLine
 10
-7.984164
 20
-4.499652
 30
0.0
 11
-8.243972
 21
-4.949652
 31
0.0
1001
ACAD
1000
R13OBJECT
1002
{
1005
287
1002
}
  0
ARC
  5
1B5
100
AcDbEntity
  8
2D_PROFILE
100
AcDbCircle
 10
-7.85426
 20
-4.574652
 30
0.0
 40
0.15
100
AcDbArc
 50
90.0
 51
150.0
1001
ACAD
1000
R13OBJECT
1002
{
1005
287
1002
}
  0
LINE
  5
1B6
100
AcDbEntity
  8
2D_PROFILE
100
AcDbLine
 10
-7.643491
 20
-4.424652
 30
0.0
 11
-7.85426
 21
-4.424652
 31
0.0
1001
ACAD
1000
R13OBJECT
1002
{
1005
287
1002
}
  0
ARC
  5
1B7
100
AcDbEntity
  8
2D_PROFILE
100
AcDbCircle
 10
-7.643491
 20
-4.574652
 30
0.0
 40
0.15
100
AcDbArc
 50
30.0
 51
90.0
1001
ACAD
1000
R13OBJECT
1002
{
1005
287
1002
}
  0
LINE
  5
1B8
100
AcDbEntity
  8
2D_PROFILE
100
AcDbLine
 10
-7.167177
 20
-5.099652
 30
0.0
 11
-7.513587
 21
-4.499652
 31
0.0
1001
ACAD
1000
R13OBJECT
1002
{
1005
287
1002
}
  0
ARC
  5
1B9
100
AcDbEntity
  8
2D_PROFILE
100
AcDbCircle
 10
7.037273
 20
-5.024652
 30
0.0
 40
0.15
210
0.0
220
0.0
230
-1.0
100
AcDbArc
 50
270.0
 51
330.0
1001
ACAD
1000
R13OBJECT
1002
{
1005
287
1002
}
  0
LINE
  5
1BA
100
AcDbEntity
  8
2D_PROFILE
100
AcDbLine
 10
-6.250075
 20
-5.174652
 30
0.0
 11
-7.037273
 21
-5.174652
 31
0.0
1001
ACAD
1000
R13OBJECT
1002
{
1005
287
1002
}
  0
ARC
  5
1BB
100
AcDbEntity
  8
2D_PROFILE
100
AcDbCircle
 10
6.250075
 20
-4.174652
 30
0.0
 40
1.0
210
0.0
220
0.0
230
-1.0
100
AcDbArc
 50
153.256316
 51
270.0
1001
ACAD
1000
R13OBJECT
1002
{
1005
287
1002
}
  0
ARC
  5
1BC
100
AcDbEntity
  8
2D_PROFILE
100
AcDbCircle
 10
23.314242
 20
-8.024652
 30
0.0
 40
1.0
210
0.0
220
0.0
230
-1.0
100
AcDbArc
 50
349.547459
 51
90.0
1001
ACAD
1000
R13OBJECT
1002
{
1005
287
1002
}
  0
ARC
  5
1BD
100
AcDbEntity
  8
2D_PROFILE
100
AcDbCircle
 10
-3.975261
 20
-2.990219
 30
0.0
 40
28.75
210
0.0
220
0.0
230
-1.0
100
AcDbArc
 50
328.41497
 51
349.547459
1001
ACAD
1000
R13OBJECT
1002
{
1005
287
1002
}
  0
ARC
  5
1BE
100
AcDbEntity
  8
2D_PROFILE
100
AcDbCircle
 10
19.663959
 20
-17.524652
 30
0.0
 40
1.0
210
0.0
220
0.0
230
-1.0
100
AcDbArc
 50
270.0
 51
328.41497
1001
ACAD
1000
R13OBJECT
1002
{
1005
287
1002
}
  0
LINE
  5
1BF
100
AcDbEntity
  8
2D_PROFILE
100
AcDbLine
 10
-13.498875
 20
-18.524652
 30
0.0
 11
-19.663959
 21
-18.524652
 31
0.0
1001
ACAD
1000
R13OBJECT
1002
{
1005
287
1002
}
  0
ARC
  5
1C0
100
AcDbEntity
  8
2D_PROFILE
100
AcDbCircle
 10
13.498875
 20
-17.524652
 30
0.0
 40
1.0
210
0.0
220
0.0
230
-1.0
100
AcDbArc
 50
180.0
 51
270.0
1001
ACAD
1000
R13OBJECT
1002
{
1005
287
1002
}
  0
LINE
  5
1C1
100
AcDbEntity
  8
2D_PROFILE
100
AcDbLine
 10
-12.498875
 20
-15.726067
 30
0.0
 11
-12.498875
 21
-17.524652
 31
0.0
1001
ACAD
1000
R13OBJECT
1002
{
1005
287
1002
}
  0
ARC
  5
1C2
100
AcDbEntity
  8
2D_PROFILE
100
AcDbCircle
 10
-7.998875
 20
-15.726067
 30
0.0
 40
4.5
100
AcDbArc
 50
144.334995
 51
180.0
1001
ACAD
1000
R13OBJECT
1002
{
1005
287
1002
}
  0
ARC
  5
1C3
100
AcDbEntity
  8
2D_PROFILE
100
AcDbCircle
 10
11.859882
 20
-29.977647
 30
0.0
 40
28.943358
100
AcDbArc
 50
132.848815
 51
144.334995
1001
ACAD
1000
R13OBJECT
1002
{
1005
287
1002
}
  0
ARC
  5
1C4
100
AcDbEntity
  8
2D_PROFILE
100
AcDbCircle
 10
8.503584
 20
-8.024652
 30
0.0
 40
1.0
210
0.0
220
0.0
230
-1.0
100
AcDbArc
 50
90.0
 51
227.151185
1001
ACAD
1000
R13OBJECT
1002
{
1005
287
1002
}
  0
LINE
  5
1C5
100
AcDbEntity
  8
2D_PROFILE
100
AcDbLine
 10
-23.314242
 20
-7.024652
 30
0.0
 11
-8.503584
 21
-7.024652
 31
0.0
1001
ACAD
1000
R13OBJECT
1002
{
1005
287
1002
}
  0
ARC
  5
1C6
100
AcDbEntity
  8
2D_PROFILE
100
AcDbCircle
 10
-19.666209
 20
-17.524652
 30
0.0
 40
1.0
210
0.0
220
0.0
230
-1.0
100
AcDbArc
 50
211.58503
 51
270.0
1001
ACAD
1000
R13OBJECT
1002
{
1005
287
1002
}
  0
ARC
  5
1C7
100
AcDbEntity
  8
2D_PROFILE
100
AcDbCircle
 10
3.973012
 20
-2.990219
 30
0.0
 40
28.75
210
0.0
220
0.0
230
-1.0
100
AcDbArc
 50
190.452541
 51
211.58503
1001
ACAD
1000
R13OBJECT
1002
{
1005
287
1002
}
  0
ARC
  5
1C8
100
AcDbEntity
  8
2D_PROFILE
100
AcDbCircle
 10
-23.316491
 20
-8.024652
 30
0.0
 40
1.0
210
0.0
220
0.0
230
-1.0
100
AcDbArc
 50
90.0
 51
190.452541
1001
ACAD
1000
R13OBJECT
1002
{
1005
287
1002
}
  0
LINE
  5
1C9
100
AcDbEntity
  8
2D_PROFILE
100
AcDbLine
 10
8.505833
 20
-7.024652
 30
0.0
 11
23.316491
 21
-7.024652
 31
0.0
1001
ACAD
1000
R13OBJECT
1002
{
1005
287
1002
}
  0
ARC
  5
1CA
100
AcDbEntity
  8
2D_PROFILE
100
AcDbCircle
 10
-8.505833
 20
-8.024652
 30
0.0
 40
1.0
210
0.0
220
0.0
230
-1.0
100
AcDbArc
 50
312.848815
 51
90.0
1001
ACAD
1000
R13OBJECT
1002
{
1005
287
1002
}
  0
ARC
  5
1CB
100
AcDbEntity
  8
2D_PROFILE
100
AcDbCircle
 10
-11.857632
 20
-29.977647
 30
0.0
 40
28.943358
100
AcDbArc
 50
35.665005
 51
47.151185
1001
ACAD
1000
R13OBJECT
1002
{
1005
287
1002
}
  0
ARC
  5
1CC
100
AcDbEntity
  8
2D_PROFILE
100
AcDbCircle
 10
8.001125
 20
-15.726067
 30
0.0
 40
4.5
100
AcDbArc
 50
0.0
 51
35.665005
1001
ACAD
1000
R13OBJECT
1002
{
1005
287
1002
}
  0
LINE
  5
1CD
100
AcDbEntity
  8
2D_PROFILE
100
AcDbLine
 10
12.501125
 20
-17.524652
 30
0.0
 11
12.501125
 21
-15.726067
 31
0.0
1001
ACAD
1000
R13OBJECT
1002
{
1005
287
1002
}
  0
ARC
  5
1CE
100
AcDbEntity
  8
2D_PROFILE
100
AcDbCircle
 10
-13.501125
 20
-17.524652
 30
0.0
 40
1.0
210
0.0
220
0.0
230
-1.0
100
AcDbArc
 50
270.0
 51
360.0
1001
ACAD
1000
R13OBJECT
1002
{
1005
287
1002
}
  0
LINE
  5
1CF
100
AcDbEntity
  8
2D_PROFILE
100
AcDbLine
 10
19.666209
 20
-18.524652
 30
0.0
 11
13.501125
 21
-18.524652
 31
0.0
1001
ACAD
1000
R13OBJECT
1002
{
1005
287
1002
}
  0
ARC
  5
1D0
100
AcDbEntity
  8
2D_PROFILE
100
AcDbCircle
 10
-24.379982
 20
2.25961
 30
0.0
 40
0.150914
210
0.0
220
0.0
230
-1.0
100
AcDbArc
 50
119.987336
 51
172.242814
1001
ACAD
1000
R13OBJECT
1002
{
1005
287
1002
}
  0
ARC
  5
1D1
100
AcDbEntity
  8
2D_PROFILE
100
AcDbCircle
 10
24.52074
 20
2.525348
 30
0.0
 40
0.15
100
AcDbArc
 50
210.0
 51
244.180667
1001
ACAD
1000
R13OBJECT
1002
{
1005
287
1002
}
  0
LINE
  5
1D2
100
AcDbEntity
  8
2D_PROFILE
100
AcDbLine
 10
24.131028
 20
2.900348
 30
0.0
 11
24.390836
 21
2.450348
 31
0.0
1001
ACAD
1000
R13OBJECT
1002
{
1005
287
1002
}
  0
ARC
  5
1D3
100
AcDbEntity
  8
2D_PROFILE
100
AcDbCircle
 10
-24.001125
 20
2.825348
 30
0.0
 40
0.15
210
0.0
220
0.0
230
-1.0
100
AcDbArc
 50
30.0
 51
150.0
1001
ACAD
1000
R13OBJECT
1002
{
1005
287
1002
}
  0
LINE
  5
1D4
100
AcDbEntity
  8
2D_PROFILE
100
AcDbLine
 10
23.611413
 20
2.450348
 30
0.0
 11
23.871221
 21
2.900348
 31
0.0
1001
ACAD
1000
R13OBJECT
1002
{
1005
287
1002
}
  0
ARC
  5
1D5
100
AcDbEntity
  8
2D_PROFILE
100
AcDbCircle
 10
23.481509
 20
2.525348
 30
0.0
 40
0.15
100
AcDbArc
 50
270.0
 51
330.0
1001
ACAD
1000
R13OBJECT
1002
{
1005
287
1002
}
  0
LINE
  5
1D6
100
AcDbEntity
  8
2D_PROFILE
100
AcDbLine
 10
23.27074
 20
2.375348
 30
0.0
 11
23.481509
 21
2.375348
 31
0.0
1001
ACAD
1000
R13OBJECT
1002
{
1005
287
1002
}
  0
ARC
  5
1D7
100
AcDbEntity
  8
2D_PROFILE
100
AcDbCircle
 10
23.27074
 20
2.525348
 30
0.0
 40
0.15
100
AcDbArc
 50
210.0
 51
270.0
1001
ACAD
1000
R13OBJECT
1002
{
1005
287
1002
}
  0
LINE
  5
1D8
100
AcDbEntity
  8
2D_PROFILE
100
AcDbLine
 10
22.881028
 20
2.900348
 30
0.0
 11
23.140836
 21
2.450348
 31
0.0
1001
ACAD
1000
R13OBJECT
1002
{
1005
287
1002
}
  0
ARC
  5
1D9
100
AcDbEntity
  8
2D_PROFILE
100
AcDbCircle
 10
-22.751125
 20
2.825348
 30
0.0
 40
0.15
210
0.0
220
0.0
230
-1.0
100
AcDbArc
 50
30.0
 51
150.0
1001
ACAD
1000
R13OBJECT
1002
{
1005
287
1002
}
  0
LINE
  5
1DA
100
AcDbEntity
  8
2D_PROFILE
100
AcDbLine
 10
22.361413
 20
2.450348
 30
0.0
 11
22.621221
 21
2.900348
 31
0.0
1001
ACAD
1000
R13OBJECT
1002
{
1005
287
1002
}
  0
ARC
  5
1DB
100
AcDbEntity
  8
2D_PROFILE
100
AcDbCircle
 10
22.231509
 20
2.525348
 30
0.0
 40
0.15
100
AcDbArc
 50
270.0
 51
330.0
1001
ACAD
1000
R13OBJECT
1002
{
1005
287
1002
}
  0
LINE
  5
1DC
100
AcDbEntity
  8
2D_PROFILE
100
AcDbLine
 10
22.02074
 20
2.375348
 30
0.0
 11
22.231509
 21
2.375348
 31
0.0
1001
ACAD
1000
R13OBJECT
1002
{
1005
287
1002
}
  0
ARC
  5
1DD
100
AcDbEntity
  8
2D_PROFILE
100
AcDbCircle
 10
22.02074
 20
2.525348
 30
0.0
 40
0.15
100
AcDbArc
 50
210.0
 51
270.0
1001
ACAD
1000
R13OBJECT
1002
{
1005
287
1002
}
  0
LINE
  5
1DE
100
AcDbEntity
  8
2D_PROFILE
100
AcDbLine
 10
21.631028
 20
2.900348
 30
0.0
 11
21.890836
 21
2.450348
 31
0.0
1001
ACAD
1000
R13OBJECT
1002
{
1005
287
1002
}
  0
ARC
  5
1DF
100
AcDbEntity
  8
2D_PROFILE
100
AcDbCircle
 10
-21.501125
 20
2.825348
 30
0.0
 40
0.15
210
0.0
220
0.0
230
-1.0
100
AcDbArc
 50
30.0
 51
150.0
1001
ACAD
1000
R13OBJECT
1002
{
1005
287
1002
}
  0
LINE
  5
1E0
100
AcDbEntity
  8
2D_PROFILE
100
AcDbLine
 10
21.111413
 20
2.450348
 30
0.0
 11
21.371221
 21
2.900348
 31
0.0
1001
ACAD
1000
R13OBJECT
1002
{
1005
287
1002
}
  0
ARC
  5
1E1
100
AcDbEntity
  8
2D_PROFILE
100
AcDbCircle
 10
20.981509
 20
2.525348
 30
0.0
 40
0.15
100
AcDbArc
 50
270.0
 51
330.0
1001
ACAD
1000
R13OBJECT
1002
{
1005
287
1002
}
  0
LINE
  5
1E2
100
AcDbEntity
  8
2D_PROFILE
100
AcDbLine
 10
20.77074
 20
2.375348
 30
0.0
 11
20.981509
 21
2.375348
 31
0.0
1001
ACAD
1000
R13OBJECT
1002
{
1005
287
1002
}
  0
ARC
  5
1E3
100
AcDbEntity
  8
2D_PROFILE
100
AcDbCircle
 10
20.77074
 20
2.525348
 30
0.0
 40
0.15
100
AcDbArc
 50
210.0
 51
270.0
1001
ACAD
1000
R13OBJECT
1002
{
1005
287
1002
}
  0
LINE
  5
1E4
100
AcDbEntity
  8
2D_PROFILE
100
AcDbLine
 10
20.381028
 20
2.900348
 30
0.0
 11
20.640836
 21
2.450348
 31
0.0
1001
ACAD
1000
R13OBJECT
1002
{
1005
287
1002
}
  0
ARC
  5
1E5
100
AcDbEntity
  8
2D_PROFILE
100
AcDbCircle
 10
-20.251125
 20
2.825348
 30
0.0
 40
0.15
210
0.0
220
0.0
230
-1.0
100
AcDbArc
 50
30.0
 51
150.0
1001
ACAD
1000
R13OBJECT
1002
{
1005
287
1002
}
  0
LINE
  5
1E6
100
AcDbEntity
  8
2D_PROFILE
100
AcDbLine
 10
19.861413
 20
2.450348
 30
0.0
 11
20.121221
 21
2.900348
 31
0.0
1001
ACAD
1000
R13OBJECT
1002
{
1005
287
1002
}
  0
ARC
  5
1E7
100
AcDbEntity
  8
2D_PROFILE
100
AcDbCircle
 10
19.731509
 20
2.525348
 30
0.0
 40
0.15
100
AcDbArc
 50
270.0
 51
330.0
1001
ACAD
1000
R13OBJECT
1002
{
1005
287
1002
}
  0
LINE
  5
1E8
100
AcDbEntity
  8
2D_PROFILE
100
AcDbLine
 10
19.52074
 20
2.375348
 30
0.0
 11
19.731509
 21
2.375348
 31
0.0
1001
ACAD
1000
R13OBJECT
1002
{
1005
287
1002
}
  0
ARC
  5
1E9
100
AcDbEntity
  8
2D_PROFILE
100
AcDbCircle
 10
19.52074
 20
2.525348
 30
0.0
 40
0.15
100
AcDbArc
 50
210.0
 51
270.0
1001
ACAD
1000
R13OBJECT
1002
{
1005
287
1002
}
  0
LINE
  5
1EA
100
AcDbEntity
  8
2D_PROFILE
100
AcDbLine
 10
19.131028
 20
2.900348
 30
0.0
 11
19.390836
 21
2.450348
 31
0.0
1001
ACAD
1000
R13OBJECT
1002
{
1005
287
1002
}
  0
ARC
  5
1EB
100
AcDbEntity
  8
2D_PROFILE
100
AcDbCircle
 10
-19.001125
 20
2.825348
 30
0.0
 40
0.15
210
0.0
220
0.0
230
-1.0
100
AcDbArc
 50
30.0
 51
150.0
1001
ACAD
1000
R13OBJECT
1002
{
1005
287
1002
}
  0
LINE
  5
1EC
100
AcDbEntity
  8
2D_PROFILE
100
AcDbLine
 10
18.611413
 20
2.450348
 30
0.0
 11
18.871221
 21
2.900348
 31
0.0
1001
ACAD
1000
R13OBJECT
1002
{
1005
287
1002
}
  0
ARC
  5
1ED
100
AcDbEntity
  8
2D_PROFILE
100
AcDbCircle
 10
18.481509
 20
2.525348
 30
0.0
 40
0.15
100
AcDbArc
 50
270.0
 51
330.0
1001
ACAD
1000
R13OBJECT
1002
{
1005
287
1002
}
  0
LINE
  5
1EE
100
AcDbEntity
  8
2D_PROFILE
100
AcDbLine
 10
18.27074
 20
2.375348
 30
0.0
 11
18.481509
 21
2.375348
 31
0.0
1001
ACAD
1000
R13OBJECT
1002
{
1005
287
1002
}
  0
ARC
  5
1EF
100
AcDbEntity
  8
2D_PROFILE
100
AcDbCircle
 10
18.27074
 20
2.525348
 30
0.0
 40
0.15
100
AcDbArc
 50
210.0
 51
270.0
1001
ACAD
1000
R13OBJECT
1002
{
1005
287
1002
}
  0
LINE
  5
1F0
100
AcDbEntity
  8
2D_PROFILE
100
AcDbLine
 10
17.881028
 20
2.900348
 30
0.0
 11
18.140836
 21
2.450348
 31
0.0
1001
ACAD
1000
R13OBJECT
1002
{
1005
287
1002
}
  0
ARC
  5
1F1
100
AcDbEntity
  8
2D_PROFILE
100
AcDbCircle
 10
-17.751125
 20
2.825348
 30
0.0
 40
0.15
210
0.0
220
0.0
230
-1.0
100
AcDbArc
 50
30.0
 51
150.0
1001
ACAD
1000
R13OBJECT
1002
{
1005
287
1002
}
  0
LINE
  5
1F2
100
AcDbEntity
  8
2D_PROFILE
100
AcDbLine
 10
17.361413
 20
2.450348
 30
0.0
 11
17.621221
 21
2.900348
 31
0.0
1001
ACAD
1000
R13OBJECT
1002
{
1005
287
1002
}
  0
ARC
  5
1F3
100
AcDbEntity
  8
2D_PROFILE
100
AcDbCircle
 10
17.231509
 20
2.525348
 30
0.0
 40
0.15
100
AcDbArc
 50
270.0
 51
330.0
1001
ACAD
1000
R13OBJECT
1002
{
1005
287
1002
}
  0
LINE
  5
1F4
100
AcDbEntity
  8
2D_PROFILE
100
AcDbLine
 10
17.02074
 20
2.375348
 30
0.0
 11
17.231509
 21
2.375348
 31
0.0
1001
ACAD
1000
R13OBJECT
1002
{
1005
287
1002
}
  0
ARC
  5
1F5
100
AcDbEntity
  8
2D_PROFILE
100
AcDbCircle
 10
17.02074
 20
2.525348
 30
0.0
 40
0.15
100
AcDbArc
 50
210.0
 51
270.0
1001
ACAD
1000
R13OBJECT
1002
{
1005
287
1002
}
  0
LINE
  5
1F6
100
AcDbEntity
  8
2D_PROFILE
100
AcDbLine
 10
16.631028
 20
2.900348
 30
0.0
 11
16.890836
 21
2.450348
 31
0.0
1001
ACAD
1000
R13OBJECT
1002
{
1005
287
1002
}
  0
ARC
  5
1F7
100
AcDbEntity
  8
2D_PROFILE
100
AcDbCircle
 10
-16.501125
 20
2.825348
 30
0.0
 40
0.15
210
0.0
220
0.0
230
-1.0
100
AcDbArc
 50
30.0
 51
150.0
1001
ACAD
1000
R13OBJECT
1002
{
1005
287
1002
}
  0
LINE
  5
1F8
100
AcDbEntity
  8
2D_PROFILE
100
AcDbLine
 10
16.111413
 20
2.450348
 30
0.0
 11
16.371221
 21
2.900348
 31
0.0
1001
ACAD
1000
R13OBJECT
1002
{
1005
287
1002
}
  0
ARC
  5
1F9
100
AcDbEntity
  8
2D_PROFILE
100
AcDbCircle
 10
15.981509
 20
2.525348
 30
0.0
 40
0.15
100
AcDbArc
 50
270.0
 51
330.0
1001
ACAD
1000
R13OBJECT
1002
{
1005
287
1002
}
  0
LINE
  5
1FA
100
AcDbEntity
  8
2D_PROFILE
100
AcDbLine
 10
15.77074
 20
2.375348
 30
0.0
 11
15.981509
 21
2.375348
 31
0.0
1001
ACAD
1000
R13OBJECT
1002
{
1005
287
1002
}
  0
ARC
  5
1FB
100
AcDbEntity
  8
2D_PROFILE
100
AcDbCircle
 10
15.77074
 20
2.525348
 30
0.0
 40
0.15
100
AcDbArc
 50
210.0
 51
270.0
1001
ACAD
1000
R13OBJECT
1002
{
1005
287
1002
}
  0
LINE
  5
1FC
100
AcDbEntity
  8
2D_PROFILE
100
AcDbLine
 10
15.381028
 20
2.900348
 30
0.0
 11
15.640836
 21
2.450348
 31
0.0
1001
ACAD
1000
R13OBJECT
1002
{
1005
287
1002
}
  0
ARC
  5
1FD
100
AcDbEntity
  8
2D_PROFILE
100
AcDbCircle
 10
-15.251125
 20
2.825348
 30
0.0
 40
0.15
210
0.0
220
0.0
230
-1.0
100
AcDbArc
 50
30.0
 51
150.0
1001
ACAD
1000
R13OBJECT
1002
{
1005
287
1002
}
  0
LINE
  5
1FE
100
AcDbEntity
  8
2D_PROFILE
100
AcDbLine
 10
14.861413
 20
2.450348
 30
0.0
 11
15.121221
 21
2.900348
 31
0.0
1001
ACAD
1000
R13OBJECT
1002
{
1005
287
1002
}
  0
ARC
  5
1FF
100
AcDbEntity
  8
2D_PROFILE
100
AcDbCircle
 10
14.731509
 20
2.525348
 30
0.0
 40
0.15
100
AcDbArc
 50
270.0
 51
330.0
1001
ACAD
1000
R13OBJECT
1002
{
1005
287
1002
}
  0
LINE
  5
200
100
AcDbEntity
  8
2D_PROFILE
100
AcDbLine
 10
14.52074
 20
2.375348
 30
0.0
 11
14.731509
 21
2.375348
 31
0.0
1001
ACAD
1000
R13OBJECT
1002
{
1005
287
1002
}
  0
ARC
  5
201
100
AcDbEntity
  8
2D_PROFILE
100
AcDbCircle
 10
14.52074
 20
2.525348
 30
0.0
 40
0.15
100
AcDbArc
 50
210.0
 51
270.0
1001
ACAD
1000
R13OBJECT
1002
{
1005
287
1002
}
  0
LINE
  5
202
100
AcDbEntity
  8
2D_PROFILE
100
AcDbLine
 10
14.131028
 20
2.900348
 30
0.0
 11
14.390836
 21
2.450348
 31
0.0
1001
ACAD
1000
R13OBJECT
1002
{
1005
287
1002
}
  0
ARC
  5
203
100
AcDbEntity
  8
2D_PROFILE
100
AcDbCircle
 10
-14.001125
 20
2.825348
 30
0.0
 40
0.15
210
0.0
220
0.0
230
-1.0
100
AcDbArc
 50
30.0
 51
150.0
1001
ACAD
1000
R13OBJECT
1002
{
1005
287
1002
}
  0
LINE
  5
204
100
AcDbEntity
  8
2D_PROFILE
100
AcDbLine
 10
13.611413
 20
2.450348
 30
0.0
 11
13.871221
 21
2.900348
 31
0.0
1001
ACAD
1000
R13OBJECT
1002
{
1005
287
1002
}
  0
ARC
  5
205
100
AcDbEntity
  8
2D_PROFILE
100
AcDbCircle
 10
13.481509
 20
2.525348
 30
0.0
 40
0.15
100
AcDbArc
 50
270.0
 51
330.0
1001
ACAD
1000
R13OBJECT
1002
{
1005
287
1002
}
  0
LINE
  5
206
100
AcDbEntity
  8
2D_PROFILE
100
AcDbLine
 10
13.27074
 20
2.375348
 30
0.0
 11
13.481509
 21
2.375348
 31
0.0
1001
ACAD
1000
R13OBJECT
1002
{
1005
287
1002
}
  0
ARC
  5
207
100
AcDbEntity
  8
2D_PROFILE
100
AcDbCircle
 10
13.27074
 20
2.525348
 30
0.0
 40
0.15
100
AcDbArc
 50
210.0
 51
270.0
1001
ACAD
1000
R13OBJECT
1002
{
1005
287
1002
}
  0
LINE
  5
208
100
AcDbEntity
  8
2D_PROFILE
100
AcDbLine
 10
12.881028
 20
2.900348
 30
0.0
 11
13.140836
 21
2.450348
 31
0.0
1001
ACAD
1000
R13OBJECT
1002
{
1005
287
1002
}
  0
ARC
  5
209
100
AcDbEntity
  8
2D_PROFILE
100
AcDbCircle
 10
-12.751125
 20
2.825348
 30
0.0
 40
0.15
210
0.0
220
0.0
230
-1.0
100
AcDbArc
 50
30.0
 51
150.0
1001
ACAD
1000
R13OBJECT
1002
{
1005
287
1002
}
  0
LINE
  5
20A
100
AcDbEntity
  8
2D_PROFILE
100
AcDbLine
 10
12.361413
 20
2.450348
 30
0.0
 11
12.621221
 21
2.900348
 31
0.0
1001
ACAD
1000
R13OBJECT
1002
{
1005
287
1002
}
  0
ARC
  5
20B
100
AcDbEntity
  8
2D_PROFILE
100
AcDbCircle
 10
12.231509
 20
2.525348
 30
0.0
 40
0.15
100
AcDbArc
 50
270.0
 51
330.0
1001
ACAD
1000
R13OBJECT
1002
{
1005
287
1002
}
  0
LINE
  5
20C
100
AcDbEntity
  8
2D_PROFILE
100
AcDbLine
 10
12.02074
 20
2.375348
 30
0.0
 11
12.231509
 21
2.375348
 31
0.0
1001
ACAD
1000
R13OBJECT
1002
{
1005
287
1002
}
  0
ARC
  5
20D
100
AcDbEntity
  8
2D_PROFILE
100
AcDbCircle
 10
12.02074
 20
2.525348
 30
0.0
 40
0.15
100
AcDbArc
 50
210.0
 51
270.0
1001
ACAD
1000
R13OBJECT
1002
{
1005
287
1002
}
  0
LINE
  5
20E
100
AcDbEntity
  8
2D_PROFILE
100
AcDbLine
 10
11.631028
 20
2.900348
 30
0.0
 11
11.890836
 21
2.450348
 31
0.0
1001
ACAD
1000
R13OBJECT
1002
{
1005
287
1002
}
  0
ARC
  5
20F
100
AcDbEntity
  8
2D_PROFILE
100
AcDbCircle
 10
-11.501125
 20
2.825348
 30
0.0
 40
0.15
210
0.0
220
0.0
230
-1.0
100
AcDbArc
 50
30.0
 51
150.0
1001
ACAD
1000
R13OBJECT
1002
{
1005
287
1002
}
  0
LINE
  5
210
100
AcDbEntity
  8
2D_PROFILE
100
AcDbLine
 10
11.111413
 20
2.450348
 30
0.0
 11
11.371221
 21
2.900348
 31
0.0
1001
ACAD
1000
R13OBJECT
1002
{
1005
287
1002
}
  0
ARC
  5
211
100
AcDbEntity
  8
2D_PROFILE
100
AcDbCircle
 10
10.981509
 20
2.525348
 30
0.0
 40
0.15
100
AcDbArc
 50
270.0
 51
330.0
1001
ACAD
1000
R13OBJECT
1002
{
1005
287
1002
}
  0
LINE
  5
212
100
AcDbEntity
  8
2D_PROFILE
100
AcDbLine
 10
10.77074
 20
2.375348
 30
0.0
 11
10.981509
 21
2.375348
 31
0.0
1001
ACAD
1000
R13OBJECT
1002
{
1005
287
1002
}
  0
ARC
  5
213
100
AcDbEntity
  8
2D_PROFILE
100
AcDbCircle
 10
10.77074
 20
2.525348
 30
0.0
 40
0.15
100
AcDbArc
 50
210.0
 51
270.0
1001
ACAD
1000
R13OBJECT
1002
{
1005
287
1002
}
  0
LINE
  5
214
100
AcDbEntity
  8
2D_PROFILE
100
AcDbLine
 10
10.381028
 20
2.900348
 30
0.0
 11
10.640836
 21
2.450348
 31
0.0
1001
ACAD
1000
R13OBJECT
1002
{
1005
287
1002
}
  0
ARC
  5
215
100
AcDbEntity
  8
2D_PROFILE
100
AcDbCircle
 10
-10.251125
 20
2.825348
 30
0.0
 40
0.15
210
0.0
220
0.0
230
-1.0
100
AcDbArc
 50
30.0
 51
150.0
1001
ACAD
1000
R13OBJECT
1002
{
1005
287
1002
}
  0
LINE
  5
216
100
AcDbEntity
  8
2D_PROFILE
100
AcDbLine
 10
9.861413
 20
2.450348
 30
0.0
 11
10.121221
 21
2.900348
 31
0.0
1001
ACAD
1000
R13OBJECT
1002
{
1005
287
1002
}
  0
ARC
  5
217
100
AcDbEntity
  8
2D_PROFILE
100
AcDbCircle
 10
9.731509
 20
2.525348
 30
0.0
 40
0.15
100
AcDbArc
 50
270.0
 51
330.0
1001
ACAD
1000
R13OBJECT
1002
{
1005
287
1002
}
  0
LINE
  5
218
100
AcDbEntity
  8
2D_PROFILE
100
AcDbLine
 10
9.52074
 20
2.375348
 30
0.0
 11
9.731509
 21
2.375348
 31
0.0
1001
ACAD
1000
R13OBJECT
1002
{
1005
287
1002
}
  0
ARC
  5
219
100
AcDbEntity
  8
2D_PROFILE
100
AcDbCircle
 10
9.52074
 20
2.525348
 30
0.0
 40
0.15
100
AcDbArc
 50
210.0
 51
270.0
1001
ACAD
1000
R13OBJECT
1002
{
1005
287
1002
}
  0
LINE
  5
21A
100
AcDbEntity
  8
2D_PROFILE
100
AcDbLine
 10
9.131028
 20
2.900348
 30
0.0
 11
9.390836
 21
2.450348
 31
0.0
1001
ACAD
1000
R13OBJECT
1002
{
1005
287
1002
}
  0
ARC
  5
21B
100
AcDbEntity
  8
2D_PROFILE
100
AcDbCircle
 10
-9.001125
 20
2.825348
 30
0.0
 40
0.15
210
0.0
220
0.0
230
-1.0
100
AcDbArc
 50
30.0
 51
150.0
1001
ACAD
1000
R13OBJECT
1002
{
1005
287
1002
}
  0
LINE
  5
21C
100
AcDbEntity
  8
2D_PROFILE
100
AcDbLine
 10
8.611413
 20
2.450348
 30
0.0
 11
8.871221
 21
2.900348
 31
0.0
1001
ACAD
1000
R13OBJECT
1002
{
1005
287
1002
}
  0
ARC
  5
21D
100
AcDbEntity
  8
2D_PROFILE
100
AcDbCircle
 10
8.481509
 20
2.525348
 30
0.0
 40
0.15
100
AcDbArc
 50
270.0
 51
330.0
1001
ACAD
1000
R13OBJECT
1002
{
1005
287
1002
}
  0
LINE
  5
21E
100
AcDbEntity
  8
2D_PROFILE
100
AcDbLine
 10
8.27074
 20
2.375348
 30
0.0
 11
8.481509
 21
2.375348
 31
0.0
1001
ACAD
1000
R13OBJECT
1002
{
1005
287
1002
}
  0
ARC
  5
21F
100
AcDbEntity
  8
2D_PROFILE
100
AcDbCircle
 10
8.27074
 20
2.525348
 30
0.0
 40
0.15
100
AcDbArc
 50
210.0
 51
270.0
1001
ACAD
1000
R13OBJECT
1002
{
1005
287
1002
}
  0
LINE
  5
220
100
AcDbEntity
  8
2D_PROFILE
100
AcDbLine
 10
7.881028
 20
2.900348
 30
0.0
 11
8.140836
 21
2.450348
 31
0.0
1001
ACAD
1000
R13OBJECT
1002
{
1005
287
1002
}
  0
ARC
  5
221
100
AcDbEntity
  8
2D_PROFILE
100
AcDbCircle
 10
-7.751125
 20
2.825348
 30
0.0
 40
0.15
210
0.0
220
0.0
230
-1.0
100
AcDbArc
 50
30.0
 51
150.0
1001
ACAD
1000
R13OBJECT
1002
{
1005
287
1002
}
  0
LINE
  5
222
100
AcDbEntity
  8
2D_PROFILE
100
AcDbLine
 10
7.361413
 20
2.450348
 30
0.0
 11
7.621221
 21
2.900348
 31
0.0
1001
ACAD
1000
R13OBJECT
1002
{
1005
287
1002
}
  0
ARC
  5
223
100
AcDbEntity
  8
2D_PROFILE
100
AcDbCircle
 10
7.231509
 20
2.525348
 30
0.0
 40
0.15
100
AcDbArc
 50
270.0
 51
330.0
1001
ACAD
1000
R13OBJECT
1002
{
1005
287
1002
}
  0
LINE
  5
224
100
AcDbEntity
  8
2D_PROFILE
100
AcDbLine
 10
7.02074
 20
2.375348
 30
0.0
 11
7.231509
 21
2.375348
 31
0.0
1001
ACAD
1000
R13OBJECT
1002
{
1005
287
1002
}
  0
ARC
  5
225
100
AcDbEntity
  8
2D_PROFILE
100
AcDbCircle
 10
7.02074
 20
2.525348
 30
0.0
 40
0.15
100
AcDbArc
 50
210.0
 51
270.0
1001
ACAD
1000
R13OBJECT
1002
{
1005
287
1002
}
  0
LINE
  5
226
100
AcDbEntity
  8
2D_PROFILE
100
AcDbLine
 10
6.587727
 20
2.975348
 30
0.0
 11
6.890836
 21
2.450348
 31
0.0
1001
ACAD
1000
R13OBJECT
1002
{
1005
287
1002
}
  0
ARC
  5
227
100
AcDbEntity
  8
2D_PROFILE
100
AcDbCircle
 10
-6.32792
 20
2.825348
 30
0.0
 40
0.3
210
0.0
220
0.0
230
-1.0
100
AcDbArc
 50
90.0
 51
150.0
1001
ACAD
1000
R13OBJECT
1002
{
1005
287
1002
}
  0
LINE
  5
228
100
AcDbEntity
  8
2D_PROFILE
100
AcDbLine
 10
6.252325
 20
3.125348
 30
0.0
 11
6.32792
 21
3.125348
 31
0.0
1001
ACAD
1000
R13OBJECT
1002
{
1005
287
1002
}
  0
ARC
  5
229
100
AcDbEntity
  8
2D_PROFILE
100
AcDbCircle
 10
-6.252325
 20
2.125348
 30
0.0
 40
1.0
210
0.0
220
0.0
230
-1.0
100
AcDbArc
 50
333.256316
 51
90.0
1001
ACAD
1000
R13OBJECT
1002
{
1005
287
1002
}
  0
ARC
  5
22A
100
AcDbEntity
  8
2D_PROFILE
100
AcDbCircle
 10
0.001125
 20
-1.024652
 30
0.0
 40
6.0
100
AcDbArc
 50
333.256316
 51
26.743684
1001
ACAD
1000
R13OBJECT
1002
{
1005
287
1002
}
  0
ARC
  5
22B
100
AcDbEntity
  8
2D_PROFILE
100
AcDbCircle
 10
-6.252325
 20
-4.174652
 30
0.0
 40
1.0
210
0.0
220
0.0
230
-1.0
100
AcDbArc
 50
270.0
 51
26.743684
1001
ACAD
1000
R13OBJECT
1002
{
1005
287
1002
}
  0
LINE
  5
22C
100
AcDbEntity
  8
2D_PROFILE
100
AcDbLine
 10
7.039522
 20
-5.174652
 30
0.0
 11
6.252325
 21
-5.174652
 31
0.0
1001
ACAD
1000
R13OBJECT
1002
{
1005
287
1002
}
  0
ARC
  5
22D
100
AcDbEntity
  8
2D_PROFILE
100
AcDbCircle
 10
-7.039522
 20
-5.024652
 30
0.0
 40
0.15
210
0.0
220
0.0
230
-1.0
100
AcDbArc
 50
210.0
 51
270.0
1001
ACAD
1000
R13OBJECT
1002
{
1005
287
1002
}
  0
LINE
  5
22E
100
AcDbEntity
  8
2D_PROFILE
100
AcDbLine
 10
7.515836
 20
-4.499652
 30
0.0
 11
7.169426
 21
-5.099652
 31
0.0
1001
ACAD
1000
R13OBJECT
1002
{
1005
287
1002
}
  0
ARC
  5
22F
100
AcDbEntity
  8
2D_PROFILE
100
AcDbCircle
 10
7.64574
 20
-4.574652
 30
0.0
 40
0.15
100
AcDbArc
 50
90.0
 51
150.0
1001
ACAD
1000
R13OBJECT
1002
{
1005
287
1002
}
  0
LINE
  5
230
100
AcDbEntity
  8
2D_PROFILE
100
AcDbLine
 10
7.856509
 20
-4.424652
 30
0.0
 11
7.64574
 21
-4.424652
 31
0.0
1001
ACAD
1000
R13OBJECT
1002
{
1005
287
1002
}
  0
ARC
  5
231
100
AcDbEntity
  8
2D_PROFILE
100
AcDbCircle
 10
7.856509
 20
-4.574652
 30
0.0
 40
0.15
100
AcDbArc
 50
30.0
 51
90.0
1001
ACAD
1000
R13OBJECT
1002
{
1005
287
1002
}
  0
LINE
  5
232
100
AcDbEntity
  8
2D_PROFILE
100
AcDbLine
 10
8.246221
 20
-4.949652
 30
0.0
 11
7.986413
 21
-4.499652
 31
0.0
1001
ACAD
1000
R13OBJECT
1002
{
1005
287
1002
}
  0
ARC
  5
233
100
AcDbEntity
  8
2D_PROFILE
100
AcDbCircle
 10
-8.376125
 20
-4.874652
 30
0.0
 40
0.15
210
0.0
220
0.0
230
-1.0
100
AcDbArc
 50
210.0
 51
330.0
1001
ACAD
1000
R13OBJECT
1002
{
1005
287
1002
}
  0
LINE
  5
234
100
AcDbEntity
  8
2D_PROFILE
100
AcDbLine
 10
8.765836
 20
-4.499652
 30
0.0
 11
8.506028
 21
-4.949652
 31
0.0
1001
ACAD
1000
R13OBJECT
1002
{
1005
287
1002
}
  0
ARC
  5
235
100
AcDbEntity
  8
2D_PROFILE
100
AcDbCircle
 10
8.89574
 20
-4.574652
 30
0.0
 40
0.15
100
AcDbArc
 50
90.0
 51
150.0
1001
ACAD
1000
R13OBJECT
1002
{
1005
287
1002
}
  0
LINE
  5
236
100
AcDbEntity
  8
2D_PROFILE
100
AcDbLine
 10
9.106509
 20
-4.424652
 30
0.0
 11
8.89574
 21
-4.424652
 31
0.0
1001
ACAD
1000
R13OBJECT
1002
{
1005
287
1002
}
  0
ARC
  5
237
100
AcDbEntity
  8
2D_PROFILE
100
AcDbCircle
 10
9.106509
 20
-4.574652
 30
0.0
 40
0.15
100
AcDbArc
 50
30.0
 51
90.0
1001
ACAD
1000
R13OBJECT
1002
{
1005
287
1002
}
  0
LINE
  5
238
100
AcDbEntity
  8
2D_PROFILE
100
AcDbLine
 10
9.496221
 20
-4.949652
 30
0.0
 11
9.236413
 21
-4.499652
 31
0.0
1001
ACAD
1000
R13OBJECT
1002
{
1005
287
1002
}
  0
ARC
  5
239
100
AcDbEntity
  8
2D_PROFILE
100
AcDbCircle
 10
-9.626125
 20
-4.874652
 30
0.0
 40
0.15
210
0.0
220
0.0
230
-1.0
100
AcDbArc
 50
210.0
 51
330.0
1001
ACAD
1000
R13OBJECT
1002
{
1005
287
1002
}
  0
LINE
  5
23A
100
AcDbEntity
  8
2D_PROFILE
100
AcDbLine
 10
10.015836
 20
-4.499652
 30
0.0
 11
9.756028
 21
-4.949652
 31
0.0
1001
ACAD
1000
R13OBJECT
1002
{
1005
287
1002
}
  0
ARC
  5
23B
100
AcDbEntity
  8
2D_PROFILE
100
AcDbCircle
 10
10.14574
 20
-4.574652
 30
0.0
 40
0.15
100
AcDbArc
 50
90.0
 51
150.0
1001
ACAD
1000
R13OBJECT
1002
{
1005
287
1002
}
  0
LINE
  5
23C
100
AcDbEntity
  8
2D_PROFILE
100
AcDbLine
 10
10.356509
 20
-4.424652
 30
0.0
 11
10.14574
 21
-4.424652
 31
0.0
1001
ACAD
1000
R13OBJECT
1002
{
1005
287
1002
}
  0
ARC
  5
23D
100
AcDbEntity
  8
2D_PROFILE
100
AcDbCircle
 10
10.356509
 20
-4.574652
 30
0.0
 40
0.15
100
AcDbArc
 50
30.0
 51
90.0
1001
ACAD
1000
R13OBJECT
1002
{
1005
287
1002
}
  0
LINE
  5
23E
100
AcDbEntity
  8
2D_PROFILE
100
AcDbLine
 10
10.746221
 20
-4.949652
 30
0.0
 11
10.486413
 21
-4.499652
 31
0.0
1001
ACAD
1000
R13OBJECT
1002
{
1005
287
1002
}
  0
ARC
  5
23F
100
AcDbEntity
  8
2D_PROFILE
100
AcDbCircle
 10
-10.876125
 20
-4.874652
 30
0.0
 40
0.15
210
0.0
220
0.0
230
-1.0
100
AcDbArc
 50
210.0
 51
330.0
1001
ACAD
1000
R13OBJECT
1002
{
1005
287
1002
}
  0
LINE
  5
240
100
AcDbEntity
  8
2D_PROFILE
100
AcDbLine
 10
11.265836
 20
-4.499652
 30
0.0
 11
11.006028
 21
-4.949652
 31
0.0
1001
ACAD
1000
R13OBJECT
1002
{
1005
287
1002
}
  0
ARC
  5
241
100
AcDbEntity
  8
2D_PROFILE
100
AcDbCircle
 10
11.39574
 20
-4.574652
 30
0.0
 40
0.15
100
AcDbArc
 50
90.0
 51
150.0
1001
ACAD
1000
R13OBJECT
1002
{
1005
287
1002
}
  0
LINE
  5
242
100
AcDbEntity
  8
2D_PROFILE
100
AcDbLine
 10
11.606509
 20
-4.424652
 30
0.0
 11
11.39574
 21
-4.424652
 31
0.0
1001
ACAD
1000
R13OBJECT
1002
{
1005
287
1002
}
  0
ARC
  5
243
100
AcDbEntity
  8
2D_PROFILE
100
AcDbCircle
 10
11.606509
 20
-4.574652
 30
0.0
 40
0.15
100
AcDbArc
 50
30.0
 51
90.0
1001
ACAD
1000
R13OBJECT
1002
{
1005
287
1002
}
  0
LINE
  5
244
100
AcDbEntity
  8
2D_PROFILE
100
AcDbLine
 10
11.996221
 20
-4.949652
 30
0.0
 11
11.736413
 21
-4.499652
 31
0.0
1001
ACAD
1000
R13OBJECT
1002
{
1005
287
1002
}
  0
ARC
  5
245
100
AcDbEntity
  8
2D_PROFILE
100
AcDbCircle
 10
-12.126125
 20
-4.874652
 30
0.0
 40
0.15
210
0.0
220
0.0
230
-1.0
100
AcDbArc
 50
210.0
 51
330.0
1001
ACAD
1000
R13OBJECT
1002
{
1005
287
1002
}
  0
LINE
  5
246
100
AcDbEntity
  8
2D_PROFILE
100
AcDbLine
 10
12.515836
 20
-4.499652
 30
0.0
 11
12.256028
 21
-4.949652
 31
0.0
1001
ACAD
1000
R13OBJECT
1002
{
1005
287
1002
}
  0
ARC
  5
247
100
AcDbEntity
  8
2D_PROFILE
100
AcDbCircle
 10
12.64574
 20
-4.574652
 30
0.0
 40
0.15
100
AcDbArc
 50
90.0
 51
150.0
1001
ACAD
1000
R13OBJECT
1002
{
1005
287
1002
}
  0
LINE
  5
248
100
AcDbEntity
  8
2D_PROFILE
100
AcDbLine
 10
12.856509
 20
-4.424652
 30
0.0
 11
12.64574
 21
-4.424652
 31
0.0
1001
ACAD
1000
R13OBJECT
1002
{
1005
287
1002
}
  0
ARC
  5
249
100
AcDbEntity
  8
2D_PROFILE
100
AcDbCircle
 10
12.856509
 20
-4.574652
 30
0.0
 40
0.15
100
AcDbArc
 50
30.0
 51
90.0
1001
ACAD
1000
R13OBJECT
1002
{
1005
287
1002
}
  0
LINE
  5
24A
100
AcDbEntity
  8
2D_PROFILE
100
AcDbLine
 10
13.246221
 20
-4.949652
 30
0.0
 11
12.986413
 21
-4.499652
 31
0.0
1001
ACAD
1000
R13OBJECT
1002
{
1005
287
1002
}
  0
ARC
  5
24B
100
AcDbEntity
  8
2D_PROFILE
100
AcDbCircle
 10
-13.376125
 20
-4.874652
 30
0.0
 40
0.15
210
0.0
220
0.0
230
-1.0
100
AcDbArc
 50
210.0
 51
330.0
1001
ACAD
1000
R13OBJECT
1002
{
1005
287
1002
}
  0
LINE
  5
24C
100
AcDbEntity
  8
2D_PROFILE
100
AcDbLine
 10
13.765836
 20
-4.499652
 30
0.0
 11
13.506028
 21
-4.949652
 31
0.0
1001
ACAD
1000
R13OBJECT
1002
{
1005
287
1002
}
  0
ARC
  5
24D
100
AcDbEntity
  8
2D_PROFILE
100
AcDbCircle
 10
13.89574
 20
-4.574652
 30
0.0
 40
0.15
100
AcDbArc
 50
90.0
 51
150.0
1001
ACAD
1000
R13OBJECT
1002
{
1005
287
1002
}
  0
LINE
  5
24E
100
AcDbEntity
  8
2D_PROFILE
100
AcDbLine
 10
14.106509
 20
-4.424652
 30
0.0
 11
13.89574
 21
-4.424652
 31
0.0
1001
ACAD
1000
R13OBJECT
1002
{
1005
287
1002
}
  0
ARC
  5
24F
100
AcDbEntity
  8
2D_PROFILE
100
AcDbCircle
 10
14.106509
 20
-4.574652
 30
0.0
 40
0.15
100
AcDbArc
 50
30.0
 51
90.0
1001
ACAD
1000
R13OBJECT
1002
{
1005
287
1002
}
  0
LINE
  5
250
100
AcDbEntity
  8
2D_PROFILE
100
AcDbLine
 10
14.496221
 20
-4.949652
 30
0.0
 11
14.236413
 21
-4.499652
 31
0.0
1001
ACAD
1000
R13OBJECT
1002
{
1005
287
1002
}
  0
ARC
  5
251
100
AcDbEntity
  8
2D_PROFILE
100
AcDbCircle
 10
-14.626125
 20
-4.874652
 30
0.0
 40
0.15
210
0.0
220
0.0
230
-1.0
100
AcDbArc
 50
210.0
 51
330.0
1001
ACAD
1000
R13OBJECT
1002
{
1005
287
1002
}
  0
LINE
  5
252
100
AcDbEntity
  8
2D_PROFILE
100
AcDbLine
 10
15.015836
 20
-4.499652
 30
0.0
 11
14.756028
 21
-4.949652
 31
0.0
1001
ACAD
1000
R13OBJECT
1002
{
1005
287
1002
}
  0
ARC
  5
253
100
AcDbEntity
  8
2D_PROFILE
100
AcDbCircle
 10
15.14574
 20
-4.574652
 30
0.0
 40
0.15
100
AcDbArc
 50
90.0
 51
150.0
1001
ACAD
1000
R13OBJECT
1002
{
1005
287
1002
}
  0
LINE
  5
254
100
AcDbEntity
  8
2D_PROFILE
100
AcDbLine
 10
15.356509
 20
-4.424652
 30
0.0
 11
15.14574
 21
-4.424652
 31
0.0
1001
ACAD
1000
R13OBJECT
1002
{
1005
287
1002
}
  0
ARC
  5
255
100
AcDbEntity
  8
2D_PROFILE
100
AcDbCircle
 10
15.356509
 20
-4.574652
 30
0.0
 40
0.15
100
AcDbArc
 50
30.0
 51
90.0
1001
ACAD
1000
R13OBJECT
1002
{
1005
287
1002
}
  0
LINE
  5
256
100
AcDbEntity
  8
2D_PROFILE
100
AcDbLine
 10
15.746221
 20
-4.949652
 30
0.0
 11
15.486413
 21
-4.499652
 31
0.0
1001
ACAD
1000
R13OBJECT
1002
{
1005
287
1002
}
  0
ARC
  5
257
100
AcDbEntity
  8
2D_PROFILE
100
AcDbCircle
 10
-15.876125
 20
-4.874652
 30
0.0
 40
0.15
210
0.0
220
0.0
230
-1.0
100
AcDbArc
 50
210.0
 51
330.0
1001
ACAD
1000
R13OBJECT
1002
{
1005
287
1002
}
  0
LINE
  5
258
100
AcDbEntity
  8
2D_PROFILE
100
AcDbLine
 10
16.265836
 20
-4.499652
 30
0.0
 11
16.006028
 21
-4.949652
 31
0.0
1001
ACAD
1000
R13OBJECT
1002
{
1005
287
1002
}
  0
ARC
  5
259
100
AcDbEntity
  8
2D_PROFILE
100
AcDbCircle
 10
16.39574
 20
-4.574652
 30
0.0
 40
0.15
100
AcDbArc
 50
90.0
 51
150.0
1001
ACAD
1000
R13OBJECT
1002
{
1005
287
1002
}
  0
LINE
  5
25A
100
AcDbEntity
  8
2D_PROFILE
100
AcDbLine
 10
16.606509
 20
-4.424652
 30
0.0
 11
16.39574
 21
-4.424652
 31
0.0
1001
ACAD
1000
R13OBJECT
1002
{
1005
287
1002
}
  0
ARC
  5
25B
100
AcDbEntity
  8
2D_PROFILE
100
AcDbCircle
 10
16.606509
 20
-4.574652
 30
0.0
 40
0.15
100
AcDbArc
 50
30.0
 51
90.0
1001
ACAD
1000
R13OBJECT
1002
{
1005
287
1002
}
  0
LINE
  5
25C
100
AcDbEntity
  8
2D_PROFILE
100
AcDbLine
 10
16.996221
 20
-4.949652
 30
0.0
 11
16.736413
 21
-4.499652
 31
0.0
1001
ACAD
1000
R13OBJECT
1002
{
1005
287
1002
}
  0
ARC
  5
25D
100
AcDbEntity
  8
2D_PROFILE
100
AcDbCircle
 10
-17.126125
 20
-4.874652
 30
0.0
 40
0.15
210
0.0
220
0.0
230
-1.0
100
AcDbArc
 50
210.0
 51
330.0
1001
ACAD
1000
R13OBJECT
1002
{
1005
287
1002
}
  0
LINE
  5
25E
100
AcDbEntity
  8
2D_PROFILE
100
AcDbLine
 10
17.515836
 20
-4.499652
 30
0.0
 11
17.256028
 21
-4.949652
 31
0.0
1001
ACAD
1000
R13OBJECT
1002
{
1005
287
1002
}
  0
ARC
  5
25F
100
AcDbEntity
  8
2D_PROFILE
100
AcDbCircle
 10
17.64574
 20
-4.574652
 30
0.0
 40
0.15
100
AcDbArc
 50
90.0
 51
150.0
1001
ACAD
1000
R13OBJECT
1002
{
1005
287
1002
}
  0
LINE
  5
260
100
AcDbEntity
  8
2D_PROFILE
100
AcDbLine
 10
17.856509
 20
-4.424652
 30
0.0
 11
17.64574
 21
-4.424652
 31
0.0
1001
ACAD
1000
R13OBJECT
1002
{
1005
287
1002
}
  0
ARC
  5
261
100
AcDbEntity
  8
2D_PROFILE
100
AcDbCircle
 10
17.856509
 20
-4.574652
 30
0.0
 40
0.15
100
AcDbArc
 50
30.0
 51
90.0
1001
ACAD
1000
R13OBJECT
1002
{
1005
287
1002
}
  0
LINE
  5
262
100
AcDbEntity
  8
2D_PROFILE
100
AcDbLine
 10
18.246221
 20
-4.949652
 30
0.0
 11
17.986413
 21
-4.499652
 31
0.0
1001
ACAD
1000
R13OBJECT
1002
{
1005
287
1002
}
  0
ARC
  5
263
100
AcDbEntity
  8
2D_PROFILE
100
AcDbCircle
 10
-18.376125
 20
-4.874652
 30
0.0
 40
0.15
210
0.0
220
0.0
230
-1.0
100
AcDbArc
 50
210.0
 51
330.0
1001
ACAD
1000
R13OBJECT
1002
{
1005
287
1002
}
  0
LINE
  5
264
100
AcDbEntity
  8
2D_PROFILE
100
AcDbLine
 10
18.765836
 20
-4.499652
 30
0.0
 11
18.506028
 21
-4.949652
 31
0.0
1001
ACAD
1000
R13OBJECT
1002
{
1005
287
1002
}
  0
ARC
  5
265
100
AcDbEntity
  8
2D_PROFILE
100
AcDbCircle
 10
18.89574
 20
-4.574652
 30
0.0
 40
0.15
100
AcDbArc
 50
90.0
 51
150.0
1001
ACAD
1000
R13OBJECT
1002
{
1005
287
1002
}
  0
LINE
  5
266
100
AcDbEntity
  8
2D_PROFILE
100
AcDbLine
 10
19.106509
 20
-4.424652
 30
0.0
 11
18.89574
 21
-4.424652
 31
0.0
1001
ACAD
1000
R13OBJECT
1002
{
1005
287
1002
}
  0
ARC
  5
267
100
AcDbEntity
  8
2D_PROFILE
100
AcDbCircle
 10
19.106509
 20
-4.574652
 30
0.0
 40
0.15
100
AcDbArc
 50
30.0
 51
90.0
1001
ACAD
1000
R13OBJECT
1002
{
1005
287
1002
}
  0
LINE
  5
268
100
AcDbEntity
  8
2D_PROFILE
100
AcDbLine
 10
19.496221
 20
-4.949652
 30
0.0
 11
19.236413
 21
-4.499652
 31
0.0
1001
ACAD
1000
R13OBJECT
1002
{
1005
287
1002
}
  0
ARC
  5
269
100
AcDbEntity
  8
2D_PROFILE
100
AcDbCircle
 10
-19.626125
 20
-4.874652
 30
0.0
 40
0.15
210
0.0
220
0.0
230
-1.0
100
AcDbArc
 50
210.0
 51
330.0
1001
ACAD
1000
R13OBJECT
1002
{
1005
287
1002
}
  0
LINE
  5
26A
100
AcDbEntity
  8
2D_PROFILE
100
AcDbLine
 10
20.015836
 20
-4.499652
 30
0.0
 11
19.756028
 21
-4.949652
 31
0.0
1001
ACAD
1000
R13OBJECT
1002
{
1005
287
1002
}
  0
ARC
  5
26B
100
AcDbEntity
  8
2D_PROFILE
100
AcDbCircle
 10
20.14574
 20
-4.574652
 30
0.0
 40
0.15
100
AcDbArc
 50
90.0
 51
150.0
1001
ACAD
1000
R13OBJECT
1002
{
1005
287
1002
}
  0
LINE
  5
26C
100
AcDbEntity
  8
2D_PROFILE
100
AcDbLine
 10
20.356509
 20
-4.424652
 30
0.0
 11
20.14574
 21
-4.424652
 31
0.0
1001
ACAD
1000
R13OBJECT
1002
{
1005
287
1002
}
  0
ARC
  5
26D
100
AcDbEntity
  8
2D_PROFILE
100
AcDbCircle
 10
20.356509
 20
-4.574652
 30
0.0
 40
0.15
100
AcDbArc
 50
30.0
 51
90.0
1001
ACAD
1000
R13OBJECT
1002
{
1005
287
1002
}
  0
LINE
  5
26E
100
AcDbEntity
  8
2D_PROFILE
100
AcDbLine
 10
20.746221
 20
-4.949652
 30
0.0
 11
20.486413
 21
-4.499652
 31
0.0
1001
ACAD
1000
R13OBJECT
1002
{
1005
287
1002
}
  0
ARC
  5
26F
100
AcDbEntity
  8
2D_PROFILE
100
AcDbCircle
 10
-20.876125
 20
-4.874652
 30
0.0
 40
0.15
210
0.0
220
0.0
230
-1.0
100
AcDbArc
 50
210.0
 51
330.0
1001
ACAD
1000
R13OBJECT
1002
{
1005
287
1002
}
  0
LINE
  5
270
100
AcDbEntity
  8
2D_PROFILE
100
AcDbLine
 10
21.265836
 20
-4.499652
 30
0.0
 11
21.006028
 21
-4.949652
 31
0.0
1001
ACAD
1000
R13OBJECT
1002
{
1005
287
1002
}
  0
ARC
  5
271
100
AcDbEntity
  8
2D_PROFILE
100
AcDbCircle
 10
21.39574
 20
-4.574652
 30
0.0
 40
0.15
100
AcDbArc
 50
90.0
 51
150.0
1001
ACAD
1000
R13OBJECT
1002
{
1005
287
1002
}
  0
LINE
  5
272
100
AcDbEntity
  8
2D_PROFILE
100
AcDbLine
 10
21.606509
 20
-4.424652
 30
0.0
 11
21.39574
 21
-4.424652
 31
0.0
1001
ACAD
1000
R13OBJECT
1002
{
1005
287
1002
}
  0
ARC
  5
273
100
AcDbEntity
  8
2D_PROFILE
100
AcDbCircle
 10
21.606509
 20
-4.574652
 30
0.0
 40
0.15
100
AcDbArc
 50
30.0
 51
90.0
1001
ACAD
1000
R13OBJECT
1002
{
1005
287
1002
}
  0
LINE
  5
274
100
AcDbEntity
  8
2D_PROFILE
100
AcDbLine
 10
21.996221
 20
-4.949652
 30
0.0
 11
21.736413
 21
-4.499652
 31
0.0
1001
ACAD
1000
R13OBJECT
1002
{
1005
287
1002
}
  0
ARC
  5
275
100
AcDbEntity
  8
2D_PROFILE
100
AcDbCircle
 10
-22.126125
 20
-4.874652
 30
0.0
 40
0.15
210
0.0
220
0.0
230
-1.0
100
AcDbArc
 50
210.0
 51
330.0
1001
ACAD
1000
R13OBJECT
1002
{
1005
287
1002
}
  0
LINE
  5
276
100
AcDbEntity
  8
2D_PROFILE
100
AcDbLine
 10
22.515836
 20
-4.499652
 30
0.0
 11
22.256028
 21
-4.949652
 31
0.0
1001
ACAD
1000
R13OBJECT
1002
{
1005
287
1002
}
  0
ARC
  5
277
100
AcDbEntity
  8
2D_PROFILE
100
AcDbCircle
 10
22.64574
 20
-4.574652
 30
0.0
 40
0.15
100
AcDbArc
 50
90.0
 51
150.0
1001
ACAD
1000
R13OBJECT
1002
{
1005
287
1002
}
  0
LINE
  5
278
100
AcDbEntity
  8
2D_PROFILE
100
AcDbLine
 10
22.856509
 20
-4.424652
 30
0.0
 11
22.64574
 21
-4.424652
 31
0.0
1001
ACAD
1000
R13OBJECT
1002
{
1005
287
1002
}
  0
ARC
  5
279
100
AcDbEntity
  8
2D_PROFILE
100
AcDbCircle
 10
22.856509
 20
-4.574652
 30
0.0
 40
0.15
100
AcDbArc
 50
30.0
 51
90.0
1001
ACAD
1000
R13OBJECT
1002
{
1005
287
1002
}
  0
LINE
  5
27A
100
AcDbEntity
  8
2D_PROFILE
100
AcDbLine
 10
23.246221
 20
-4.949652
 30
0.0
 11
22.986413
 21
-4.499652
 31
0.0
1001
ACAD
1000
R13OBJECT
1002
{
1005
287
1002
}
  0
ARC
  5
27B
100
AcDbEntity
  8
2D_PROFILE
100
AcDbCircle
 10
-23.376125
 20
-4.874652
 30
0.0
 40
0.15
210
0.0
220
0.0
230
-1.0
100
AcDbArc
 50
210.0
 51
330.0
1001
ACAD
1000
R13OBJECT
1002
{
1005
287
1002
}
  0
LINE
  5
27C
100
AcDbEntity
  8
2D_PROFILE
100
AcDbLine
 10
23.765836
 20
-4.499652
 30
0.0
 11
23.506028
 21
-4.949652
 31
0.0
1001
ACAD
1000
R13OBJECT
1002
{
1005
287
1002
}
  0
ARC
  5
27D
100
AcDbEntity
  8
2D_PROFILE
100
AcDbCircle
 10
23.89574
 20
-4.574652
 30
0.0
 40
0.15
100
AcDbArc
 50
90.0
 51
150.0
1001
ACAD
1000
R13OBJECT
1002
{
1005
287
1002
}
  0
LINE
  5
27E
100
AcDbEntity
  8
2D_PROFILE
100
AcDbLine
 10
24.106509
 20
-4.424652
 30
0.0
 11
23.89574
 21
-4.424652
 31
0.0
1001
ACAD
1000
R13OBJECT
1002
{
1005
287
1002
}
  0
ARC
  5
27F
100
AcDbEntity
  8
2D_PROFILE
100
AcDbCircle
 10
24.106509
 20
-4.574652
 30
0.0
 40
0.15
100
AcDbArc
 50
30.0
 51
90.0
1001
ACAD
1000
R13OBJECT
1002
{
1005
287
1002
}
  0
ARC
  5
280
100
AcDbEntity
  8
2D_PROFILE
100
AcDbCircle
 10
-24.365273
 20
-4.422851
 30
0.0
 40
0.150011
210
0.0
220
0.0
230
-1.0
100
AcDbArc
 50
187.943063
 51
329.204815
1001
ACAD
1000
R13OBJECT
1002
{
1005
287
1002
}
  0
ARC
  5
281
100
AcDbEntity
  8
2D_PROFILE
100
AcDbCircle
 10
-0.001125
 20
-1.024652
 30
0.0
 40
24.75
210
0.0
220
0.0
230
-1.0
100
AcDbArc
 50
172.326925
 51
187.940146
1001
ACAD
1000
R13OBJECT
1002
{
1005
287
1002
}
  0
ARC
  5
282
100
AcDbEntity
  8
2D_PROFILE
100
AcDbCircle
 10
-22.696113
 20
5.975348
 30
0.0
 40
1.0
210
0.0
220
0.0
230
-1.0
100
AcDbArc
 50
162.858242
 51
270.0
1001
ACAD
1000
R13OBJECT
1002
{
1005
287
1002
}
  0
ARC
  5
283
100
AcDbEntity
  8
2D_PROFILE
100
AcDbCircle
 10
-0.001125
 20
-1.024652
 30
0.0
 40
24.75
210
0.0
220
0.0
230
-1.0
100
AcDbArc
 50
138.923303
 51
162.858242
1001
ACAD
1000
R13OBJECT
1002
{
1005
287
1002
}
  0
ARC
  5
284
100
AcDbEntity
  8
2D_PROFILE
100
AcDbCircle
 10
-17.904604
 20
14.58073
 30
0.0
 40
1.0
210
0.0
220
0.0
230
-1.0
100
AcDbArc
 50
45.0
 51
138.923303
1001
ACAD
1000
R13OBJECT
1002
{
1005
287
1002
}
  0
LINE
  5
285
100
AcDbEntity
  8
2D_PROFILE
100
AcDbLine
 10
8.592115
 20
6.682455
 30
0.0
 11
17.197497
 21
15.287836
 31
0.0
1001
ACAD
1000
R13OBJECT
1002
{
1005
287
1002
}
  0
ARC
  5
286
100
AcDbEntity
  8
2D_PROFILE
100
AcDbCircle
 10
-9.299222
 20
5.975348
 30
0.0
 40
1.0
210
0.0
220
0.0
230
-1.0
100
AcDbArc
 50
270.0
 51
45.0
1001
ACAD
1000
R13OBJECT
1002
{
1005
287
1002
}
  0
LINE
  5
287
100
AcDbEntity
  8
2D_PROFILE
100
AcDbLine
 10
22.696113
 20
4.975348
 30
0.0
 11
9.299222
 21
4.975348
 31
0.0
  0
LINE
  5
288
100
AcDbEntity
  8
2D_PROFILE
100
AcDbLine
 10
-51.946064
 20
-73.32774
 30
274.987694
 11
-51.946064
 21
-73.32774
 31
274.987694
210
-0.0000000000000004
220
-1.0
230
0.0
  0
INSERT
  5
289
100
AcDbEntity
  8
2D_PROFILE
100
AcDbBlockReference
 66
     1
  2
RM_SDB
 10
-10.3
 20
-108.0295
 30
0.0
1001
AVE_MATERIAL
1002
{
1000
ALUMINUM
1000
1
1000

1002
{
1002
}
1002
{
1070
    39
1002
{
1002
{
1010
0.803922
1020
0.807843
1030
0.807843
1002
}
1040
1.0
1000

1040
0.0
1002
{
1002
}
1040
0.0
1002
{
1002
}
1040
0.0
1002
}
1002
{
1002
{
1010
0.803922
1020
0.807843
1030
0.807843
1002
}
1040
1.0
1000

1040
0.0
1002
{
1002
}
1040
0.0
1002
{
1002
}
1040
0.0
1002
}
1002
{
1002
{
1010
0.803922
1020
0.807843
1030
0.807843
1002
}
1040
1.0
1000

1040
0.0
1002
{
1002
}
1040
0.0
1002
{
1002
}
1040
0.0
1002
}
1002
{
1070
     0
1002
{
1070
     1
1002
{
1040
1.0
1040
1.0
1000

1040
0.0
1002
{
1002
}
1040
0.0
1002
{
1002
}
1040
0.0
1002
}
1002
}
1040
0.0
1040
0.0
1040
0.0
1002
}
1002
{
1040
0.0
1040
0.0
1000

1040
0.0
1002
{
1002
}
1040
0.0
1002
{
1002
}
1040
0.0
1002
}
1002
{
1040
0.45
1040
1.0
1000

1040
0.0
1002
{
1002
}
1040
0.0
1002
{
1002
}
1040
0.0
1002
}
1002
{
1070
     0
1040
0.0
1002
{
1002
}
1040
0.0
1002
{
1002
}
1040
0.0
1002
}
1002
{
1040
0.0
1002
{
1002
{
1010
0.0
1020
0.0
1030
0.0
1002
}
1040
0.0
1000

1040
0.0
1002
{
1002
}
1040
0.0
1002
{
1002
}
1040
0.0
1002
}
1002
}
1002
{
1002
{
1070
     1
1002
{
1040
0.0
1040
1.0
1000

1040
0.0
1002
{
1002
}
1040
0.0
1002
{
1002
}
1040
0.0
1002
}
1002
}
1040
0.0
1002
{
1002
}
1010
0.0
1020
0.0
1030
0.0
1010
0.0
1020
0.0
1030
0.0
1010
0.0
1020
0.0
1030
0.0
1070
     0
1002
}
1002
{
1002
{
1040
0.0
1040
0.0
1002
{
1070
     0
1002
}
1002
}
1070
     0
1040
0.0
1002
{
1002
}
1002
}
1002
{
1002
}
1002
}
1002
{
1071
        0
1070
     3
1070
     0
1002
{
1070
     2
1070
     1
1070
     0
1040
0.0
1002
}
1070
     0
1070
     0
1002
{
1002
}
1002
}
1002
{
1040
0.0
1040
0.0
1040
0.0
1040
0.0
1040
0.0
1040
0.0
1040
0.0
1040
0.0
1002
}
1002
}
  0
ATTRIB
  5
28A
100
AcDbEntity
  8
2D_PROFILE
100
AcDbText
 10
-10.3
 20
-108.0295
 30
0.0
 40
0.2
  1
ALUMINUM
100
AcDbAttribute
  2
NAME
 70
     1
  0
ATTRIB
  5
28B
100
AcDbEntity
  8
2D_PROFILE
100
AcDbText
 10
-10.3
 20
-108.0295
 30
0.0
 40
0.2
  1
 
100
AcDbAttribute
  2
ACADCOLOR
 70
     1
  0
ATTRIB
  5
28C
100
AcDbEntity
  8
2D_PROFILE
100
AcDbText
 10
-10.3
 20
-108.0295
 30
0.0
 40
0.2
  1
0.8039,0.8078,0.8078
100
AcDbAttribute
  2
COLOR
 70
     1
  0
ATTRIB
  5
28D
100
AcDbEntity
  8
2D_PROFILE
100
AcDbText
 10
-10.3
 20
-108.0295
 30
0.0
 40
0.2
  1
1.0,1.0,1.0
100
AcDbAttribute
  2
OPACITY
 70
     1
  0
ATTRIB
  5
28E
100
AcDbEntity
  8
2D_PROFILE
100
AcDbText
 10
-10.3
 20
-108.0295
 30
0.0
 40
0.2
  1
("nullsurf" "")
100
AcDbAttribute
  2
SURFACE
 70
     1
  0
ATTRIB
  5
28F
100
AcDbEntity
  8
2D_PROFILE
100
AcDbText
 10
-10.3
 20
-108.0295
 30
0.0
 40
0.2
  1
(11 "Ka" "1")(11 "Kd" "1")(11 "Ks" "1")(11 "roughness" "0.45")
100
AcDbAttribute
  2
SURF1
 70
     1
  0
ATTRIB
  5
290
100
AcDbEntity
  8
2D_PROFILE
100
AcDbText
 10
-10.3
 20
-108.0295
 30
0.0
 40
0.2
  1

100
AcDbAttribute
  2
SURF2
 70
     1
  0
ATTRIB
  5
291
100
AcDbEntity
  8
2D_PROFILE
100
AcDbText
 10
-10.3
 20
-108.0295
 30
0.0
 40
0.2
  1

100
AcDbAttribute
  2
SURF3
 70
     1
  0
ATTRIB
  5
292
100
AcDbEntity
  8
2D_PROFILE
100
AcDbText
 10
-10.3
 20
-108.0295
 30
0.0
 40
0.2
  1

100
AcDbAttribute
  2
SURF4
 70
     1
  0
ATTRIB
  5
293
100
AcDbEntity
  8
2D_PROFILE
100
AcDbText
 10
-10.3
 20
-108.0295
 30
0.0
 40
0.2
  1
-1.0
100
AcDbAttribute
  2
SHADINGRATE
 70
     1
  0
ATTRIB
  5
294
100
AcDbEntity
  8
2D_PROFILE
100
AcDbText
 10
-10.3
 20
-108.0295
 30
0.0
 40
0.2
  1
("nulldisp" "")
100
AcDbAttribute
  2
DISPLACEMENT
 70
     1
  0
ATTRIB
  5
295
100
AcDbEntity
  8
2D_PROFILE
100
AcDbText
 10
-10.3
 20
-108.0295
 30
0.0
 40
0.2
  1

100
AcDbAttribute
  2
DISP1
 70
     1
  0
ATTRIB
  5
296
100
AcDbEntity
  8
2D_PROFILE
100
AcDbText
 10
-10.3
 20
-108.0295
 30
0.0
 40
0.2
  1

100
AcDbAttribute
  2
DISP2
 70
     1
  0
ATTRIB
  5
297
100
AcDbEntity
  8
2D_PROFILE
100
AcDbText
 10
-10.3
 20
-108.0295
 30
0.0
 40
0.2
  1

100
AcDbAttribute
  2
DISP3
 70
     1
  0
ATTRIB
  5
298
100
AcDbEntity
  8
2D_PROFILE
100
AcDbText
 10
-10.3
 20
-108.0295
 30
0.0
 40
0.2
  1

100
AcDbAttribute
  2
DISP4
 70
     1
  0
ATTRIB
  5
299
100
AcDbEntity
  8
2D_PROFILE
100
AcDbText
 10
-10.3
 20
-108.0295
 30
0.0
 40
0.2
  1
0.0
100
AcDbAttribute
  2
DBOUND
 70
     1
  0
ATTRIB
  5
29A
100
AcDbEntity
  8
2D_PROFILE
100
AcDbText
 10
-10.3
 20
-108.0295
 30
0.0
 40
0.2
  1
0
100
AcDbAttribute
  2
SMOOTH
 70
     1
  0
ATTRIB
  5
29B
100
AcDbEntity
  8
2D_PROFILE
100
AcDbText
 10
-10.3
 20
-108.0295
 30
0.0
 40
0.2
  1
("" "")
100
AcDbAttribute
  2
ATMOSHPERE
 70
     1
  0
ATTRIB
  5
29C
100
AcDbEntity
  8
2D_PROFILE
100
AcDbText
 10
-10.3
 20
-108.0295
 30
0.0
 40
0.2
  1

100
AcDbAttribute
  2
ATMO1
 70
     1
  0
ATTRIB
  5
29D
100
AcDbEntity
  8
2D_PROFILE
100
AcDbText
 10
-10.3
 20
-108.0295
 30
0.0
 40
0.2
  1

100
AcDbAttribute
  2
ATMO2
 70
     1
  0
ATTRIB
  5
29E
100
AcDbEntity
  8
2D_PROFILE
100
AcDbText
 10
-10.3
 20
-108.0295
 30
0.0
 40
0.2
  1

100
AcDbAttribute
  2
ATMO3
 70
     1
  0
ATTRIB
  5
29F
100
AcDbEntity
  8
2D_PROFILE
100
AcDbText
 10
-10.3
 20
-108.0295
 30
0.0
 40
0.2
  1

100
AcDbAttribute
  2
ATMO4
 70
     1
  0
ATTRIB
  5
2A0
100
AcDbEntity
  8
2D_PROFILE
100
AcDbText
 10
-10.3
 20
-108.0295
 30
0.0
 40
0.2
  1
0.0 0.0 1.0 0.0 0.0 1.0 1.0 1.0
100
AcDbAttribute
  2
TCCORD
 70
     1
  0
SEQEND
  5
2BD
100
AcDbEntity
  8
2D_PROFILE
  0
ENDSEC
  0
SECTION
  2
OBJECTS
  0
DICTIONARY
  5
1A
100
AcDbDictionary
  3
ACAD_GROUP
350
18
  3
ACAD_MLINESTYLE
350
19
  0
DICTIONARY
  5
18
102
{ACAD_REACTORS
330
1A
102
}
100
AcDbDictionary
  0
DICTIONARY
  5
19
102
{ACAD_REACTORS
330
1A
102
}
100
AcDbDictionary
  3
STANDARD
350
1C
  0
MLINESTYLE
  5
1C
102
{ACAD_REACTORS
330
19
102
}
100
AcDbMlineStyle
  2
STANDARD
 70
     0
  3

 62
   256
 51
90.0
 52
90.0
 71
     2
 49
0.5
 62
   256
  6
BYLAYER
 49
-0.5
 62
   256
  6
BYLAYER
  0
ENDSEC
  0
EOF
