  0
SECTION
  2
HEADER
  9
$ACADVER
  1
AC1014
  9
$ACADMAINTVER
 70
     9
  9
$DWGCODEPAGE
  3
ANSI_1252
  9
$INSBASE
 10
0.0
 20
0.0
 30
0.0
  9
$EXTMIN
 10
-65.833034
 20
-53.12132
 30
0.0
  9
$EXTMAX
 10
56.030927
 20
53.12132
 30
0.0
  9
$LIMMIN
 10
0.0
 20
0.0
  9
$LIMMAX
 10
210.0
 20
297.0
  9
$ORTHOMODE
 70
     0
  9
$REGENMODE
 70
     1
  9
$FILLMODE
 70
     1
  9
$QTEXTMODE
 70
     0
  9
$MIRRTEXT
 70
     1
  9
$DRAGMODE
 70
     2
  9
$LTSCALE
 40
5.0
  9
$OSMODE
 70
     0
  9
$ATTMODE
 70
     1
  9
$TEXTSIZE
 40
2.5
  9
$TRACEWID
 40
1.0
  9
$TEXTSTYLE
  7
STANDARD
  9
$CLAYER
  8
2D_PROFILE
  9
$CELTYPE
  6
BYLAYER
  9
$CECOLOR
 62
   256
  9
$CELTSCALE
 40
1.0
  9
$DELOBJ
 70
     1
  9
$DISPSILH
 70
     0
  9
$DIMSCALE
 40
1.0
  9
$DIMASZ
 40
2.0
  9
$DIMEXO
 40
1.0
  9
$DIMDLI
 40
0.0
  9
$DIMRND
 40
0.0
  9
$DIMDLE
 40
0.0
  9
$DIMEXE
 40
1.0
  9
$DIMTP
 40
0.3
  9
$DIMTM
 40
0.3
  9
$DIMTXT
 40
3.0
  9
$DIMCEN
 40
0.0
  9
$DIMTSZ
 40
0.0
  9
$DIMTOL
 70
     0
  9
$DIMLIM
 70
     0
  9
$DIMTIH
 70
     0
  9
$DIMTOH
 70
     0
  9
$DIMSE1
 70
     0
  9
$DIMSE2
 70
     0
  9
$DIMTAD
 70
     1
  9
$DIMZIN
 70
     8
  9
$DIMBLK
  1

  9
$DIMASO
 70
     1
  9
$DIMSHO
 70
     1
  9
$DIMPOST
  1

  9
$DIMAPOST
  1

  9
$DIMALT
 70
     0
  9
$DIMALTD
 70
     2
  9
$DIMALTF
 40
25.4
  9
$DIMLFAC
 40
1.0
  9
$DIMTOFL
 70
     1
  9
$DIMTVP
 40
0.0
  9
$DIMTIX
 70
     0
  9
$DIMSOXD
 70
     0
  9
$DIMSAH
 70
     0
  9
$DIMBLK1
  1

  9
$DIMBLK2
  1

  9
$DIMSTYLE
  2
PALETTI
  9
$DIMCLRD
 70
   256
  9
$DIMCLRE
 70
   256
  9
$DIMCLRT
 70
   256
  9
$DIMTFAC
 40
0.5
  9
$DIMGAP
 40
0.7
  9
$DIMJUST
 70
     0
  9
$DIMSD1
 70
     0
  9
$DIMSD2
 70
     0
  9
$DIMTOLJ
 70
     1
  9
$DIMTZIN
 70
     8
  9
$DIMALTZ
 70
     8
  9
$DIMALTTZ
 70
     8
  9
$DIMFIT
 70
     5
  9
$DIMUPT
 70
     0
  9
$DIMUNIT
 70
     2
  9
$DIMDEC
 70
     4
  9
$DIMTDEC
 70
     4
  9
$DIMALTU
 70
     2
  9
$DIMALTTD
 70
     2
  9
$DIMTXSTY
  7
STANDARD
  9
$DIMAUNIT
 70
     0
  9
$LUNITS
 70
     2
  9
$LUPREC
 70
     4
  9
$SKETCHINC
 40
1.0
  9
$FILLETRAD
 40
1.0
  9
$AUNITS
 70
     0
  9
$AUPREC
 70
     0
  9
$MENU
  1
acad
  9
$ELEVATION
 40
0.0
  9
$PELEVATION
 40
0.0
  9
$THICKNESS
 40
0.0
  9
$LIMCHECK
 70
     0
  9
$BLIPMODE
 70
     0
  9
$CHAMFERA
 40
10.0
  9
$CHAMFERB
 40
10.0
  9
$CHAMFERC
 40
0.0
  9
$CHAMFERD
 40
0.0
  9
$SKPOLY
 70
     0
  9
$TDCREATE
 40
2451229.679076250
  9
$TDUPDATE
 40
2451229.679076250
  9
$TDINDWG
 40
0.0000000000
  9
$TDUSRTIMER
 40
0.0000000000
  9
$USRTIMER
 70
     1
  9
$ANGBASE
 50
0.0
  9
$ANGDIR
 70
     0
  9
$PDMODE
 70
     0
  9
$PDSIZE
 40
0.0
  9
$PLINEWID
 40
0.0
  9
$COORDS
 70
     1
  9
$SPLFRAME
 70
     0
  9
$SPLINETYPE
 70
     6
  9
$SPLINESEGS
 70
     8
  9
$ATTDIA
 70
     1
  9
$ATTREQ
 70
     1
  9
$HANDLING
 70
     1
  9
$HANDSEED
  5
11B
  9
$SURFTAB1
 70
     6
  9
$SURFTAB2
 70
     6
  9
$SURFTYPE
 70
     6
  9
$SURFU
 70
     6
  9
$SURFV
 70
     6
  9
$UCSNAME
  2

  9
$UCSORG
 10
0.0
 20
0.0
 30
0.0
  9
$UCSXDIR
 10
1.0
 20
0.0
 30
0.0
  9
$UCSYDIR
 10
0.0
 20
1.0
 30
0.0
  9
$PUCSNAME
  2

  9
$PUCSORG
 10
0.0
 20
0.0
 30
0.0
  9
$PUCSXDIR
 10
1.0
 20
0.0
 30
0.0
  9
$PUCSYDIR
 10
0.0
 20
1.0
 30
0.0
  9
$USERI1
 70
     0
  9
$USERI2
 70
     0
  9
$USERI3
 70
     0
  9
$USERI4
 70
     0
  9
$USERI5
 70
     0
  9
$USERR1
 40
1.0
  9
$USERR2
 40
0.0
  9
$USERR3
 40
0.0
  9
$USERR4
 40
0.0
  9
$USERR5
 40
0.0
  9
$WORLDVIEW
 70
     1
  9
$SHADEDGE
 70
     3
  9
$SHADEDIF
 70
    70
  9
$TILEMODE
 70
     1
  9
$MAXACTVP
 70
    16
  9
$PINSBASE
 10
0.0
 20
0.0
 30
0.0
  9
$PLIMCHECK
 70
     0
  9
$PEXTMIN
 10
1.000000E+20
 20
1.000000E+20
 30
1.000000E+20
  9
$PEXTMAX
 10
-1.000000E+20
 20
-1.000000E+20
 30
-1.000000E+20
  9
$PLIMMIN
 10
0.0
 20
0.0
  9
$PLIMMAX
 10
420.0
 20
297.0
  9
$UNITMODE
 70
     0
  9
$VISRETAIN
 70
     0
  9
$PLINEGEN
 70
     0
  9
$PSLTSCALE
 70
     1
  9
$TREEDEPTH
 70
  3020
  9
$PICKSTYLE
 70
     1
  9
$CMLSTYLE
  2
STANDARD
  9
$CMLJUST
 70
     0
  9
$CMLSCALE
 40
1.0
  9
$PROXYGRAPHICS
 70
     1
  9
$MEASUREMENT
 70
     0
  0
ENDSEC
  0
SECTION
  2
CLASSES
  0
CLASS
  1
DICTIONARYVAR
  2
AcDbDictionaryVar
  3
"AutoCAD"
 90
        0
280
     0
281
     0
  0
ENDSEC
  0
SECTION
  2
TABLES
  0
TABLE
  2
VPORT
  5
12
100
AcDbSymbolTable
 70
     2
  0
VPORT
  5
11A
100
AcDbSymbolTableRecord
100
AcDbViewportTableRecord
  2
*ACTIVE
 70
     0
 10
0.0
 20
0.0
 11
1.0
 21
1.0
 12
20.357059
 22
-2.010526
 13
0.0
 23
0.0
 14
5.0
 24
5.0
 15
5.0
 25
5.0
 16
0.0
 26
0.0
 36
1.0
 17
0.0
 27
0.0
 37
0.0
 40
234.509797
 41
1.700368
 42
50.0
 43
0.0
 44
0.0
 50
0.0
 51
0.0
 71
     0
 72
 20000
 73
     1
 74
     3
 75
     0
 76
     0
 77
     0
 78
     0
  0
ENDTAB
  0
TABLE
  2
LTYPE
  5
D
100
AcDbSymbolTable
 70
     1
  0
LTYPE
  5
E
100
AcDbSymbolTableRecord
100
AcDbLinetypeTableRecord
  2
BYBLOCK
 70
     0
  3

 72
    65
 73
     0
 40
0.0
  0
LTYPE
  5
F
100
AcDbSymbolTableRecord
100
AcDbLinetypeTableRecord
  2
BYLAYER
 70
     0
  3

 72
    65
 73
     0
 40
0.0
  0
LTYPE
  5
5
100
AcDbSymbolTableRecord
100
AcDbLinetypeTableRecord
  2
CONTINUOUS
 70
     0
  3
Solid line
 72
    65
 73
     0
 40
0.0
  0
ENDTAB
  0
TABLE
  2
LAYER
  5
A
100
AcDbSymbolTable
 70
     2
  0
LAYER
  5
4
100
AcDbSymbolTableRecord
100
AcDbLayerTableRecord
  2
0
 70
     1
 62
     7
  6
CONTINUOUS
  0
LAYER
  5
1B
100
AcDbSymbolTableRecord
100
AcDbLayerTableRecord
  2
2D_PROFILE
 70
     0
 62
     5
  6
CONTINUOUS
  0
ENDTAB
  0
TABLE
  2
STYLE
  5
B
100
AcDbSymbolTable
 70
     1
  0
STYLE
  5
C
100
AcDbSymbolTableRecord
100
AcDbTextStyleTableRecord
  2
STANDARD
 70
     0
 40
0.0
 41
1.0
 50
0.0
 71
     0
 42
2.5
  3
ISOCP
  4

  0
ENDTAB
  0
TABLE
  2
VIEW
  5
10
100
AcDbSymbolTable
 70
     0
  0
ENDTAB
  0
TABLE
  2
UCS
  5
11
100
AcDbSymbolTable
 70
     0
  0
ENDTAB
  0
TABLE
  2
APPID
  5
14
100
AcDbSymbolTable
 70
     1
  0
APPID
  5
15
100
AcDbSymbolTableRecord
100
AcDbRegAppTableRecord
  2
ACAD
 70
     0
  0
ENDTAB
  0
TABLE
  2
DIMSTYLE
  5
16
100
AcDbSymbolTable
 70
     1
  0
DIMSTYLE
105
1D
100
AcDbSymbolTableRecord
100
AcDbDimStyleTableRecord
  2
PALETTI
 70
     0
  3

  4

  5

  6

  7

 40
1.0
 41
2.0
 42
1.0
 43
0.0
 44
1.0
 45
0.0
 46
0.0
 47
0.3
 48
0.3
140
3.0
141
0.0
142
0.0
143
25.4
144
1.0
145
0.0
146
0.5
147
0.7
 71
     0
 72
     0
 73
     0
 74
     0
 75
     0
 76
     0
 77
     1
 78
     8
170
     0
171
     2
172
     1
173
     0
174
     0
175
     0
176
   256
177
   256
178
   256
270
     2
271
     4
272
     4
273
     2
274
     2
340
C
275
     0
280
     0
281
     0
282
     0
283
     1
284
     8
285
     8
286
     8
287
     5
288
     0
  0
ENDTAB
  0
TABLE
  2
BLOCK_RECORD
  5
1
100
AcDbSymbolTable
 70
     0
  0
BLOCK_RECORD
  5
2
100
AcDbSymbolTableRecord
100
AcDbBlockTableRecord
  2
*MODEL_SPACE
  0
BLOCK_RECORD
  5
7
100
AcDbSymbolTableRecord
100
AcDbBlockTableRecord
  2
*PAPER_SPACE
  0
ENDTAB
  0
ENDSEC
  0
SECTION
  2
BLOCKS
  0
BLOCK
  5
3
100
AcDbEntity
  8
0
100
AcDbBlockBegin
  2
*MODEL_SPACE
 70
     0
 10
0.0
 20
0.0
 30
0.0
  3
*MODEL_SPACE
  1

  0
ENDBLK
  5
6
100
AcDbEntity
  8
0
100
AcDbBlockEnd
  0
BLOCK
  5
8
100
AcDbEntity
 67
     1
  8
0
100
AcDbBlockBegin
  2
*PAPER_SPACE
 70
     0
 10
0.0
 20
0.0
 30
0.0
  3
*PAPER_SPACE
  1

  0
ENDBLK
  5
9
100
AcDbEntity
 67
     1
  8
0
100
AcDbBlockEnd
  0
ENDSEC
  0
SECTION
  2
ENTITIES
  0
ARC
  5
1E
100
AcDbEntity
  8
2D_PROFILE
100
AcDbCircle
 10
37.395556
 20
-31.45
 30
0.0
 40
4.0
100
AcDbArc
 50
53.35799
 51
90.0
1001
ACAD
1000
R13OBJECT
1002
{
1005
119
1002
}
  0
LINE
  5
1F
100
AcDbEntity
  8
2D_PROFILE
100
AcDbLine
 10
33.009444
 20
-27.45
 30
0.0
 11
37.395556
 21
-27.45
 31
0.0
1001
ACAD
1000
R13OBJECT
1002
{
1005
119
1002
}
  0
ARC
  5
20
100
AcDbEntity
  8
2D_PROFILE
100
AcDbCircle
 10
33.009444
 20
-31.45
 30
0.0
 40
4.0
100
AcDbArc
 50
90.0
 51
126.64201
1001
ACAD
1000
R13OBJECT
1002
{
1005
119
1002
}
  0
ARC
  5
21
100
AcDbEntity
  8
2D_PROFILE
100
AcDbCircle
 10
47.061257
 20
-48.952995
 30
0.0
 40
26.443358
100
AcDbArc
 50
128.438255
 51
145.438015
1001
ACAD
1000
R13OBJECT
1002
{
1005
119
1002
}
  0
ARC
  5
22
100
AcDbEntity
  8
2D_PROFILE
100
AcDbCircle
 10
26.12112
 20
-34.5
 30
0.0
 40
1.0
100
AcDbArc
 50
146.752576
 51
270.0
1001
ACAD
1000
R13OBJECT
1002
{
1005
119
1002
}
  0
LINE
  5
23
100
AcDbEntity
  8
2D_PROFILE
100
AcDbLine
 10
30.1025
 20
-35.5
 30
0.0
 11
26.12112
 21
-35.5
 31
0.0
1001
ACAD
1000
R13OBJECT
1002
{
1005
119
1002
}
  0
ARC
  5
24
100
AcDbEntity
  8
2D_PROFILE
100
AcDbCircle
 10
30.1025
 20
-36.5
 30
0.0
 40
1.0
100
AcDbArc
 50
0.0
 51
90.0
1001
ACAD
1000
R13OBJECT
1002
{
1005
119
1002
}
  0
LINE
  5
25
100
AcDbEntity
  8
2D_PROFILE
100
AcDbLine
 10
31.1025
 20
-42.630502
 30
0.0
 11
31.1025
 21
-36.5
 31
0.0
1001
ACAD
1000
R13OBJECT
1002
{
1005
119
1002
}
  0
ARC
  5
26
100
AcDbEntity
  8
2D_PROFILE
100
AcDbCircle
 10
35.2025
 20
-49.5
 30
0.0
 40
8.0
100
AcDbArc
 50
120.830497
 51
202.024313
1001
ACAD
1000
R13OBJECT
1002
{
1005
119
1002
}
  0
LINE
  5
27
100
AcDbEntity
  8
2D_PROFILE
100
AcDbLine
 10
27.7025
 20
-52.5
 30
0.0
 11
27.786302
 21
-52.5
 31
0.0
1001
ACAD
1000
R13OBJECT
1002
{
1005
119
1002
}
  0
ARC
  5
28
100
AcDbEntity
  8
2D_PROFILE
100
AcDbCircle
 10
27.7025
 20
-49.5
 30
0.0
 40
3.0
100
AcDbArc
 50
180.0
 51
270.0
1001
ACAD
1000
R13OBJECT
1002
{
1005
119
1002
}
  0
LINE
  5
29
100
AcDbEntity
  8
2D_PROFILE
100
AcDbLine
 10
24.7025
 20
-40.0
 30
0.0
 11
24.7025
 21
-49.5
 31
0.0
1001
ACAD
1000
R13OBJECT
1002
{
1005
119
1002
}
  0
LINE
  5
2A
100
AcDbEntity
  8
2D_PROFILE
100
AcDbLine
 10
24.7025
 20
-40.0
 30
0.0
 11
5.2025
 21
-40.0
 31
0.0
1001
ACAD
1000
R13OBJECT
1002
{
1005
119
1002
}
  0
LINE
  5
2B
100
AcDbEntity
  8
2D_PROFILE
100
AcDbLine
 10
5.2025
 20
-40.0
 30
0.0
 11
-1.460589
 21
-39.883695
 31
0.0
1001
ACAD
1000
R13OBJECT
1002
{
1005
119
1002
}
  0
ARC
  5
2C
100
AcDbEntity
  8
2D_PROFILE
100
AcDbCircle
 10
-1.4475
 20
-39.13381
 30
0.0
 40
0.75
100
AcDbArc
 50
180.0
 51
269.0
1001
ACAD
1000
R13OBJECT
1002
{
1005
119
1002
}
  0
LINE
  5
2D
100
AcDbEntity
  8
2D_PROFILE
100
AcDbLine
 10
-2.1975
 20
-38.579362
 30
0.0
 11
-2.1975
 21
-39.13381
 31
0.0
1001
ACAD
1000
R13OBJECT
1002
{
1005
119
1002
}
  0
ARC
  5
2E
100
AcDbEntity
  8
2D_PROFILE
100
AcDbCircle
 10
-1.6975
 20
-38.579362
 30
0.0
 40
0.5
100
AcDbArc
 50
89.0
 51
180.0
1001
ACAD
1000
R13OBJECT
1002
{
1005
119
1002
}
  0
LINE
  5
2F
100
AcDbEntity
  8
2D_PROFILE
100
AcDbLine
 10
0.32973
 20
-38.114671
 30
0.0
 11
-1.688774
 21
-38.079438
 31
0.0
1001
ACAD
1000
R13OBJECT
1002
{
1005
119
1002
}
  0
ARC
  5
30
100
AcDbEntity
  8
2D_PROFILE
100
AcDbCircle
 10
0.2025
 20
-37.375542
 30
0.0
 40
0.75
100
AcDbArc
 50
279.766915
 51
45.073351
1001
ACAD
1000
R13OBJECT
1002
{
1005
119
1002
}
  0
LINE
  5
31
100
AcDbEntity
  8
2D_PROFILE
100
AcDbLine
 10
-1.885098
 20
-34.233977
 30
0.0
 11
0.732151
 21
-36.844533
 31
0.0
1001
ACAD
1000
R13OBJECT
1002
{
1005
119
1002
}
  0
ARC
  5
32
100
AcDbEntity
  8
2D_PROFILE
100
AcDbCircle
 10
-3.2975
 20
-35.65
 30
0.0
 40
2.0
100
AcDbArc
 50
45.073351
 51
90.0
1001
ACAD
1000
R13OBJECT
1002
{
1005
119
1002
}
  0
LINE
  5
33
100
AcDbEntity
  8
2D_PROFILE
100
AcDbLine
 10
-6.2975
 20
-33.65
 30
0.0
 11
-3.2975
 21
-33.65
 31
0.0
1001
ACAD
1000
R13OBJECT
1002
{
1005
119
1002
}
  0
ARC
  5
34
100
AcDbEntity
  8
2D_PROFILE
100
AcDbCircle
 10
-6.2975
 20
-35.65
 30
0.0
 40
2.0
100
AcDbArc
 50
90.0
 51
134.926649
1001
ACAD
1000
R13OBJECT
1002
{
1005
119
1002
}
  0
LINE
  5
35
100
AcDbEntity
  8
2D_PROFILE
100
AcDbLine
 10
-7.709902
 20
-34.233977
 30
0.0
 11
-10.327151
 21
-36.844533
 31
0.0
1001
ACAD
1000
R13OBJECT
1002
{
1005
119
1002
}
  0
ARC
  5
36
100
AcDbEntity
  8
2D_PROFILE
100
AcDbCircle
 10
-9.7975
 20
-37.375542
 30
0.0
 40
0.75
100
AcDbArc
 50
134.926649
 51
260.233085
1001
ACAD
1000
R13OBJECT
1002
{
1005
119
1002
}
  0
LINE
  5
37
100
AcDbEntity
  8
2D_PROFILE
100
AcDbLine
 10
-9.92473
 20
-38.114671
 30
0.0
 11
-7.906226
 21
-38.079438
 31
0.0
1001
ACAD
1000
R13OBJECT
1002
{
1005
119
1002
}
  0
ARC
  5
38
100
AcDbEntity
  8
2D_PROFILE
100
AcDbCircle
 10
-7.8975
 20
-38.579362
 30
0.0
 40
0.5
100
AcDbArc
 50
0.0
 51
91.0
1001
ACAD
1000
R13OBJECT
1002
{
1005
119
1002
}
  0
LINE
  5
39
100
AcDbEntity
  8
2D_PROFILE
100
AcDbLine
 10
-7.3975
 20
-38.579362
 30
0.0
 11
-7.3975
 21
-39.13381
 31
0.0
1001
ACAD
1000
R13OBJECT
1002
{
1005
119
1002
}
  0
ARC
  5
3A
100
AcDbEntity
  8
2D_PROFILE
100
AcDbCircle
 10
-8.1475
 20
-39.13381
 30
0.0
 40
0.75
100
AcDbArc
 50
271.0
 51
0.0
1001
ACAD
1000
R13OBJECT
1002
{
1005
119
1002
}
  0
LINE
  5
3B
100
AcDbEntity
  8
2D_PROFILE
100
AcDbLine
 10
-14.7975
 20
-40.0
 30
0.0
 11
-8.134411
 21
-39.883695
 31
0.0
1001
ACAD
1000
R13OBJECT
1002
{
1005
119
1002
}
  0
LINE
  5
3C
100
AcDbEntity
  8
2D_PROFILE
100
AcDbLine
 10
-39.1975
 20
-40.0
 30
0.0
 11
-14.7975
 21
-40.0
 31
0.0
1001
ACAD
1000
R13OBJECT
1002
{
1005
119
1002
}
  0
ARC
  5
3D
100
AcDbEntity
  8
2D_PROFILE
100
AcDbCircle
 10
-39.1975
 20
-38.5
 30
0.0
 40
1.5
100
AcDbArc
 50
180.0
 51
270.0
1001
ACAD
1000
R13OBJECT
1002
{
1005
119
1002
}
  0
LINE
  5
3E
100
AcDbEntity
  8
2D_PROFILE
100
AcDbLine
 10
-40.6975
 20
-36.5
 30
0.0
 11
-40.6975
 21
-38.5
 31
0.0
1001
ACAD
1000
R13OBJECT
1002
{
1005
119
1002
}
  0
ARC
  5
3F
100
AcDbEntity
  8
2D_PROFILE
100
AcDbCircle
 10
-39.6975
 20
-36.5
 30
0.0
 40
1.0
100
AcDbArc
 50
90.0
 51
180.0
1001
ACAD
1000
R13OBJECT
1002
{
1005
119
1002
}
  0
LINE
  5
40
100
AcDbEntity
  8
2D_PROFILE
100
AcDbLine
 10
-35.71612
 20
-35.5
 30
0.0
 11
-39.6975
 21
-35.5
 31
0.0
1001
ACAD
1000
R13OBJECT
1002
{
1005
119
1002
}
  0
ARC
  5
41
100
AcDbEntity
  8
2D_PROFILE
100
AcDbCircle
 10
-35.71612
 20
-34.5
 30
0.0
 40
1.0
100
AcDbArc
 50
270.0
 51
33.247424
1001
ACAD
1000
R13OBJECT
1002
{
1005
119
1002
}
  0
ARC
  5
42
100
AcDbEntity
  8
2D_PROFILE
100
AcDbCircle
 10
-56.656257
 20
-48.952995
 30
0.0
 40
26.443358
100
AcDbArc
 50
34.561985
 51
51.561745
1001
ACAD
1000
R13OBJECT
1002
{
1005
119
1002
}
  0
ARC
  5
43
100
AcDbEntity
  8
2D_PROFILE
100
AcDbCircle
 10
-42.604444
 20
-31.45
 30
0.0
 40
4.0
100
AcDbArc
 50
53.35799
 51
90.0
1001
ACAD
1000
R13OBJECT
1002
{
1005
119
1002
}
  0
LINE
  5
44
100
AcDbEntity
  8
2D_PROFILE
100
AcDbLine
 10
-46.990556
 20
-27.45
 30
0.0
 11
-42.604444
 21
-27.45
 31
0.0
1001
ACAD
1000
R13OBJECT
1002
{
1005
119
1002
}
  0
ARC
  5
45
100
AcDbEntity
  8
2D_PROFILE
100
AcDbCircle
 10
-46.990556
 20
-31.45
 30
0.0
 40
4.0
100
AcDbArc
 50
90.0
 51
126.64201
1001
ACAD
1000
R13OBJECT
1002
{
1005
119
1002
}
  0
ARC
  5
46
100
AcDbEntity
  8
2D_PROFILE
100
AcDbCircle
 10
-32.938743
 20
-48.952995
 30
0.0
 40
26.443358
100
AcDbArc
 50
128.438255
 51
145.438015
1001
ACAD
1000
R13OBJECT
1002
{
1005
119
1002
}
  0
ARC
  5
47
100
AcDbEntity
  8
2D_PROFILE
100
AcDbCircle
 10
-53.87888
 20
-34.5
 30
0.0
 40
1.0
100
AcDbArc
 50
146.752576
 51
270.0
1001
ACAD
1000
R13OBJECT
1002
{
1005
119
1002
}
  0
LINE
  5
48
100
AcDbEntity
  8
2D_PROFILE
100
AcDbLine
 10
-49.8975
 20
-35.5
 30
0.0
 11
-53.87888
 21
-35.5
 31
0.0
1001
ACAD
1000
R13OBJECT
1002
{
1005
119
1002
}
  0
ARC
  5
49
100
AcDbEntity
  8
2D_PROFILE
100
AcDbCircle
 10
-49.8975
 20
-36.5
 30
0.0
 40
1.0
100
AcDbArc
 50
0.0
 51
90.0
1001
ACAD
1000
R13OBJECT
1002
{
1005
119
1002
}
  0
LINE
  5
4A
100
AcDbEntity
  8
2D_PROFILE
100
AcDbLine
 10
-48.8975
 20
-38.5
 30
0.0
 11
-48.8975
 21
-36.5
 31
0.0
1001
ACAD
1000
R13OBJECT
1002
{
1005
119
1002
}
  0
ARC
  5
4B
100
AcDbEntity
  8
2D_PROFILE
100
AcDbCircle
 10
-50.3975
 20
-38.5
 30
0.0
 40
1.5
100
AcDbArc
 50
270.0
 51
0.0
1001
ACAD
1000
R13OBJECT
1002
{
1005
119
1002
}
  0
LINE
  5
4C
100
AcDbEntity
  8
2D_PROFILE
100
AcDbLine
 10
-59.7975
 20
-40.0
 30
0.0
 11
-50.3975
 21
-40.0
 31
0.0
1001
ACAD
1000
R13OBJECT
1002
{
1005
119
1002
}
  0
ARC
  5
4D
100
AcDbEntity
  8
2D_PROFILE
100
AcDbCircle
 10
-59.7975
 20
-35.0
 30
0.0
 40
5.0
100
AcDbArc
 50
180.0
 51
270.0
1001
ACAD
1000
R13OBJECT
1002
{
1005
119
1002
}
  0
LINE
  5
4E
100
AcDbEntity
  8
2D_PROFILE
100
AcDbLine
 10
-64.7975
 20
-25.6
 30
0.0
 11
-64.7975
 21
-35.0
 31
0.0
1001
ACAD
1000
R13OBJECT
1002
{
1005
119
1002
}
  0
ARC
  5
4F
100
AcDbEntity
  8
2D_PROFILE
100
AcDbCircle
 10
-63.2975
 20
-25.6
 30
0.0
 40
1.5
100
AcDbArc
 50
90.0
 51
180.0
1001
ACAD
1000
R13OBJECT
1002
{
1005
119
1002
}
  0
LINE
  5
50
100
AcDbEntity
  8
2D_PROFILE
100
AcDbLine
 10
-61.2975
 20
-24.1
 30
0.0
 11
-63.2975
 21
-24.1
 31
0.0
1001
ACAD
1000
R13OBJECT
1002
{
1005
119
1002
}
  0
ARC
  5
51
100
AcDbEntity
  8
2D_PROFILE
100
AcDbCircle
 10
-61.2975
 20
-25.1
 30
0.0
 40
1.0
100
AcDbArc
 50
360.0
 51
90.0
1001
ACAD
1000
R13OBJECT
1002
{
1005
119
1002
}
  0
LINE
  5
52
100
AcDbEntity
  8
2D_PROFILE
100
AcDbLine
 10
-60.2975
 20
-29.08138
 30
0.0
 11
-60.2975
 21
-25.1
 31
0.0
1001
ACAD
1000
R13OBJECT
1002
{
1005
119
1002
}
  0
ARC
  5
53
100
AcDbEntity
  8
2D_PROFILE
100
AcDbCircle
 10
-59.2975
 20
-29.08138
 30
0.0
 40
1.0
100
AcDbArc
 50
180.0
 51
303.247424
1001
ACAD
1000
R13OBJECT
1002
{
1005
119
1002
}
  0
ARC
  5
54
100
AcDbEntity
  8
2D_PROFILE
100
AcDbCircle
 10
-73.750495
 20
-8.141243
 30
0.0
 40
26.443358
100
AcDbArc
 50
304.561985
 51
321.561745
1001
ACAD
1000
R13OBJECT
1002
{
1005
119
1002
}
  0
ARC
  5
55
100
AcDbEntity
  8
2D_PROFILE
100
AcDbCircle
 10
-56.2475
 20
-22.193056
 30
0.0
 40
4.0
100
AcDbArc
 50
323.35799
 51
0.0
1001
ACAD
1000
R13OBJECT
1002
{
1005
119
1002
}
  0
LINE
  5
56
100
AcDbEntity
  8
2D_PROFILE
100
AcDbLine
 10
-52.2475
 20
-17.806944
 30
0.0
 11
-52.2475
 21
-22.193056
 31
0.0
1001
ACAD
1000
R13OBJECT
1002
{
1005
119
1002
}
  0
ARC
  5
57
100
AcDbEntity
  8
2D_PROFILE
100
AcDbCircle
 10
-56.2475
 20
-17.806944
 30
0.0
 40
4.0
100
AcDbArc
 50
360.0
 51
36.64201
1001
ACAD
1000
R13OBJECT
1002
{
1005
119
1002
}
  0
ARC
  5
58
100
AcDbEntity
  8
2D_PROFILE
100
AcDbCircle
 10
-73.750495
 20
-31.858757
 30
0.0
 40
26.443358
100
AcDbArc
 50
38.438255
 51
55.438015
1001
ACAD
1000
R13OBJECT
1002
{
1005
119
1002
}
  0
ARC
  5
59
100
AcDbEntity
  8
2D_PROFILE
100
AcDbCircle
 10
-59.2975
 20
-10.91862
 30
0.0
 40
1.0
100
AcDbArc
 50
56.752576
 51
180.0
1001
ACAD
1000
R13OBJECT
1002
{
1005
119
1002
}
  0
LINE
  5
5A
100
AcDbEntity
  8
2D_PROFILE
100
AcDbLine
 10
-60.2975
 20
-14.9
 30
0.0
 11
-60.2975
 21
-10.91862
 31
0.0
1001
ACAD
1000
R13OBJECT
1002
{
1005
119
1002
}
  0
ARC
  5
5B
100
AcDbEntity
  8
2D_PROFILE
100
AcDbCircle
 10
-61.2975
 20
-14.9
 30
0.0
 40
1.0
100
AcDbArc
 50
270.0
 51
0.0
1001
ACAD
1000
R13OBJECT
1002
{
1005
119
1002
}
  0
LINE
  5
5C
100
AcDbEntity
  8
2D_PROFILE
100
AcDbLine
 10
-63.2975
 20
-15.9
 30
0.0
 11
-61.2975
 21
-15.9
 31
0.0
1001
ACAD
1000
R13OBJECT
1002
{
1005
119
1002
}
  0
ARC
  5
5D
100
AcDbEntity
  8
2D_PROFILE
100
AcDbCircle
 10
-63.2975
 20
-14.4
 30
0.0
 40
1.5
100
AcDbArc
 50
180.0
 51
270.0
1001
ACAD
1000
R13OBJECT
1002
{
1005
119
1002
}
  0
LINE
  5
5E
100
AcDbEntity
  8
2D_PROFILE
100
AcDbLine
 10
-64.7975
 20
14.4
 30
0.0
 11
-64.7975
 21
-14.4
 31
0.0
1001
ACAD
1000
R13OBJECT
1002
{
1005
119
1002
}
  0
ARC
  5
5F
100
AcDbEntity
  8
2D_PROFILE
100
AcDbCircle
 10
-63.2975
 20
14.4
 30
0.0
 40
1.5
100
AcDbArc
 50
90.0
 51
180.0
1001
ACAD
1000
R13OBJECT
1002
{
1005
119
1002
}
  0
LINE
  5
60
100
AcDbEntity
  8
2D_PROFILE
100
AcDbLine
 10
-61.2975
 20
15.9
 30
0.0
 11
-63.2975
 21
15.9
 31
0.0
1001
ACAD
1000
R13OBJECT
1002
{
1005
119
1002
}
  0
ARC
  5
61
100
AcDbEntity
  8
2D_PROFILE
100
AcDbCircle
 10
-61.2975
 20
14.9
 30
0.0
 40
1.0
100
AcDbArc
 50
0.0
 51
90.0
1001
ACAD
1000
R13OBJECT
1002
{
1005
119
1002
}
  0
LINE
  5
62
100
AcDbEntity
  8
2D_PROFILE
100
AcDbLine
 10
-60.2975
 20
10.91862
 30
0.0
 11
-60.2975
 21
14.9
 31
0.0
1001
ACAD
1000
R13OBJECT
1002
{
1005
119
1002
}
  0
ARC
  5
63
100
AcDbEntity
  8
2D_PROFILE
100
AcDbCircle
 10
-59.2975
 20
10.91862
 30
0.0
 40
1.0
100
AcDbArc
 50
180.0
 51
303.247424
1001
ACAD
1000
R13OBJECT
1002
{
1005
119
1002
}
  0
ARC
  5
64
100
AcDbEntity
  8
2D_PROFILE
100
AcDbCircle
 10
-73.750495
 20
31.858757
 30
0.0
 40
26.443358
100
AcDbArc
 50
304.561985
 51
321.561745
1001
ACAD
1000
R13OBJECT
1002
{
1005
119
1002
}
  0
ARC
  5
65
100
AcDbEntity
  8
2D_PROFILE
100
AcDbCircle
 10
-56.2475
 20
17.806944
 30
0.0
 40
4.0
100
AcDbArc
 50
323.35799
 51
360.0
1001
ACAD
1000
R13OBJECT
1002
{
1005
119
1002
}
  0
LINE
  5
66
100
AcDbEntity
  8
2D_PROFILE
100
AcDbLine
 10
-52.2475
 20
22.193056
 30
0.0
 11
-52.2475
 21
17.806944
 31
0.0
1001
ACAD
1000
R13OBJECT
1002
{
1005
119
1002
}
  0
ARC
  5
67
100
AcDbEntity
  8
2D_PROFILE
100
AcDbCircle
 10
-56.2475
 20
22.193056
 30
0.0
 40
4.0
100
AcDbArc
 50
360.0
 51
36.64201
1001
ACAD
1000
R13OBJECT
1002
{
1005
119
1002
}
  0
ARC
  5
68
100
AcDbEntity
  8
2D_PROFILE
100
AcDbCircle
 10
-73.750495
 20
8.141243
 30
0.0
 40
26.443358
100
AcDbArc
 50
38.438255
 51
55.438015
1001
ACAD
1000
R13OBJECT
1002
{
1005
119
1002
}
  0
ARC
  5
69
100
AcDbEntity
  8
2D_PROFILE
100
AcDbCircle
 10
-59.2975
 20
29.08138
 30
0.0
 40
1.0
100
AcDbArc
 50
56.752576
 51
180.0
1001
ACAD
1000
R13OBJECT
1002
{
1005
119
1002
}
  0
LINE
  5
6A
100
AcDbEntity
  8
2D_PROFILE
100
AcDbLine
 10
-60.2975
 20
25.1
 30
0.0
 11
-60.2975
 21
29.08138
 31
0.0
1001
ACAD
1000
R13OBJECT
1002
{
1005
119
1002
}
  0
ARC
  5
6B
100
AcDbEntity
  8
2D_PROFILE
100
AcDbCircle
 10
-61.2975
 20
25.1
 30
0.0
 40
1.0
100
AcDbArc
 50
270.0
 51
0.0
1001
ACAD
1000
R13OBJECT
1002
{
1005
119
1002
}
  0
LINE
  5
6C
100
AcDbEntity
  8
2D_PROFILE
100
AcDbLine
 10
-63.2975
 20
24.1
 30
0.0
 11
-61.2975
 21
24.1
 31
0.0
1001
ACAD
1000
R13OBJECT
1002
{
1005
119
1002
}
  0
ARC
  5
6D
100
AcDbEntity
  8
2D_PROFILE
100
AcDbCircle
 10
-63.2975
 20
25.6
 30
0.0
 40
1.5
100
AcDbArc
 50
180.0
 51
270.0
1001
ACAD
1000
R13OBJECT
1002
{
1005
119
1002
}
  0
LINE
  5
6E
100
AcDbEntity
  8
2D_PROFILE
100
AcDbLine
 10
-64.7975
 20
35.0
 30
0.0
 11
-64.7975
 21
25.6
 31
0.0
1001
ACAD
1000
R13OBJECT
1002
{
1005
119
1002
}
  0
ARC
  5
6F
100
AcDbEntity
  8
2D_PROFILE
100
AcDbCircle
 10
-59.7975
 20
35.0
 30
0.0
 40
5.0
100
AcDbArc
 50
90.0
 51
180.0
1001
ACAD
1000
R13OBJECT
1002
{
1005
119
1002
}
  0
LINE
  5
70
100
AcDbEntity
  8
2D_PROFILE
100
AcDbLine
 10
-50.3975
 20
40.0
 30
0.0
 11
-59.7975
 21
40.0
 31
0.0
1001
ACAD
1000
R13OBJECT
1002
{
1005
119
1002
}
  0
ARC
  5
71
100
AcDbEntity
  8
2D_PROFILE
100
AcDbCircle
 10
-50.3975
 20
38.5
 30
0.0
 40
1.5
100
AcDbArc
 50
360.0
 51
90.0
1001
ACAD
1000
R13OBJECT
1002
{
1005
119
1002
}
  0
LINE
  5
72
100
AcDbEntity
  8
2D_PROFILE
100
AcDbLine
 10
-48.8975
 20
36.5
 30
0.0
 11
-48.8975
 21
38.5
 31
0.0
1001
ACAD
1000
R13OBJECT
1002
{
1005
119
1002
}
  0
ARC
  5
73
100
AcDbEntity
  8
2D_PROFILE
100
AcDbCircle
 10
-49.8975
 20
36.5
 30
0.0
 40
1.0
100
AcDbArc
 50
270.0
 51
0.0
1001
ACAD
1000
R13OBJECT
1002
{
1005
119
1002
}
  0
LINE
  5
74
100
AcDbEntity
  8
2D_PROFILE
100
AcDbLine
 10
-53.87888
 20
35.5
 30
0.0
 11
-49.8975
 21
35.5
 31
0.0
1001
ACAD
1000
R13OBJECT
1002
{
1005
119
1002
}
  0
ARC
  5
75
100
AcDbEntity
  8
2D_PROFILE
100
AcDbCircle
 10
-53.87888
 20
34.5
 30
0.0
 40
1.0
100
AcDbArc
 50
90.0
 51
213.247424
1001
ACAD
1000
R13OBJECT
1002
{
1005
119
1002
}
  0
ARC
  5
76
100
AcDbEntity
  8
2D_PROFILE
100
AcDbCircle
 10
-32.938743
 20
48.952995
 30
0.0
 40
26.443358
100
AcDbArc
 50
214.561985
 51
231.561745
1001
ACAD
1000
R13OBJECT
1002
{
1005
119
1002
}
  0
ARC
  5
77
100
AcDbEntity
  8
2D_PROFILE
100
AcDbCircle
 10
-46.990556
 20
31.45
 30
0.0
 40
4.0
100
AcDbArc
 50
233.35799
 51
270.0
1001
ACAD
1000
R13OBJECT
1002
{
1005
119
1002
}
  0
LINE
  5
78
100
AcDbEntity
  8
2D_PROFILE
100
AcDbLine
 10
-42.604444
 20
27.45
 30
0.0
 11
-46.990556
 21
27.45
 31
0.0
1001
ACAD
1000
R13OBJECT
1002
{
1005
119
1002
}
  0
ARC
  5
79
100
AcDbEntity
  8
2D_PROFILE
100
AcDbCircle
 10
-42.604444
 20
31.45
 30
0.0
 40
4.0
100
AcDbArc
 50
270.0
 51
306.64201
1001
ACAD
1000
R13OBJECT
1002
{
1005
119
1002
}
  0
ARC
  5
7A
100
AcDbEntity
  8
2D_PROFILE
100
AcDbCircle
 10
-56.656257
 20
48.952995
 30
0.0
 40
26.443358
100
AcDbArc
 50
308.438255
 51
325.438015
1001
ACAD
1000
R13OBJECT
1002
{
1005
119
1002
}
  0
ARC
  5
7B
100
AcDbEntity
  8
2D_PROFILE
100
AcDbCircle
 10
-35.71612
 20
34.5
 30
0.0
 40
1.0
100
AcDbArc
 50
326.752576
 51
90.0
1001
ACAD
1000
R13OBJECT
1002
{
1005
119
1002
}
  0
LINE
  5
7C
100
AcDbEntity
  8
2D_PROFILE
100
AcDbLine
 10
-39.6975
 20
35.5
 30
0.0
 11
-35.71612
 21
35.5
 31
0.0
1001
ACAD
1000
R13OBJECT
1002
{
1005
119
1002
}
  0
ARC
  5
7D
100
AcDbEntity
  8
2D_PROFILE
100
AcDbCircle
 10
-39.6975
 20
36.5
 30
0.0
 40
1.0
100
AcDbArc
 50
180.0
 51
270.0
1001
ACAD
1000
R13OBJECT
1002
{
1005
119
1002
}
  0
LINE
  5
7E
100
AcDbEntity
  8
2D_PROFILE
100
AcDbLine
 10
-40.6975
 20
38.5
 30
0.0
 11
-40.6975
 21
36.5
 31
0.0
1001
ACAD
1000
R13OBJECT
1002
{
1005
119
1002
}
  0
ARC
  5
7F
100
AcDbEntity
  8
2D_PROFILE
100
AcDbCircle
 10
-39.1975
 20
38.5
 30
0.0
 40
1.5
100
AcDbArc
 50
90.0
 51
180.0
1001
ACAD
1000
R13OBJECT
1002
{
1005
119
1002
}
  0
LINE
  5
80
100
AcDbEntity
  8
2D_PROFILE
100
AcDbLine
 10
-39.1975
 20
40.0
 30
0.0
 11
-14.7975
 21
40.0
 31
0.0
1001
ACAD
1000
R13OBJECT
1002
{
1005
119
1002
}
  0
LINE
  5
81
100
AcDbEntity
  8
2D_PROFILE
100
AcDbLine
 10
-14.7975
 20
40.0
 30
0.0
 11
-8.134411
 21
39.883695
 31
0.0
1001
ACAD
1000
R13OBJECT
1002
{
1005
119
1002
}
  0
ARC
  5
82
100
AcDbEntity
  8
2D_PROFILE
100
AcDbCircle
 10
-8.1475
 20
39.13381
 30
0.0
 40
0.75
100
AcDbArc
 50
360.0
 51
89.0
1001
ACAD
1000
R13OBJECT
1002
{
1005
119
1002
}
  0
LINE
  5
83
100
AcDbEntity
  8
2D_PROFILE
100
AcDbLine
 10
-7.3975
 20
38.579362
 30
0.0
 11
-7.3975
 21
39.13381
 31
0.0
1001
ACAD
1000
R13OBJECT
1002
{
1005
119
1002
}
  0
ARC
  5
84
100
AcDbEntity
  8
2D_PROFILE
100
AcDbCircle
 10
-7.8975
 20
38.579362
 30
0.0
 40
0.5
100
AcDbArc
 50
269.0
 51
0.0
1001
ACAD
1000
R13OBJECT
1002
{
1005
119
1002
}
  0
LINE
  5
85
100
AcDbEntity
  8
2D_PROFILE
100
AcDbLine
 10
-9.92473
 20
38.114671
 30
0.0
 11
-7.906226
 21
38.079438
 31
0.0
1001
ACAD
1000
R13OBJECT
1002
{
1005
119
1002
}
  0
ARC
  5
86
100
AcDbEntity
  8
2D_PROFILE
100
AcDbCircle
 10
-9.7975
 20
37.375542
 30
0.0
 40
0.75
100
AcDbArc
 50
99.766915
 51
225.073351
1001
ACAD
1000
R13OBJECT
1002
{
1005
119
1002
}
  0
LINE
  5
87
100
AcDbEntity
  8
2D_PROFILE
100
AcDbLine
 10
-7.709902
 20
34.233977
 30
0.0
 11
-10.327151
 21
36.844533
 31
0.0
1001
ACAD
1000
R13OBJECT
1002
{
1005
119
1002
}
  0
ARC
  5
88
100
AcDbEntity
  8
2D_PROFILE
100
AcDbCircle
 10
-6.2975
 20
35.65
 30
0.0
 40
2.0
100
AcDbArc
 50
225.073351
 51
270.0
1001
ACAD
1000
R13OBJECT
1002
{
1005
119
1002
}
  0
LINE
  5
89
100
AcDbEntity
  8
2D_PROFILE
100
AcDbLine
 10
-6.2975
 20
33.65
 30
0.0
 11
-3.2975
 21
33.65
 31
0.0
1001
ACAD
1000
R13OBJECT
1002
{
1005
119
1002
}
  0
ARC
  5
8A
100
AcDbEntity
  8
2D_PROFILE
100
AcDbCircle
 10
-3.2975
 20
35.65
 30
0.0
 40
2.0
100
AcDbArc
 50
270.0
 51
314.926649
1001
ACAD
1000
R13OBJECT
1002
{
1005
119
1002
}
  0
LINE
  5
8B
100
AcDbEntity
  8
2D_PROFILE
100
AcDbLine
 10
-1.885098
 20
34.233977
 30
0.0
 11
0.732151
 21
36.844533
 31
0.0
1001
ACAD
1000
R13OBJECT
1002
{
1005
119
1002
}
  0
ARC
  5
8C
100
AcDbEntity
  8
2D_PROFILE
100
AcDbCircle
 10
0.2025
 20
37.375542
 30
0.0
 40
0.75
100
AcDbArc
 50
314.926649
 51
80.233085
1001
ACAD
1000
R13OBJECT
1002
{
1005
119
1002
}
  0
LINE
  5
8D
100
AcDbEntity
  8
2D_PROFILE
100
AcDbLine
 10
0.32973
 20
38.114671
 30
0.0
 11
-1.688774
 21
38.079438
 31
0.0
1001
ACAD
1000
R13OBJECT
1002
{
1005
119
1002
}
  0
ARC
  5
8E
100
AcDbEntity
  8
2D_PROFILE
100
AcDbCircle
 10
-1.6975
 20
38.579362
 30
0.0
 40
0.5
100
AcDbArc
 50
180.0
 51
271.0
1001
ACAD
1000
R13OBJECT
1002
{
1005
119
1002
}
  0
LINE
  5
8F
100
AcDbEntity
  8
2D_PROFILE
100
AcDbLine
 10
-2.1975
 20
38.579362
 30
0.0
 11
-2.1975
 21
39.13381
 31
0.0
1001
ACAD
1000
R13OBJECT
1002
{
1005
119
1002
}
  0
ARC
  5
90
100
AcDbEntity
  8
2D_PROFILE
100
AcDbCircle
 10
-1.4475
 20
39.13381
 30
0.0
 40
0.75
100
AcDbArc
 50
91.0
 51
180.0
1001
ACAD
1000
R13OBJECT
1002
{
1005
119
1002
}
  0
LINE
  5
91
100
AcDbEntity
  8
2D_PROFILE
100
AcDbLine
 10
5.2025
 20
40.0
 30
0.0
 11
-1.460589
 21
39.883695
 31
0.0
1001
ACAD
1000
R13OBJECT
1002
{
1005
119
1002
}
  0
LINE
  5
92
100
AcDbEntity
  8
2D_PROFILE
100
AcDbLine
 10
5.2025
 20
40.0
 30
0.0
 11
24.7025
 21
40.0
 31
0.0
1001
ACAD
1000
R13OBJECT
1002
{
1005
119
1002
}
  0
LINE
  5
93
100
AcDbEntity
  8
2D_PROFILE
100
AcDbLine
 10
24.7025
 20
49.5
 30
0.0
 11
24.7025
 21
40.0
 31
0.0
1001
ACAD
1000
R13OBJECT
1002
{
1005
119
1002
}
  0
ARC
  5
94
100
AcDbEntity
  8
2D_PROFILE
100
AcDbCircle
 10
27.7025
 20
49.5
 30
0.0
 40
3.0
100
AcDbArc
 50
90.0
 51
180.0
1001
ACAD
1000
R13OBJECT
1002
{
1005
119
1002
}
  0
LINE
  5
95
100
AcDbEntity
  8
2D_PROFILE
100
AcDbLine
 10
27.786302
 20
52.5
 30
0.0
 11
27.7025
 21
52.5
 31
0.0
1001
ACAD
1000
R13OBJECT
1002
{
1005
119
1002
}
  0
ARC
  5
96
100
AcDbEntity
  8
2D_PROFILE
100
AcDbCircle
 10
35.2025
 20
49.5
 30
0.0
 40
8.0
100
AcDbArc
 50
157.975687
 51
239.169503
1001
ACAD
1000
R13OBJECT
1002
{
1005
119
1002
}
  0
LINE
  5
97
100
AcDbEntity
  8
2D_PROFILE
100
AcDbLine
 10
31.1025
 20
36.5
 30
0.0
 11
31.1025
 21
42.630502
 31
0.0
1001
ACAD
1000
R13OBJECT
1002
{
1005
119
1002
}
  0
ARC
  5
98
100
AcDbEntity
  8
2D_PROFILE
100
AcDbCircle
 10
30.1025
 20
36.5
 30
0.0
 40
1.0
100
AcDbArc
 50
270.0
 51
360.0
1001
ACAD
1000
R13OBJECT
1002
{
1005
119
1002
}
  0
LINE
  5
99
100
AcDbEntity
  8
2D_PROFILE
100
AcDbLine
 10
26.12112
 20
35.5
 30
0.0
 11
30.1025
 21
35.5
 31
0.0
1001
ACAD
1000
R13OBJECT
1002
{
1005
119
1002
}
  0
ARC
  5
9A
100
AcDbEntity
  8
2D_PROFILE
100
AcDbCircle
 10
26.12112
 20
34.5
 30
0.0
 40
1.0
100
AcDbArc
 50
90.0
 51
213.247424
1001
ACAD
1000
R13OBJECT
1002
{
1005
119
1002
}
  0
ARC
  5
9B
100
AcDbEntity
  8
2D_PROFILE
100
AcDbCircle
 10
47.061257
 20
48.952995
 30
0.0
 40
26.443358
100
AcDbArc
 50
214.561985
 51
231.561745
1001
ACAD
1000
R13OBJECT
1002
{
1005
119
1002
}
  0
ARC
  5
9C
100
AcDbEntity
  8
2D_PROFILE
100
AcDbCircle
 10
33.009444
 20
31.45
 30
0.0
 40
4.0
100
AcDbArc
 50
233.35799
 51
270.0
1001
ACAD
1000
R13OBJECT
1002
{
1005
119
1002
}
  0
LINE
  5
9D
100
AcDbEntity
  8
2D_PROFILE
100
AcDbLine
 10
37.395556
 20
27.45
 30
0.0
 11
33.009444
 21
27.45
 31
0.0
1001
ACAD
1000
R13OBJECT
1002
{
1005
119
1002
}
  0
ARC
  5
9E
100
AcDbEntity
  8
2D_PROFILE
100
AcDbCircle
 10
37.395556
 20
31.45
 30
0.0
 40
4.0
100
AcDbArc
 50
270.0
 51
306.64201
1001
ACAD
1000
R13OBJECT
1002
{
1005
119
1002
}
  0
ARC
  5
9F
100
AcDbEntity
  8
2D_PROFILE
100
AcDbCircle
 10
23.343743
 20
48.952995
 30
0.0
 40
26.443358
100
AcDbArc
 50
308.438255
 51
325.438015
1001
ACAD
1000
R13OBJECT
1002
{
1005
119
1002
}
  0
ARC
  5
A0
100
AcDbEntity
  8
2D_PROFILE
100
AcDbCircle
 10
44.28388
 20
34.5
 30
0.0
 40
1.0
100
AcDbArc
 50
326.752576
 51
90.0
1001
ACAD
1000
R13OBJECT
1002
{
1005
119
1002
}
  0
LINE
  5
A1
100
AcDbEntity
  8
2D_PROFILE
100
AcDbLine
 10
40.3025
 20
35.5
 30
0.0
 11
44.28388
 21
35.5
 31
0.0
1001
ACAD
1000
R13OBJECT
1002
{
1005
119
1002
}
  0
ARC
  5
A2
100
AcDbEntity
  8
2D_PROFILE
100
AcDbCircle
 10
40.3025
 20
36.5
 30
0.0
 40
1.0
100
AcDbArc
 50
180.0
 51
270.0
1001
ACAD
1000
R13OBJECT
1002
{
1005
119
1002
}
  0
LINE
  5
A3
100
AcDbEntity
  8
2D_PROFILE
100
AcDbLine
 10
39.3025
 20
42.630502
 30
0.0
 11
39.3025
 21
36.5
 31
0.0
1001
ACAD
1000
R13OBJECT
1002
{
1005
119
1002
}
  0
ARC
  5
A4
100
AcDbEntity
  8
2D_PROFILE
100
AcDbCircle
 10
35.2025
 20
49.5
 30
0.0
 40
8.0
100
AcDbArc
 50
300.830497
 51
22.024313
1001
ACAD
1000
R13OBJECT
1002
{
1005
119
1002
}
  0
LINE
  5
A5
100
AcDbEntity
  8
2D_PROFILE
100
AcDbLine
 10
42.7025
 20
52.5
 30
0.0
 11
42.618698
 21
52.5
 31
0.0
1001
ACAD
1000
R13OBJECT
1002
{
1005
119
1002
}
  0
ARC
  5
A6
100
AcDbEntity
  8
2D_PROFILE
100
AcDbCircle
 10
42.7025
 20
49.5
 30
0.0
 40
3.0
100
AcDbArc
 50
0.0
 51
90.0
1001
ACAD
1000
R13OBJECT
1002
{
1005
119
1002
}
  0
LINE
  5
A7
100
AcDbEntity
  8
2D_PROFILE
100
AcDbLine
 10
45.7025
 20
40.0
 30
0.0
 11
45.7025
 21
49.5
 31
0.0
1001
ACAD
1000
R13OBJECT
1002
{
1005
119
1002
}
  0
LINE
  5
A8
100
AcDbEntity
  8
2D_PROFILE
100
AcDbLine
 10
51.2025
 20
40.0
 30
0.0
 11
45.7025
 21
40.0
 31
0.0
1001
ACAD
1000
R13OBJECT
1002
{
1005
119
1002
}
  0
ARC
  5
A9
100
AcDbEntity
  8
2D_PROFILE
100
AcDbCircle
 10
51.2025
 20
36.0
 30
0.0
 40
4.0
100
AcDbArc
 50
0.0
 51
90.0
1001
ACAD
1000
R13OBJECT
1002
{
1005
119
1002
}
  0
LINE
  5
AA
100
AcDbEntity
  8
2D_PROFILE
100
AcDbLine
 10
55.2025
 20
25.6
 30
0.0
 11
55.2025
 21
36.0
 31
0.0
1001
ACAD
1000
R13OBJECT
1002
{
1005
119
1002
}
  0
ARC
  5
AB
100
AcDbEntity
  8
2D_PROFILE
100
AcDbCircle
 10
53.7025
 20
25.6
 30
0.0
 40
1.5
100
AcDbArc
 50
270.0
 51
0.0
1001
ACAD
1000
R13OBJECT
1002
{
1005
119
1002
}
  0
LINE
  5
AC
100
AcDbEntity
  8
2D_PROFILE
100
AcDbLine
 10
51.7025
 20
24.1
 30
0.0
 11
53.7025
 21
24.1
 31
0.0
1001
ACAD
1000
R13OBJECT
1002
{
1005
119
1002
}
  0
ARC
  5
AD
100
AcDbEntity
  8
2D_PROFILE
100
AcDbCircle
 10
51.7025
 20
25.1
 30
0.0
 40
1.0
100
AcDbArc
 50
180.0
 51
270.0
1001
ACAD
1000
R13OBJECT
1002
{
1005
119
1002
}
  0
LINE
  5
AE
100
AcDbEntity
  8
2D_PROFILE
100
AcDbLine
 10
50.7025
 20
29.08138
 30
0.0
 11
50.7025
 21
25.1
 31
0.0
1001
ACAD
1000
R13OBJECT
1002
{
1005
119
1002
}
  0
ARC
  5
AF
100
AcDbEntity
  8
2D_PROFILE
100
AcDbCircle
 10
49.7025
 20
29.08138
 30
0.0
 40
1.0
100
AcDbArc
 50
360.0
 51
123.247424
1001
ACAD
1000
R13OBJECT
1002
{
1005
119
1002
}
  0
ARC
  5
B0
100
AcDbEntity
  8
2D_PROFILE
100
AcDbCircle
 10
64.155495
 20
8.141243
 30
0.0
 40
26.443358
100
AcDbArc
 50
124.561985
 51
141.561745
1001
ACAD
1000
R13OBJECT
1002
{
1005
119
1002
}
  0
ARC
  5
B1
100
AcDbEntity
  8
2D_PROFILE
100
AcDbCircle
 10
46.6525
 20
22.193056
 30
0.0
 40
4.0
100
AcDbArc
 50
143.35799
 51
180.0
1001
ACAD
1000
R13OBJECT
1002
{
1005
119
1002
}
  0
LINE
  5
B2
100
AcDbEntity
  8
2D_PROFILE
100
AcDbLine
 10
42.6525
 20
17.806944
 30
0.0
 11
42.6525
 21
22.193056
 31
0.0
1001
ACAD
1000
R13OBJECT
1002
{
1005
119
1002
}
  0
ARC
  5
B3
100
AcDbEntity
  8
2D_PROFILE
100
AcDbCircle
 10
46.6525
 20
17.806944
 30
0.0
 40
4.0
100
AcDbArc
 50
180.0
 51
216.64201
1001
ACAD
1000
R13OBJECT
1002
{
1005
119
1002
}
  0
ARC
  5
B4
100
AcDbEntity
  8
2D_PROFILE
100
AcDbCircle
 10
64.155495
 20
31.858757
 30
0.0
 40
26.443358
100
AcDbArc
 50
218.438255
 51
235.438015
1001
ACAD
1000
R13OBJECT
1002
{
1005
119
1002
}
  0
ARC
  5
B5
100
AcDbEntity
  8
2D_PROFILE
100
AcDbCircle
 10
49.7025
 20
10.91862
 30
0.0
 40
1.0
100
AcDbArc
 50
236.752576
 51
360.0
1001
ACAD
1000
R13OBJECT
1002
{
1005
119
1002
}
  0
LINE
  5
B6
100
AcDbEntity
  8
2D_PROFILE
100
AcDbLine
 10
50.7025
 20
14.9
 30
0.0
 11
50.7025
 21
10.91862
 31
0.0
1001
ACAD
1000
R13OBJECT
1002
{
1005
119
1002
}
  0
ARC
  5
B7
100
AcDbEntity
  8
2D_PROFILE
100
AcDbCircle
 10
51.7025
 20
14.9
 30
0.0
 40
1.0
100
AcDbArc
 50
90.0
 51
180.0
1001
ACAD
1000
R13OBJECT
1002
{
1005
119
1002
}
  0
LINE
  5
B8
100
AcDbEntity
  8
2D_PROFILE
100
AcDbLine
 10
53.7025
 20
15.9
 30
0.0
 11
51.7025
 21
15.9
 31
0.0
1001
ACAD
1000
R13OBJECT
1002
{
1005
119
1002
}
  0
ARC
  5
B9
100
AcDbEntity
  8
2D_PROFILE
100
AcDbCircle
 10
53.7025
 20
14.4
 30
0.0
 40
1.5
100
AcDbArc
 50
360.0
 51
90.0
1001
ACAD
1000
R13OBJECT
1002
{
1005
119
1002
}
  0
LINE
  5
BA
100
AcDbEntity
  8
2D_PROFILE
100
AcDbLine
 10
55.2025
 20
-14.4
 30
0.0
 11
55.2025
 21
14.4
 31
0.0
1001
ACAD
1000
R13OBJECT
1002
{
1005
119
1002
}
  0
ARC
  5
BB
100
AcDbEntity
  8
2D_PROFILE
100
AcDbCircle
 10
53.7025
 20
-14.4
 30
0.0
 40
1.5
100
AcDbArc
 50
270.0
 51
0.0
1001
ACAD
1000
R13OBJECT
1002
{
1005
119
1002
}
  0
LINE
  5
BC
100
AcDbEntity
  8
2D_PROFILE
100
AcDbLine
 10
51.7025
 20
-15.9
 30
0.0
 11
53.7025
 21
-15.9
 31
0.0
1001
ACAD
1000
R13OBJECT
1002
{
1005
119
1002
}
  0
ARC
  5
BD
100
AcDbEntity
  8
2D_PROFILE
100
AcDbCircle
 10
51.7025
 20
-14.9
 30
0.0
 40
1.0
100
AcDbArc
 50
180.0
 51
270.0
1001
ACAD
1000
R13OBJECT
1002
{
1005
119
1002
}
  0
LINE
  5
BE
100
AcDbEntity
  8
2D_PROFILE
100
AcDbLine
 10
50.7025
 20
-10.91862
 30
0.0
 11
50.7025
 21
-14.9
 31
0.0
1001
ACAD
1000
R13OBJECT
1002
{
1005
119
1002
}
  0
ARC
  5
BF
100
AcDbEntity
  8
2D_PROFILE
100
AcDbCircle
 10
49.7025
 20
-10.91862
 30
0.0
 40
1.0
100
AcDbArc
 50
0.0
 51
123.247424
1001
ACAD
1000
R13OBJECT
1002
{
1005
119
1002
}
  0
ARC
  5
C0
100
AcDbEntity
  8
2D_PROFILE
100
AcDbCircle
 10
64.155495
 20
-31.858757
 30
0.0
 40
26.443358
100
AcDbArc
 50
124.561985
 51
141.561745
1001
ACAD
1000
R13OBJECT
1002
{
1005
119
1002
}
  0
ARC
  5
C1
100
AcDbEntity
  8
2D_PROFILE
100
AcDbCircle
 10
46.6525
 20
-17.806944
 30
0.0
 40
4.0
100
AcDbArc
 50
143.35799
 51
180.0
1001
ACAD
1000
R13OBJECT
1002
{
1005
119
1002
}
  0
LINE
  5
C2
100
AcDbEntity
  8
2D_PROFILE
100
AcDbLine
 10
42.6525
 20
-22.193056
 30
0.0
 11
42.6525
 21
-17.806944
 31
0.0
1001
ACAD
1000
R13OBJECT
1002
{
1005
119
1002
}
  0
ARC
  5
C3
100
AcDbEntity
  8
2D_PROFILE
100
AcDbCircle
 10
46.6525
 20
-22.193056
 30
0.0
 40
4.0
100
AcDbArc
 50
180.0
 51
216.64201
1001
ACAD
1000
R13OBJECT
1002
{
1005
119
1002
}
  0
ARC
  5
C4
100
AcDbEntity
  8
2D_PROFILE
100
AcDbCircle
 10
64.155495
 20
-8.141243
 30
0.0
 40
26.443358
100
AcDbArc
 50
218.438255
 51
235.438015
1001
ACAD
1000
R13OBJECT
1002
{
1005
119
1002
}
  0
ARC
  5
C5
100
AcDbEntity
  8
2D_PROFILE
100
AcDbCircle
 10
49.7025
 20
-29.08138
 30
0.0
 40
1.0
100
AcDbArc
 50
236.752576
 51
0.0
1001
ACAD
1000
R13OBJECT
1002
{
1005
119
1002
}
  0
LINE
  5
C6
100
AcDbEntity
  8
2D_PROFILE
100
AcDbLine
 10
50.7025
 20
-25.1
 30
0.0
 11
50.7025
 21
-29.08138
 31
0.0
1001
ACAD
1000
R13OBJECT
1002
{
1005
119
1002
}
  0
ARC
  5
C7
100
AcDbEntity
  8
2D_PROFILE
100
AcDbCircle
 10
51.7025
 20
-25.1
 30
0.0
 40
1.0
100
AcDbArc
 50
90.0
 51
180.0
1001
ACAD
1000
R13OBJECT
1002
{
1005
119
1002
}
  0
LINE
  5
C8
100
AcDbEntity
  8
2D_PROFILE
100
AcDbLine
 10
53.7025
 20
-24.1
 30
0.0
 11
51.7025
 21
-24.1
 31
0.0
1001
ACAD
1000
R13OBJECT
1002
{
1005
119
1002
}
  0
ARC
  5
C9
100
AcDbEntity
  8
2D_PROFILE
100
AcDbCircle
 10
53.7025
 20
-25.6
 30
0.0
 40
1.5
100
AcDbArc
 50
360.0
 51
90.0
1001
ACAD
1000
R13OBJECT
1002
{
1005
119
1002
}
  0
LINE
  5
CA
100
AcDbEntity
  8
2D_PROFILE
100
AcDbLine
 10
55.2025
 20
-36.0
 30
0.0
 11
55.2025
 21
-25.6
 31
0.0
1001
ACAD
1000
R13OBJECT
1002
{
1005
119
1002
}
  0
ARC
  5
CB
100
AcDbEntity
  8
2D_PROFILE
100
AcDbCircle
 10
51.2025
 20
-36.0
 30
0.0
 40
4.0
100
AcDbArc
 50
270.0
 51
0.0
1001
ACAD
1000
R13OBJECT
1002
{
1005
119
1002
}
  0
LINE
  5
CC
100
AcDbEntity
  8
2D_PROFILE
100
AcDbLine
 10
45.7025
 20
-40.0
 30
0.0
 11
51.2025
 21
-40.0
 31
0.0
1001
ACAD
1000
R13OBJECT
1002
{
1005
119
1002
}
  0
LINE
  5
CD
100
AcDbEntity
  8
2D_PROFILE
100
AcDbLine
 10
45.7025
 20
-49.5
 30
0.0
 11
45.7025
 21
-40.0
 31
0.0
1001
ACAD
1000
R13OBJECT
1002
{
1005
119
1002
}
  0
ARC
  5
CE
100
AcDbEntity
  8
2D_PROFILE
100
AcDbCircle
 10
42.7025
 20
-49.5
 30
0.0
 40
3.0
100
AcDbArc
 50
270.0
 51
0.0
1001
ACAD
1000
R13OBJECT
1002
{
1005
119
1002
}
  0
LINE
  5
CF
100
AcDbEntity
  8
2D_PROFILE
100
AcDbLine
 10
42.618698
 20
-52.5
 30
0.0
 11
42.7025
 21
-52.5
 31
0.0
1001
ACAD
1000
R13OBJECT
1002
{
1005
119
1002
}
  0
ARC
  5
D0
100
AcDbEntity
  8
2D_PROFILE
100
AcDbCircle
 10
35.2025
 20
-49.5
 30
0.0
 40
8.0
100
AcDbArc
 50
337.975687
 51
59.169503
1001
ACAD
1000
R13OBJECT
1002
{
1005
119
1002
}
  0
LINE
  5
D1
100
AcDbEntity
  8
2D_PROFILE
100
AcDbLine
 10
39.3025
 20
-36.5
 30
0.0
 11
39.3025
 21
-42.630502
 31
0.0
1001
ACAD
1000
R13OBJECT
1002
{
1005
119
1002
}
  0
ARC
  5
D2
100
AcDbEntity
  8
2D_PROFILE
100
AcDbCircle
 10
40.3025
 20
-36.5
 30
0.0
 40
1.0
100
AcDbArc
 50
90.0
 51
180.0
1001
ACAD
1000
R13OBJECT
1002
{
1005
119
1002
}
  0
LINE
  5
D3
100
AcDbEntity
  8
2D_PROFILE
100
AcDbLine
 10
44.28388
 20
-35.5
 30
0.0
 11
40.3025
 21
-35.5
 31
0.0
1001
ACAD
1000
R13OBJECT
1002
{
1005
119
1002
}
  0
ARC
  5
D4
100
AcDbEntity
  8
2D_PROFILE
100
AcDbCircle
 10
44.28388
 20
-34.5
 30
0.0
 40
1.0
100
AcDbArc
 50
270.0
 51
33.247424
1001
ACAD
1000
R13OBJECT
1002
{
1005
119
1002
}
  0
ARC
  5
D5
100
AcDbEntity
  8
2D_PROFILE
100
AcDbCircle
 10
23.343743
 20
-48.952995
 30
0.0
 40
26.443358
100
AcDbArc
 50
34.561985
 51
51.561745
1001
ACAD
1000
R13OBJECT
1002
{
1005
119
1002
}
  0
CIRCLE
  5
D6
100
AcDbEntity
  8
2D_PROFILE
100
AcDbCircle
 10
-50.2025
 20
-35.0
 30
0.0
 40
2.0
210
0.0
220
0.0
230
-1.0
1001
ACAD
1000
R13OBJECT
1002
{
1005
119
1002
}
  0
CIRCLE
  5
D7
100
AcDbEntity
  8
2D_PROFILE
100
AcDbCircle
 10
-50.2025
 20
35.0
 30
0.0
 40
2.0
210
0.0
220
0.0
230
-1.0
1001
ACAD
1000
R13OBJECT
1002
{
1005
119
1002
}
  0
CIRCLE
  5
D8
100
AcDbEntity
  8
2D_PROFILE
100
AcDbCircle
 10
-35.2025
 20
20.0
 30
0.0
 40
3.4
210
0.0
220
0.0
230
-1.0
1001
ACAD
1000
R13OBJECT
1002
{
1005
119
1002
}
  0
ARC
  5
D9
100
AcDbEntity
  8
2D_PROFILE
100
AcDbCircle
 10
-23.7525
 20
22.193056
 30
0.0
 40
4.0
210
0.0
220
0.0
230
-1.0
100
AcDbArc
 50
143.35799
 51
180.0
1001
ACAD
1000
R13OBJECT
1002
{
1005
119
1002
}
  0
ARC
  5
DA
100
AcDbEntity
  8
2D_PROFILE
100
AcDbCircle
 10
-6.249505
 20
8.141243
 30
0.0
 40
26.443358
210
0.0
220
0.0
230
-1.0
100
AcDbArc
 50
124.561985
 51
141.561745
1001
ACAD
1000
R13OBJECT
1002
{
1005
119
1002
}
  0
ARC
  5
DB
100
AcDbEntity
  8
2D_PROFILE
100
AcDbCircle
 10
-20.7025
 20
29.08138
 30
0.0
 40
1.0
210
0.0
220
0.0
230
-1.0
100
AcDbArc
 50
360.0
 51
123.247424
1001
ACAD
1000
R13OBJECT
1002
{
1005
119
1002
}
  0
LINE
  5
DC
100
AcDbEntity
  8
2D_PROFILE
100
AcDbLine
 10
19.7025
 20
25.1
 30
0.0
 11
19.7025
 21
29.08138
 31
0.0
1001
ACAD
1000
R13OBJECT
1002
{
1005
119
1002
}
  0
ARC
  5
DD
100
AcDbEntity
  8
2D_PROFILE
100
AcDbCircle
 10
18.7025
 20
25.1
 30
0.0
 40
1.0
100
AcDbArc
 50
270.0
 51
0.0
1001
ACAD
1000
R13OBJECT
1002
{
1005
119
1002
}
  0
LINE
  5
DE
100
AcDbEntity
  8
2D_PROFILE
100
AcDbLine
 10
18.7025
 20
15.9
 30
0.0
 11
18.7025
 21
24.1
 31
0.0
1001
ACAD
1000
R13OBJECT
1002
{
1005
119
1002
}
  0
ARC
  5
DF
100
AcDbEntity
  8
2D_PROFILE
100
AcDbCircle
 10
18.7025
 20
14.9
 30
0.0
 40
1.0
100
AcDbArc
 50
360.0
 51
90.0
1001
ACAD
1000
R13OBJECT
1002
{
1005
119
1002
}
  0
LINE
  5
E0
100
AcDbEntity
  8
2D_PROFILE
100
AcDbLine
 10
19.7025
 20
10.91862
 30
0.0
 11
19.7025
 21
14.9
 31
0.0
1001
ACAD
1000
R13OBJECT
1002
{
1005
119
1002
}
  0
ARC
  5
E1
100
AcDbEntity
  8
2D_PROFILE
100
AcDbCircle
 10
-20.7025
 20
10.91862
 30
0.0
 40
1.0
210
0.0
220
0.0
230
-1.0
100
AcDbArc
 50
236.752576
 51
0.0
1001
ACAD
1000
R13OBJECT
1002
{
1005
119
1002
}
  0
ARC
  5
E2
100
AcDbEntity
  8
2D_PROFILE
100
AcDbCircle
 10
-6.249505
 20
31.858757
 30
0.0
 40
26.443358
210
0.0
220
0.0
230
-1.0
100
AcDbArc
 50
218.438255
 51
235.438015
1001
ACAD
1000
R13OBJECT
1002
{
1005
119
1002
}
  0
ARC
  5
E3
100
AcDbEntity
  8
2D_PROFILE
100
AcDbCircle
 10
-23.7525
 20
17.806944
 30
0.0
 40
4.0
210
0.0
220
0.0
230
-1.0
100
AcDbArc
 50
180.0
 51
216.64201
1001
ACAD
1000
R13OBJECT
1002
{
1005
119
1002
}
  0
LINE
  5
E4
100
AcDbEntity
  8
2D_PROFILE
100
AcDbLine
 10
27.7525
 20
22.193056
 30
0.0
 11
27.7525
 21
17.806944
 31
0.0
1001
ACAD
1000
R13OBJECT
1002
{
1005
119
1002
}
  0
LINE
  5
E5
100
AcDbEntity
  8
2D_PROFILE
100
AcDbLine
 10
31.8025
 20
12.5
 30
0.0
 11
38.6025
 21
12.5
 31
0.0
1001
ACAD
1000
R13OBJECT
1002
{
1005
119
1002
}
  0
ARC
  5
E6
100
AcDbEntity
  8
2D_PROFILE
100
AcDbCircle
 10
8.757108
 20
31.784887
 30
0.0
 40
30.049908
100
AcDbArc
 50
292.388167
 51
320.076671
1001
ACAD
1000
R13OBJECT
1002
{
1005
119
1002
}
  0
LINE
  5
E7
100
AcDbEntity
  8
2D_PROFILE
100
AcDbLine
 10
20.2025
 20
-4.0
 30
0.0
 11
20.2025
 21
4.0
 31
0.0
1001
ACAD
1000
R13OBJECT
1002
{
1005
119
1002
}
  0
ARC
  5
E8
100
AcDbEntity
  8
2D_PROFILE
100
AcDbCircle
 10
8.757108
 20
-31.784887
 30
0.0
 40
30.049908
100
AcDbArc
 50
39.923329
 51
67.611833
1001
ACAD
1000
R13OBJECT
1002
{
1005
119
1002
}
  0
LINE
  5
E9
100
AcDbEntity
  8
2D_PROFILE
100
AcDbLine
 10
38.6025
 20
-12.5
 30
0.0
 11
31.8025
 21
-12.5
 31
0.0
1001
ACAD
1000
R13OBJECT
1002
{
1005
119
1002
}
  0
ARC
  5
EA
100
AcDbEntity
  8
2D_PROFILE
100
AcDbCircle
 10
61.647892
 20
-31.784887
 30
0.0
 40
30.049908
100
AcDbArc
 50
112.388167
 51
140.076671
1001
ACAD
1000
R13OBJECT
1002
{
1005
119
1002
}
  0
LINE
  5
EB
100
AcDbEntity
  8
2D_PROFILE
100
AcDbLine
 10
50.2025
 20
4.0
 30
0.0
 11
50.2025
 21
-4.0
 31
0.0
1001
ACAD
1000
R13OBJECT
1002
{
1005
119
1002
}
  0
ARC
  5
EC
100
AcDbEntity
  8
2D_PROFILE
100
AcDbCircle
 10
61.647892
 20
31.784887
 30
0.0
 40
30.049908
100
AcDbArc
 50
219.923329
 51
247.611833
1001
ACAD
1000
R13OBJECT
1002
{
1005
119
1002
}
  0
CIRCLE
  5
ED
100
AcDbEntity
  8
2D_PROFILE
100
AcDbCircle
 10
-35.2025
 20
-20.0
 30
0.0
 40
3.4
210
0.0
220
0.0
230
-1.0
1001
ACAD
1000
R13OBJECT
1002
{
1005
119
1002
}
  0
ARC
  5
EE
100
AcDbEntity
  8
2D_PROFILE
100
AcDbCircle
 10
-6.249505
 20
-31.858757
 30
0.0
 40
26.443358
210
0.0
220
0.0
230
-1.0
100
AcDbArc
 50
124.561985
 51
141.561745
1001
ACAD
1000
R13OBJECT
1002
{
1005
119
1002
}
  0
ARC
  5
EF
100
AcDbEntity
  8
2D_PROFILE
100
AcDbCircle
 10
-20.7025
 20
-10.91862
 30
0.0
 40
1.0
210
0.0
220
0.0
230
-1.0
100
AcDbArc
 50
360.0
 51
123.247424
1001
ACAD
1000
R13OBJECT
1002
{
1005
119
1002
}
  0
LINE
  5
F0
100
AcDbEntity
  8
2D_PROFILE
100
AcDbLine
 10
19.7025
 20
-14.9
 30
0.0
 11
19.7025
 21
-10.91862
 31
0.0
1001
ACAD
1000
R13OBJECT
1002
{
1005
119
1002
}
  0
ARC
  5
F1
100
AcDbEntity
  8
2D_PROFILE
100
AcDbCircle
 10
18.7025
 20
-14.9
 30
0.0
 40
1.0
100
AcDbArc
 50
270.0
 51
0.0
1001
ACAD
1000
R13OBJECT
1002
{
1005
119
1002
}
  0
LINE
  5
F2
100
AcDbEntity
  8
2D_PROFILE
100
AcDbLine
 10
18.7025
 20
-24.1
 30
0.0
 11
18.7025
 21
-15.9
 31
0.0
1001
ACAD
1000
R13OBJECT
1002
{
1005
119
1002
}
  0
ARC
  5
F3
100
AcDbEntity
  8
2D_PROFILE
100
AcDbCircle
 10
18.7025
 20
-25.1
 30
0.0
 40
1.0
100
AcDbArc
 50
0.0
 51
90.0
1001
ACAD
1000
R13OBJECT
1002
{
1005
119
1002
}
  0
LINE
  5
F4
100
AcDbEntity
  8
2D_PROFILE
100
AcDbLine
 10
19.7025
 20
-29.08138
 30
0.0
 11
19.7025
 21
-25.1
 31
0.0
1001
ACAD
1000
R13OBJECT
1002
{
1005
119
1002
}
  0
ARC
  5
F5
100
AcDbEntity
  8
2D_PROFILE
100
AcDbCircle
 10
-20.7025
 20
-29.08138
 30
0.0
 40
1.0
210
0.0
220
0.0
230
-1.0
100
AcDbArc
 50
236.752576
 51
0.0
1001
ACAD
1000
R13OBJECT
1002
{
1005
119
1002
}
  0
ARC
  5
F6
100
AcDbEntity
  8
2D_PROFILE
100
AcDbCircle
 10
-6.249505
 20
-8.141243
 30
0.0
 40
26.443358
210
0.0
220
0.0
230
-1.0
100
AcDbArc
 50
218.438255
 51
235.438015
1001
ACAD
1000
R13OBJECT
1002
{
1005
119
1002
}
  0
ARC
  5
F7
100
AcDbEntity
  8
2D_PROFILE
100
AcDbCircle
 10
-23.7525
 20
-22.193056
 30
0.0
 40
4.0
210
0.0
220
0.0
230
-1.0
100
AcDbArc
 50
180.0
 51
216.64201
1001
ACAD
1000
R13OBJECT
1002
{
1005
119
1002
}
  0
LINE
  5
F8
100
AcDbEntity
  8
2D_PROFILE
100
AcDbLine
 10
27.7525
 20
-17.806944
 30
0.0
 11
27.7525
 21
-22.193056
 31
0.0
1001
ACAD
1000
R13OBJECT
1002
{
1005
119
1002
}
  0
ARC
  5
F9
100
AcDbEntity
  8
2D_PROFILE
100
AcDbCircle
 10
-23.7525
 20
-17.806944
 30
0.0
 40
4.0
210
0.0
220
0.0
230
-1.0
100
AcDbArc
 50
143.35799
 51
180.0
1001
ACAD
1000
R13OBJECT
1002
{
1005
119
1002
}
  0
CIRCLE
  5
FA
100
AcDbEntity
  8
2D_PROFILE
100
AcDbCircle
 10
44.7975
 20
-20.0
 30
0.0
 40
3.4
210
0.0
220
0.0
230
-1.0
1001
ACAD
1000
R13OBJECT
1002
{
1005
119
1002
}
  0
CIRCLE
  5
FB
100
AcDbEntity
  8
2D_PROFILE
100
AcDbCircle
 10
59.7975
 20
-35.0
 30
0.0
 40
2.0
210
0.0
220
0.0
230
-1.0
1001
ACAD
1000
R13OBJECT
1002
{
1005
119
1002
}
  0
CIRCLE
  5
FC
100
AcDbEntity
  8
2D_PROFILE
100
AcDbCircle
 10
59.7975
 20
35.0
 30
0.0
 40
2.0
210
0.0
220
0.0
230
-1.0
1001
ACAD
1000
R13OBJECT
1002
{
1005
119
1002
}
  0
CIRCLE
  5
FD
100
AcDbEntity
  8
2D_PROFILE
100
AcDbCircle
 10
44.7975
 20
20.0
 30
0.0
 40
3.4
210
0.0
220
0.0
230
-1.0
1001
ACAD
1000
R13OBJECT
1002
{
1005
119
1002
}
  0
LINE
  5
FE
100
AcDbEntity
  8
2D_PROFILE
100
AcDbLine
 10
3.963778
 20
32.5
 30
0.0
 11
11.2025
 21
32.5
 31
0.0
1001
ACAD
1000
R13OBJECT
1002
{
1005
119
1002
}
  0
ARC
  5
FF
100
AcDbEntity
  8
2D_PROFILE
100
AcDbCircle
 10
-3.963778
 20
31.5
 30
0.0
 40
1.0
210
0.0
220
0.0
230
-1.0
100
AcDbArc
 50
43.104674
 51
90.0
1001
ACAD
1000
R13OBJECT
1002
{
1005
119
1002
}
  0
ARC
  5
100
100
AcDbEntity
  8
2D_PROFILE
100
AcDbCircle
 10
-4.7975
 20
39.7
 30
0.0
 40
11.0
100
AcDbArc
 50
223.104674
 51
316.895326
1001
ACAD
1000
R13OBJECT
1002
{
1005
119
1002
}
  0
ARC
  5
101
100
AcDbEntity
  8
2D_PROFILE
100
AcDbCircle
 10
13.558778
 20
31.5
 30
0.0
 40
1.0
210
0.0
220
0.0
230
-1.0
100
AcDbArc
 50
90.0
 51
136.895326
1001
ACAD
1000
R13OBJECT
1002
{
1005
119
1002
}
  0
LINE
  5
102
100
AcDbEntity
  8
2D_PROFILE
100
AcDbLine
 10
-27.645229
 20
32.5
 30
0.0
 11
-13.558778
 21
32.5
 31
0.0
1001
ACAD
1000
R13OBJECT
1002
{
1005
119
1002
}
  0
ARC
  5
103
100
AcDbEntity
  8
2D_PROFILE
100
AcDbCircle
 10
27.645229
 20
28.5
 30
0.0
 40
4.0
210
0.0
220
0.0
230
-1.0
100
AcDbArc
 50
31.805139
 51
90.0
1001
ACAD
1000
R13OBJECT
1002
{
1005
119
1002
}
  0
ARC
  5
104
100
AcDbEntity
  8
2D_PROFILE
100
AcDbCircle
 10
-56.582387
 20
46.445392
 30
0.0
 40
30.049908
100
AcDbArc
 50
310.79083
 51
328.194861
1001
ACAD
1000
R13OBJECT
1002
{
1005
119
1002
}
  0
ARC
  5
105
100
AcDbEntity
  8
2D_PROFILE
100
AcDbCircle
 10
36.2975
 20
22.937518
 30
0.0
 40
1.0
210
0.0
220
0.0
230
-1.0
100
AcDbArc
 50
360.0
 51
49.20917
1001
ACAD
1000
R13OBJECT
1002
{
1005
119
1002
}
  0
LINE
  5
106
100
AcDbEntity
  8
2D_PROFILE
100
AcDbLine
 10
-37.2975
 20
13.5
 30
0.0
 11
-37.2975
 21
22.937518
 31
0.0
1001
ACAD
1000
R13OBJECT
1002
{
1005
119
1002
}
  0
ARC
  5
107
100
AcDbEntity
  8
2D_PROFILE
100
AcDbCircle
 10
-38.2975
 20
13.5
 30
0.0
 40
1.0
100
AcDbArc
 50
270.0
 51
0.0
1001
ACAD
1000
R13OBJECT
1002
{
1005
119
1002
}
  0
LINE
  5
108
100
AcDbEntity
  8
2D_PROFILE
100
AcDbLine
 10
-48.1975
 20
12.5
 30
0.0
 11
-38.2975
 21
12.5
 31
0.0
1001
ACAD
1000
R13OBJECT
1002
{
1005
119
1002
}
  0
ARC
  5
109
100
AcDbEntity
  8
2D_PROFILE
100
AcDbCircle
 10
-71.242892
 20
31.784887
 30
0.0
 40
30.049908
100
AcDbArc
 50
292.388167
 51
320.076671
1001
ACAD
1000
R13OBJECT
1002
{
1005
119
1002
}
  0
LINE
  5
10A
100
AcDbEntity
  8
2D_PROFILE
100
AcDbLine
 10
-59.7975
 20
-4.0
 30
0.0
 11
-59.7975
 21
4.0
 31
0.0
1001
ACAD
1000
R13OBJECT
1002
{
1005
119
1002
}
  0
ARC
  5
10B
100
AcDbEntity
  8
2D_PROFILE
100
AcDbCircle
 10
-71.242892
 20
-31.784887
 30
0.0
 40
30.049908
100
AcDbArc
 50
39.923329
 51
67.611833
1001
ACAD
1000
R13OBJECT
1002
{
1005
119
1002
}
  0
LINE
  5
10C
100
AcDbEntity
  8
2D_PROFILE
100
AcDbLine
 10
-38.2975
 20
-12.5
 30
0.0
 11
-48.1975
 21
-12.5
 31
0.0
1001
ACAD
1000
R13OBJECT
1002
{
1005
119
1002
}
  0
ARC
  5
10D
100
AcDbEntity
  8
2D_PROFILE
100
AcDbCircle
 10
-38.2975
 20
-13.5
 30
0.0
 40
1.0
100
AcDbArc
 50
360.0
 51
90.0
1001
ACAD
1000
R13OBJECT
1002
{
1005
119
1002
}
  0
LINE
  5
10E
100
AcDbEntity
  8
2D_PROFILE
100
AcDbLine
 10
-37.2975
 20
-22.937518
 30
0.0
 11
-37.2975
 21
-13.5
 31
0.0
1001
ACAD
1000
R13OBJECT
1002
{
1005
119
1002
}
  0
ARC
  5
10F
100
AcDbEntity
  8
2D_PROFILE
100
AcDbCircle
 10
36.2975
 20
-22.937518
 30
0.0
 40
1.0
210
0.0
220
0.0
230
-1.0
100
AcDbArc
 50
310.79083
 51
360.0
1001
ACAD
1000
R13OBJECT
1002
{
1005
119
1002
}
  0
ARC
  5
110
100
AcDbEntity
  8
2D_PROFILE
100
AcDbCircle
 10
-56.582387
 20
-46.445392
 30
0.0
 40
30.049908
100
AcDbArc
 50
31.805139
 51
49.20917
1001
ACAD
1000
R13OBJECT
1002
{
1005
119
1002
}
  0
ARC
  5
111
100
AcDbEntity
  8
2D_PROFILE
100
AcDbCircle
 10
27.645229
 20
-28.5
 30
0.0
 40
4.0
210
0.0
220
0.0
230
-1.0
100
AcDbArc
 50
270.0
 51
328.194861
1001
ACAD
1000
R13OBJECT
1002
{
1005
119
1002
}
  0
LINE
  5
112
100
AcDbEntity
  8
2D_PROFILE
100
AcDbLine
 10
-13.558778
 20
-32.5
 30
0.0
 11
-27.645229
 21
-32.5
 31
0.0
1001
ACAD
1000
R13OBJECT
1002
{
1005
119
1002
}
  0
ARC
  5
113
100
AcDbEntity
  8
2D_PROFILE
100
AcDbCircle
 10
13.558778
 20
-31.5
 30
0.0
 40
1.0
210
0.0
220
0.0
230
-1.0
100
AcDbArc
 50
223.104674
 51
270.0
1001
ACAD
1000
R13OBJECT
1002
{
1005
119
1002
}
  0
ARC
  5
114
100
AcDbEntity
  8
2D_PROFILE
100
AcDbCircle
 10
-4.7975
 20
-39.7
 30
0.0
 40
11.0
100
AcDbArc
 50
43.104674
 51
136.895326
1001
ACAD
1000
R13OBJECT
1002
{
1005
119
1002
}
  0
ARC
  5
115
100
AcDbEntity
  8
2D_PROFILE
100
AcDbCircle
 10
-3.963778
 20
-31.5
 30
0.0
 40
1.0
210
0.0
220
0.0
230
-1.0
100
AcDbArc
 50
270.0
 51
316.895326
1001
ACAD
1000
R13OBJECT
1002
{
1005
119
1002
}
  0
LINE
  5
116
100
AcDbEntity
  8
2D_PROFILE
100
AcDbLine
 10
11.2025
 20
-32.5
 30
0.0
 11
3.963778
 21
-32.5
 31
0.0
1001
ACAD
1000
R13OBJECT
1002
{
1005
119
1002
}
  0
ARC
  5
117
100
AcDbEntity
  8
2D_PROFILE
100
AcDbCircle
 10
-11.2025
 20
-28.5
 30
0.0
 40
4.0
210
0.0
220
0.0
230
-1.0
100
AcDbArc
 50
180.0
 51
270.0
1001
ACAD
1000
R13OBJECT
1002
{
1005
119
1002
}
  0
LINE
  5
118
100
AcDbEntity
  8
2D_PROFILE
100
AcDbLine
 10
15.2025
 20
28.5
 30
0.0
 11
15.2025
 21
-28.5
 31
0.0
1001
ACAD
1000
R13OBJECT
1002
{
1005
119
1002
}
  0
ARC
  5
119
100
AcDbEntity
  8
2D_PROFILE
100
AcDbCircle
 10
-11.2025
 20
28.5
 30
0.0
 40
4.0
210
0.0
220
0.0
230
-1.0
100
AcDbArc
 50
90.0
 51
180.0
  0
ENDSEC
  0
SECTION
  2
OBJECTS
  0
DICTIONARY
  5
1A
100
AcDbDictionary
  3
ACAD_GROUP
350
18
  3
ACAD_MLINESTYLE
350
19
  0
DICTIONARY
  5
18
102
{ACAD_REACTORS
330
1A
102
}
100
AcDbDictionary
  0
DICTIONARY
  5
19
102
{ACAD_REACTORS
330
1A
102
}
100
AcDbDictionary
  3
STANDARD
350
1C
  0
MLINESTYLE
  5
1C
102
{ACAD_REACTORS
330
19
102
}
100
AcDbMlineStyle
  2
STANDARD
 70
     0
  3

 62
   256
 51
90.0
 52
90.0
 71
     2
 49
0.5
 62
   256
  6
BYLAYER
 49
-0.5
 62
   256
  6
BYLAYER
  0
ENDSEC
  0
EOF
