ISO-10303-21;
HEADER;
/* Generated by software containing ST-Developer
 * from STEP Tools, Inc. (www.steptools.com) 
 */

FILE_DESCRIPTION(
/* description */ ('Zuganker G 25 M6 19 mm'),
/* implementation_level */ '2;1');

FILE_NAME(
/* name */ 'Q:\\ExterneArtikel_Webseite_Palkat\\SV\\SV_step\\SV7107V_A.
stp',
/* time_stamp */ '2015-11-27T09:36:14+01:00',
/* author */ ('Marina Kaa'),
/* organization */ (''),
/* preprocessor_version */ 'ST-DEVELOPER v15.6',
/* originating_system */ 'Autodesk Inventor 2015',
/* authorisation */ '');

FILE_SCHEMA (('AUTOMOTIVE_DESIGN { 1 0 10303 214 3 1 1 }'));
ENDSEC;

DATA;
#10=MECHANICAL_DESIGN_GEOMETRIC_PRESENTATION_REPRESENTATION('',(#13),#176);
#11=SHAPE_REPRESENTATION_RELATIONSHIP('SRR','None',#185,#12);
#12=ADVANCED_BREP_SHAPE_REPRESENTATION($,(#14),#175);
#13=STYLED_ITEM('',(#194),#14);
#14=MANIFOLD_SOLID_BREP('Volumenk\X\F6rper1',#77);
#15=PLANE('',#84);
#16=PLANE('',#87);
#17=B_SPLINE_CURVE_WITH_KNOTS('',3,(#122,#123,#124,#125,#126,#127,#128,
#129,#130,#131,#132,#133,#134,#135,#136,#137,#138,#139,#140,#141,#142,#143),
 .UNSPECIFIED.,.F.,.F.,(4,2,2,2,2,2,2,2,2,2,4),(0.39551667188961,0.443345221252031,
0.491173770614452,0.600111415826061,0.69557237980264,0.79103334377922,0.886494307755799,
0.981955271732378,1.09089291694399,1.13872146630641,1.18655001566883),
 .UNSPECIFIED.);
#18=B_SPLINE_CURVE_WITH_KNOTS('',3,(#144,#145,#146,#147,#148,#149,#150,
#151,#152,#153,#154,#155,#156,#157,#158,#159,#160,#161,#162,#163,#164,#165,
#166),.UNSPECIFIED.,.F.,.F.,(4,2,2,2,2,3,2,2,2,2,4),(1.18655001566883,1.23437856503125,
1.28220711439367,1.39114475960528,1.48660572358186,1.58206668755844,1.67752765153502,
1.7729886155116,1.88192626072321,1.92975481008563,1.97758335944805),
 .UNSPECIFIED.);
#19=CYLINDRICAL_SURFACE('',#82,3.);
#20=FACE_BOUND('',#31,.T.);
#21=FACE_BOUND('',#33,.T.);
#22=FACE_BOUND('',#34,.T.);
#23=FACE_BOUND('',#37,.T.);
#24=FACE_OUTER_BOUND('',#30,.T.);
#25=FACE_OUTER_BOUND('',#32,.T.);
#26=FACE_OUTER_BOUND('',#35,.T.);
#27=FACE_OUTER_BOUND('',#36,.T.);
#28=FACE_OUTER_BOUND('',#38,.T.);
#29=FACE_OUTER_BOUND('',#39,.T.);
#30=EDGE_LOOP('',(#56));
#31=EDGE_LOOP('',(#57));
#32=EDGE_LOOP('',(#58));
#33=EDGE_LOOP('',(#59,#60));
#34=EDGE_LOOP('',(#61));
#35=EDGE_LOOP('',(#62));
#36=EDGE_LOOP('',(#63));
#37=EDGE_LOOP('',(#64));
#38=EDGE_LOOP('',(#65));
#39=EDGE_LOOP('',(#66,#67));
#40=CIRCLE('',#80,3.);
#41=CIRCLE('',#81,2.);
#42=CIRCLE('',#83,3.);
#43=CIRCLE('',#86,2.);
#44=VERTEX_POINT('',#113);
#45=VERTEX_POINT('',#115);
#46=VERTEX_POINT('',#118);
#47=VERTEX_POINT('',#120);
#48=VERTEX_POINT('',#121);
#49=VERTEX_POINT('',#169);
#50=EDGE_CURVE('',#44,#44,#40,.T.);
#51=EDGE_CURVE('',#45,#45,#41,.T.);
#52=EDGE_CURVE('',#46,#46,#42,.T.);
#53=EDGE_CURVE('',#47,#48,#17,.T.);
#54=EDGE_CURVE('',#48,#47,#18,.T.);
#55=EDGE_CURVE('',#49,#49,#43,.T.);
#56=ORIENTED_EDGE('',*,*,#50,.T.);
#57=ORIENTED_EDGE('',*,*,#51,.T.);
#58=ORIENTED_EDGE('',*,*,#52,.F.);
#59=ORIENTED_EDGE('',*,*,#53,.T.);
#60=ORIENTED_EDGE('',*,*,#54,.T.);
#61=ORIENTED_EDGE('',*,*,#50,.F.);
#62=ORIENTED_EDGE('',*,*,#51,.F.);
#63=ORIENTED_EDGE('',*,*,#55,.T.);
#64=ORIENTED_EDGE('',*,*,#52,.T.);
#65=ORIENTED_EDGE('',*,*,#55,.F.);
#66=ORIENTED_EDGE('',*,*,#53,.F.);
#67=ORIENTED_EDGE('',*,*,#54,.F.);
#68=CONICAL_SURFACE('',#79,2.5,45.);
#69=CONICAL_SURFACE('',#85,2.5,45.0000000000001);
#70=CONICAL_SURFACE('',#88,1.5,45.);
#71=ADVANCED_FACE('',(#24,#20),#68,.T.);
#72=ADVANCED_FACE('',(#25,#21,#22),#19,.T.);
#73=ADVANCED_FACE('',(#26),#15,.T.);
#74=ADVANCED_FACE('',(#27,#23),#69,.T.);
#75=ADVANCED_FACE('',(#28),#16,.T.);
#76=ADVANCED_FACE('',(#29),#70,.F.);
#77=CLOSED_SHELL('',(#71,#72,#73,#74,#75,#76));
#78=AXIS2_PLACEMENT_3D('placement',#111,#89,#90);
#79=AXIS2_PLACEMENT_3D('',#112,#91,#92);
#80=AXIS2_PLACEMENT_3D('',#114,#93,#94);
#81=AXIS2_PLACEMENT_3D('',#116,#95,#96);
#82=AXIS2_PLACEMENT_3D('',#117,#97,#98);
#83=AXIS2_PLACEMENT_3D('',#119,#99,#100);
#84=AXIS2_PLACEMENT_3D('',#167,#101,#102);
#85=AXIS2_PLACEMENT_3D('',#168,#103,#104);
#86=AXIS2_PLACEMENT_3D('',#170,#105,#106);
#87=AXIS2_PLACEMENT_3D('',#171,#107,#108);
#88=AXIS2_PLACEMENT_3D('',#172,#109,#110);
#89=DIRECTION('axis',(0.,0.,1.));
#90=DIRECTION('refdir',(1.,0.,0.));
#91=DIRECTION('center_axis',(0.,0.,1.));
#92=DIRECTION('ref_axis',(0.,-1.,0.));
#93=DIRECTION('center_axis',(0.,0.,-1.));
#94=DIRECTION('ref_axis',(0.,-1.,0.));
#95=DIRECTION('center_axis',(0.,0.,1.));
#96=DIRECTION('ref_axis',(0.,-1.,0.));
#97=DIRECTION('center_axis',(0.,0.,-1.));
#98=DIRECTION('ref_axis',(0.,1.,0.));
#99=DIRECTION('center_axis',(0.,0.,1.));
#100=DIRECTION('ref_axis',(0.,-1.,0.));
#101=DIRECTION('center_axis',(0.,0.,-1.));
#102=DIRECTION('ref_axis',(-1.,0.,0.));
#103=DIRECTION('center_axis',(0.,0.,-1.));
#104=DIRECTION('ref_axis',(0.,-1.,0.));
#105=DIRECTION('center_axis',(0.,0.,-1.));
#106=DIRECTION('ref_axis',(0.,-1.,0.));
#107=DIRECTION('center_axis',(0.,0.,1.));
#108=DIRECTION('ref_axis',(1.,0.,0.));
#109=DIRECTION('center_axis',(1.,0.,0.));
#110=DIRECTION('ref_axis',(0.,0.,1.));
#111=CARTESIAN_POINT('',(0.,0.,0.));
#112=CARTESIAN_POINT('Origin',(0.,0.,-18.5));
#113=CARTESIAN_POINT('',(3.67381906146713E-16,3.,-18.));
#114=CARTESIAN_POINT('Origin',(0.,0.,-18.));
#115=CARTESIAN_POINT('',(-2.44921270764476E-16,2.,-19.));
#116=CARTESIAN_POINT('Origin',(0.,0.,-19.));
#117=CARTESIAN_POINT('Origin',(0.,0.,-14.));
#118=CARTESIAN_POINT('',(-3.67381906146713E-16,3.,-1.));
#119=CARTESIAN_POINT('Origin',(0.,0.,-1.));
#120=CARTESIAN_POINT('',(3.,0.,-7.5));
#121=CARTESIAN_POINT('',(3.,0.,-1.5));
#122=CARTESIAN_POINT('Ctrl Pts',(3.,6.93889390390723E-17,-7.5));
#123=CARTESIAN_POINT('Ctrl Pts',(3.,-0.159428497874736,-7.5));
#124=CARTESIAN_POINT('Ctrl Pts',(2.98623938040196,-0.329790567800089,-7.47266527883904));
#125=CARTESIAN_POINT('Ctrl Pts',(2.93316949059377,-0.650310762663814,-7.3650399864211));
#126=CARTESIAN_POINT('Ctrl Pts',(2.89425039099578,-0.800698945854499,-7.2852432047771));
#127=CARTESIAN_POINT('Ctrl Pts',(2.75902396358048,-1.21661442761567,-6.99925231440914));
#128=CARTESIAN_POINT('Ctrl Pts',(2.61725884820991,-1.4805028021205,-6.68279671472227));
#129=CARTESIAN_POINT('Ctrl Pts',(2.40575364902669,-1.80126306305298,-6.1201358937286));
#130=CARTESIAN_POINT('Ctrl Pts',(2.30465232268267,-1.92357344740932,-5.81086904978387));
#131=CARTESIAN_POINT('Ctrl Pts',(2.16105766868437,-2.08359940548936,-5.16020463073143));
#132=CARTESIAN_POINT('Ctrl Pts',(2.12132034355964,-2.12132034355964,-4.81820321325526));
#133=CARTESIAN_POINT('Ctrl Pts',(2.12132034355964,-2.12132034355964,-4.18179678674474));
#134=CARTESIAN_POINT('Ctrl Pts',(2.16105766868437,-2.08359940548936,-3.83979536926858));
#135=CARTESIAN_POINT('Ctrl Pts',(2.30465232268266,-1.92357344740932,-3.18913095021613));
#136=CARTESIAN_POINT('Ctrl Pts',(2.40575364902669,-1.80126306305298,-2.87986410627141));
#137=CARTESIAN_POINT('Ctrl Pts',(2.61725884820991,-1.4805028021205,-2.31720328527773));
#138=CARTESIAN_POINT('Ctrl Pts',(2.75902396358048,-1.21661442761567,-2.00074768559086));
#139=CARTESIAN_POINT('Ctrl Pts',(2.89425039099578,-0.8006989458545,-1.7147567952229));
#140=CARTESIAN_POINT('Ctrl Pts',(2.93316949059377,-0.650310762663815,-1.6349600135789));
#141=CARTESIAN_POINT('Ctrl Pts',(2.98623938040196,-0.32979056780009,-1.52733472116096));
#142=CARTESIAN_POINT('Ctrl Pts',(3.,-0.159428497874736,-1.5));
#143=CARTESIAN_POINT('Ctrl Pts',(3.,3.46944695195361E-17,-1.5));
#144=CARTESIAN_POINT('Ctrl Pts',(3.,3.46944695195361E-17,-1.5));
#145=CARTESIAN_POINT('Ctrl Pts',(3.,0.159428497874736,-1.5));
#146=CARTESIAN_POINT('Ctrl Pts',(2.98623938040196,0.329790567800088,-1.52733472116096));
#147=CARTESIAN_POINT('Ctrl Pts',(2.93316949059377,0.650310762663813,-1.6349600135789));
#148=CARTESIAN_POINT('Ctrl Pts',(2.89425039099578,0.800698945854499,-1.7147567952229));
#149=CARTESIAN_POINT('Ctrl Pts',(2.75902396358048,1.21661442761567,-2.00074768559086));
#150=CARTESIAN_POINT('Ctrl Pts',(2.61725884820991,1.4805028021205,-2.31720328527773));
#151=CARTESIAN_POINT('Ctrl Pts',(2.40575364902669,1.80126306305298,-2.87986410627141));
#152=CARTESIAN_POINT('Ctrl Pts',(2.30465232268266,1.92357344740932,-3.18913095021613));
#153=CARTESIAN_POINT('Ctrl Pts',(2.16105766868437,2.08359940548936,-3.83979536926857));
#154=CARTESIAN_POINT('Ctrl Pts',(2.12132034355964,2.12132034355964,-4.18179678674474));
#155=CARTESIAN_POINT('Ctrl Pts',(2.12132034355964,2.12132034355964,-4.5));
#156=CARTESIAN_POINT('Ctrl Pts',(2.12132034355964,2.12132034355964,-4.81820321325526));
#157=CARTESIAN_POINT('Ctrl Pts',(2.16105766868437,2.08359940548936,-5.16020463073143));
#158=CARTESIAN_POINT('Ctrl Pts',(2.30465232268267,1.92357344740932,-5.81086904978387));
#159=CARTESIAN_POINT('Ctrl Pts',(2.40575364902669,1.80126306305298,-6.12013589372859));
#160=CARTESIAN_POINT('Ctrl Pts',(2.61725884820991,1.4805028021205,-6.68279671472227));
#161=CARTESIAN_POINT('Ctrl Pts',(2.75902396358048,1.21661442761567,-6.99925231440914));
#162=CARTESIAN_POINT('Ctrl Pts',(2.89425039099578,0.8006989458545,-7.2852432047771));
#163=CARTESIAN_POINT('Ctrl Pts',(2.93316949059377,0.650310762663815,-7.3650399864211));
#164=CARTESIAN_POINT('Ctrl Pts',(2.98623938040196,0.32979056780009,-7.47266527883904));
#165=CARTESIAN_POINT('Ctrl Pts',(3.,0.159428497874737,-7.5));
#166=CARTESIAN_POINT('Ctrl Pts',(3.,1.38777878078145E-16,-7.5));
#167=CARTESIAN_POINT('Origin',(0.,1.5,-19.));
#168=CARTESIAN_POINT('Origin',(0.,0.,-0.5));
#169=CARTESIAN_POINT('',(2.44921270764475E-16,2.,0.));
#170=CARTESIAN_POINT('Origin',(0.,0.,0.));
#171=CARTESIAN_POINT('Origin',(0.,1.5,0.));
#172=CARTESIAN_POINT('Origin',(1.5,0.,-4.5));
#173=UNCERTAINTY_MEASURE_WITH_UNIT(LENGTH_MEASURE(0.01),#177,
'DISTANCE_ACCURACY_VALUE',
'Maximum model space distance between geometric entities at asserted c
onnectivities');
#174=UNCERTAINTY_MEASURE_WITH_UNIT(LENGTH_MEASURE(1.E-6),#177,
'DISTANCE_ACCURACY_VALUE',
'Maximum model space distance between geometric entities at asserted c
onnectivities');
#175=(
GEOMETRIC_REPRESENTATION_CONTEXT(3)
GLOBAL_UNCERTAINTY_ASSIGNED_CONTEXT((#173))
GLOBAL_UNIT_ASSIGNED_CONTEXT((#177,#180,#178))
REPRESENTATION_CONTEXT('','3D')
);
#176=(
GEOMETRIC_REPRESENTATION_CONTEXT(3)
GLOBAL_UNCERTAINTY_ASSIGNED_CONTEXT((#174))
GLOBAL_UNIT_ASSIGNED_CONTEXT((#177,#180,#178))
REPRESENTATION_CONTEXT('','3D')
);
#177=(
LENGTH_UNIT()
NAMED_UNIT(*)
SI_UNIT(.MILLI.,.METRE.)
);
#178=(
NAMED_UNIT(*)
SI_UNIT($,.STERADIAN.)
SOLID_ANGLE_UNIT()
);
#179=DIMENSIONAL_EXPONENTS(0.,0.,0.,0.,0.,0.,0.);
#180=(
CONVERSION_BASED_UNIT('degree',#182)
NAMED_UNIT(#179)
PLANE_ANGLE_UNIT()
);
#181=(
NAMED_UNIT(*)
PLANE_ANGLE_UNIT()
SI_UNIT($,.RADIAN.)
);
#182=PLANE_ANGLE_MEASURE_WITH_UNIT(PLANE_ANGLE_MEASURE(0.01745329252),#181);
#183=SHAPE_DEFINITION_REPRESENTATION(#184,#185);
#184=PRODUCT_DEFINITION_SHAPE('',$,#187);
#185=SHAPE_REPRESENTATION('',(#78),#175);
#186=PRODUCT_DEFINITION_CONTEXT('part definition',#191,'design');
#187=PRODUCT_DEFINITION('SV7107V_A','SV7107V_A',#188,#186);
#188=PRODUCT_DEFINITION_FORMATION('',$,#193);
#189=PRODUCT_RELATED_PRODUCT_CATEGORY('SV7107V_A','SV7107V_A',(#193));
#190=APPLICATION_PROTOCOL_DEFINITION('international standard',
'automotive_design',2009,#191);
#191=APPLICATION_CONTEXT(
'Core Data for Automotive Mechanical Design Process');
#192=PRODUCT_CONTEXT('part definition',#191,'mechanical');
#193=PRODUCT('SV7107V_A','SV7107V_A',$,(#192));
#194=PRESENTATION_STYLE_ASSIGNMENT((#195));
#195=SURFACE_STYLE_USAGE(.BOTH.,#196);
#196=SURFACE_SIDE_STYLE($,(#197));
#197=SURFACE_STYLE_FILL_AREA(#198);
#198=FILL_AREA_STYLE($,(#199));
#199=FILL_AREA_STYLE_COLOUR($,#200);
#200=COLOUR_RGB('',0.63921568627451,0.63921568627451,0.686274509803922);
ENDSEC;
END-ISO-10303-21;
