ISO-10303-21;
HEADER;
/****************************************************************
 * Generated by software with PDElib inside                    *
 * PDElib Version v51a, created Wed 07/06/2011                  *
 * ITI Transcendata (http://www.transcendata.com/)              *
 ****************************************************************/
FILE_DESCRIPTION((''),'2;1');
FILE_NAME('Q:\\ExterneArtikel_Webseite_Palkat\\SZ\\SZ5600S.stp','2013-01-02T14:16:46',('marina kaa'),(''),'Autodesk Inventor 2012','Autodesk Inventor 2012','');
FILE_SCHEMA(('AUTOMOTIVE_DESIGN { 1 0 10303 214 1 1 1 1 }'));
ENDSEC;
DATA;
#5=APPLICATION_CONTEXT('automotive design');
#6=APPLICATION_PROTOCOL_DEFINITION('International Standard','automotive_design',2001,#5);
#7=PRODUCT_CONTEXT('',#5,'mechanical');
#8=PRODUCT('SZ5600S_A','SZ5600S_A',$,(#7));
#9=PRODUCT_RELATED_PRODUCT_CATEGORY('part',$,(#8));
#10=PRODUCT_DEFINITION_FORMATION('',$,#8);
#11=PRODUCT_DEFINITION_CONTEXT('part definition',#5,'design');
#12=PRODUCT_DEFINITION('',$,#10,#11);
#18=(NAMED_UNIT(*)PLANE_ANGLE_UNIT()SI_UNIT($,.RADIAN.));
#19=DIMENSIONAL_EXPONENTS(0.0,0.0,0.0,0.0,0.0,0.0,0.0);
#20=PLANE_ANGLE_MEASURE_WITH_UNIT(PLANE_ANGLE_MEASURE(0.0174532925),#18);
#24=(CONVERSION_BASED_UNIT('DEGREE',#20)NAMED_UNIT(#19)PLANE_ANGLE_UNIT());
#28=(NAMED_UNIT(*)SI_UNIT($,.STERADIAN.)SOLID_ANGLE_UNIT());
#32=(LENGTH_UNIT()NAMED_UNIT(*)SI_UNIT(.MILLI.,.METRE.));
#34=UNCERTAINTY_MEASURE_WITH_UNIT(LENGTH_MEASURE(0.01),#32,'DISTANCE_ACCURACY_VALUE','');
#36=(GEOMETRIC_REPRESENTATION_CONTEXT(3)GLOBAL_UNCERTAINTY_ASSIGNED_CONTEXT((#34))GLOBAL_UNIT_ASSIGNED_CONTEXT((#24,#28,#32))REPRESENTATION_CONTEXT('None','None'));
#37=AXIS2_PLACEMENT_3D('',#38,#39,#40);
#38=CARTESIAN_POINT('',(0.0,0.0,0.0));
#39=DIRECTION('',(0.0,0.0,1.0));
#40=DIRECTION('',(1.0,0.0,0.0));
#41=SHAPE_REPRESENTATION('',(#37),#36);
#42=PRODUCT_DEFINITION_SHAPE('','',#12);
#43=SHAPE_DEFINITION_REPRESENTATION(#42,#41);
#49=(NAMED_UNIT(*)PLANE_ANGLE_UNIT()SI_UNIT($,.RADIAN.));
#50=DIMENSIONAL_EXPONENTS(0.0,0.0,0.0,0.0,0.0,0.0,0.0);
#51=PLANE_ANGLE_MEASURE_WITH_UNIT(PLANE_ANGLE_MEASURE(0.0174532925),#49);
#55=(CONVERSION_BASED_UNIT('DEGREE',#51)NAMED_UNIT(#50)PLANE_ANGLE_UNIT());
#59=(NAMED_UNIT(*)SI_UNIT($,.STERADIAN.)SOLID_ANGLE_UNIT());
#63=(LENGTH_UNIT()NAMED_UNIT(*)SI_UNIT(.MILLI.,.METRE.));
#65=UNCERTAINTY_MEASURE_WITH_UNIT(LENGTH_MEASURE(0.000001),#63,'DISTANCE_ACCURACY_VALUE','');
#67=(GEOMETRIC_REPRESENTATION_CONTEXT(3)GLOBAL_UNCERTAINTY_ASSIGNED_CONTEXT((#65))GLOBAL_UNIT_ASSIGNED_CONTEXT((#55,#59,#63))REPRESENTATION_CONTEXT('','3D'));
#68=CARTESIAN_POINT('',(12.5,19.75,28.5));
#69=DIRECTION('',(0.0,-1.0,0.0));
#70=DIRECTION('',(0.707106781186547,0.0,-0.707106781186547));
#71=AXIS2_PLACEMENT_3D('',#68,#69,#70);
#72=CYLINDRICAL_SURFACE('',#71,2.5);
#73=CARTESIAN_POINT('',(15.0,12.847665157529597,28.5));
#74=VERTEX_POINT('',#73);
#75=CARTESIAN_POINT('',(12.5,15.290928683373028,26.0));
#76=VERTEX_POINT('',#75);
#77=CARTESIAN_POINT('',(15.0,12.847665157529597,28.5));
#78=CARTESIAN_POINT('',(15.0,12.847665157529597,28.341489234693292));
#79=CARTESIAN_POINT('',(14.984700700558857,12.865587943501053,28.181700940457425));
#80=CARTESIAN_POINT('',(14.924718542311822,12.93512213498704,27.870880093228788));
#81=CARTESIAN_POINT('',(14.880068702365534,12.986660464762345,27.719824825966988));
#82=CARTESIAN_POINT('',(14.71075505763794,13.178974323760421,27.293283619906092));
#83=CARTESIAN_POINT('',(14.54906245825001,13.358509332989541,27.044414732414438));
#84=CARTESIAN_POINT('',(14.140936960358177,13.791868575871984,26.580129237551343));
#85=CARTESIAN_POINT('',(13.844588977961932,14.09216223425004,26.362470237031765));
#86=CARTESIAN_POINT('',(13.193892892069259,14.703158534305306,26.071941995160664));
#87=CARTESIAN_POINT('',(12.839043643234637,15.01376791516924,26.0));
#88=CARTESIAN_POINT('',(12.5,15.290928683373028,26.0));
#89=B_SPLINE_CURVE_WITH_KNOTS('',3,(#77,#78,#79,#80,#81,#82,#83,#84,#85,#86,#87,#88),.UNSPECIFIED.,.F.,.U.,(4,2,2,2,2,4),(0.0,0.047553229592012,0.095106459184023,0.190212918368047,0.321587122496641,0.452961326625236),.UNSPECIFIED.);
#90=EDGE_CURVE('',#74,#76,#89,.T.);
#91=ORIENTED_EDGE('',*,*,#90,.T.);
#92=CARTESIAN_POINT('',(12.5,-15.290928683373028,26.0));
#93=VERTEX_POINT('',#92);
#94=CARTESIAN_POINT('',(12.5,15.290928683373028,26.0));
#95=DIRECTION('',(0.0,-1.0,0.0));
#96=VECTOR('',#95,30.58185736674606);
#97=LINE('',#94,#96);
#98=EDGE_CURVE('',#76,#93,#97,.T.);
#99=ORIENTED_EDGE('',*,*,#98,.T.);
#100=CARTESIAN_POINT('',(15.0,-12.847665157529597,28.5));
#101=VERTEX_POINT('',#100);
#102=CARTESIAN_POINT('',(12.5,-15.290928683373028,26.0));
#103=CARTESIAN_POINT('',(12.839043643234637,-15.013767915169243,26.0));
#104=CARTESIAN_POINT('',(13.193892892069259,-14.703158534305302,26.071941995160671));
#105=CARTESIAN_POINT('',(13.844588977961934,-14.092162234250036,26.362470237031769));
#106=CARTESIAN_POINT('',(14.140936960358177,-13.791868575871982,26.580129237551343));
#107=CARTESIAN_POINT('',(14.549062458250013,-13.358509332989543,27.044414732414445));
#108=CARTESIAN_POINT('',(14.710755057637941,-13.178974323760425,27.293283619906092));
#109=CARTESIAN_POINT('',(14.880068702365534,-12.986660464762348,27.719824825966988));
#110=CARTESIAN_POINT('',(14.924718542311822,-12.93512213498704,27.870880093228788));
#111=CARTESIAN_POINT('',(14.984700700558857,-12.865587943501053,28.181700940457425));
#112=CARTESIAN_POINT('',(15.0,-12.847665157529597,28.341489234693292));
#113=CARTESIAN_POINT('',(15.0,-12.847665157529597,28.5));
#114=B_SPLINE_CURVE_WITH_KNOTS('',3,(#102,#103,#104,#105,#106,#107,#108,#109,#110,#111,#112,#113),.UNSPECIFIED.,.F.,.U.,(4,2,2,2,2,4),(-0.452961326625236,-0.321587122496641,-0.190212918368047,-0.095106459184024,-0.047553229592012,0.0),.UNSPECIFIED.);
#115=EDGE_CURVE('',#93,#101,#114,.T.);
#116=ORIENTED_EDGE('',*,*,#115,.T.);
#117=CARTESIAN_POINT('',(15.0,-12.847665157529597,28.5));
#118=DIRECTION('',(0.0,1.0,0.0));
#119=VECTOR('',#118,25.695330315059195);
#120=LINE('',#117,#119);
#121=EDGE_CURVE('',#101,#74,#120,.T.);
#122=ORIENTED_EDGE('',*,*,#121,.T.);
#123=EDGE_LOOP('',(#91,#99,#116,#122));
#124=FACE_OUTER_BOUND('',#123,.T.);
#125=ADVANCED_FACE('',(#124),#72,.F.);
#126=CARTESIAN_POINT('',(15.0,19.75,26.0));
#127=DIRECTION('',(0.0,0.0,-1.0));
#128=DIRECTION('',(-1.0,0.0,0.0));
#129=AXIS2_PLACEMENT_3D('',#126,#127,#128);
#130=PLANE('',#129);
#131=ORIENTED_EDGE('',*,*,#98,.F.);
#132=CARTESIAN_POINT('',(-12.5,15.290928683373028,26.0));
#133=VERTEX_POINT('',#132);
#134=CARTESIAN_POINT('',(0.0,0.0,26.0));
#135=DIRECTION('',(0.0,0.0,-1.0));
#136=DIRECTION('',(-1.0,0.0,0.0));
#137=AXIS2_PLACEMENT_3D('',#134,#135,#136);
#138=CIRCLE('',#137,19.75);
#139=EDGE_CURVE('',#133,#76,#138,.T.);
#140=ORIENTED_EDGE('',*,*,#139,.F.);
#141=CARTESIAN_POINT('',(-12.5,-15.290928683373028,26.0));
#142=VERTEX_POINT('',#141);
#143=CARTESIAN_POINT('',(-12.5,-15.290928683373032,26.0));
#144=DIRECTION('',(0.0,1.0,0.0));
#145=VECTOR('',#144,30.58185736674606);
#146=LINE('',#143,#145);
#147=EDGE_CURVE('',#142,#133,#146,.T.);
#148=ORIENTED_EDGE('',*,*,#147,.F.);
#149=CARTESIAN_POINT('',(0.0,0.0,26.0));
#150=DIRECTION('',(0.0,0.0,-1.0));
#151=DIRECTION('',(-1.0,0.0,0.0));
#152=AXIS2_PLACEMENT_3D('',#149,#150,#151);
#153=CIRCLE('',#152,19.75);
#154=EDGE_CURVE('',#93,#142,#153,.T.);
#155=ORIENTED_EDGE('',*,*,#154,.F.);
#156=EDGE_LOOP('',(#131,#140,#148,#155));
#157=FACE_OUTER_BOUND('',#156,.T.);
#158=CARTESIAN_POINT('',(4.1,5.021052E-016,26.0));
#159=VERTEX_POINT('',#158);
#160=CARTESIAN_POINT('',(0.0,0.0,26.0));
#161=DIRECTION('',(0.0,0.0,1.0));
#162=DIRECTION('',(-1.0,0.0,0.0));
#163=AXIS2_PLACEMENT_3D('',#160,#161,#162);
#164=CIRCLE('',#163,4.1);
#165=EDGE_CURVE('',#159,#159,#164,.T.);
#166=ORIENTED_EDGE('',*,*,#165,.F.);
#167=EDGE_LOOP('',(#166));
#168=FACE_BOUND('',#167,.T.);
#169=ADVANCED_FACE('',(#157,#168),#130,.F.);
#170=CARTESIAN_POINT('',(-12.5,19.75,28.5));
#171=DIRECTION('',(0.0,-1.0,0.0));
#172=DIRECTION('',(-0.707106781186547,0.0,-0.707106781186547));
#173=AXIS2_PLACEMENT_3D('',#170,#171,#172);
#174=CYLINDRICAL_SURFACE('',#173,2.5);
#175=CARTESIAN_POINT('',(-15.0,12.847665157529597,28.5));
#176=VERTEX_POINT('',#175);
#177=CARTESIAN_POINT('',(-12.5,15.290928683373028,26.0));
#178=CARTESIAN_POINT('',(-12.839043643234636,15.013767915169243,26.0));
#179=CARTESIAN_POINT('',(-13.193892892069258,14.703158534305308,26.071941995160664));
#180=CARTESIAN_POINT('',(-13.844588977961932,14.09216223425004,26.362470237031765));
#181=CARTESIAN_POINT('',(-14.140936960358177,13.791868575871984,26.580129237551343));
#182=CARTESIAN_POINT('',(-14.54906245825001,13.358509332989541,27.044414732414438));
#183=CARTESIAN_POINT('',(-14.710755057637941,13.17897432376042,27.293283619906092));
#184=CARTESIAN_POINT('',(-14.880068702365534,12.986660464762343,27.719824825966985));
#185=CARTESIAN_POINT('',(-14.924718542311822,12.935122134987044,27.870880093228788));
#186=CARTESIAN_POINT('',(-14.984700700558857,12.865587943501055,28.181700940457425));
#187=CARTESIAN_POINT('',(-15.0,12.847665157529597,28.341489234693292));
#188=CARTESIAN_POINT('',(-15.0,12.847665157529597,28.5));
#189=B_SPLINE_CURVE_WITH_KNOTS('',3,(#177,#178,#179,#180,#181,#182,#183,#184,#185,#186,#187,#188),.UNSPECIFIED.,.F.,.U.,(4,2,2,2,2,4),(0.420862996160496,0.552237200289091,0.683611404417685,0.778717863601708,0.82627109319372,0.873824322785732),.UNSPECIFIED.);
#190=EDGE_CURVE('',#133,#176,#189,.T.);
#191=ORIENTED_EDGE('',*,*,#190,.T.);
#192=CARTESIAN_POINT('',(-15.0,-12.847665157529597,28.5));
#193=VERTEX_POINT('',#192);
#194=CARTESIAN_POINT('',(-15.0,12.847665157529597,28.5));
#195=DIRECTION('',(0.0,-1.0,0.0));
#196=VECTOR('',#195,25.695330315059195);
#197=LINE('',#194,#196);
#198=EDGE_CURVE('',#176,#193,#197,.T.);
#199=ORIENTED_EDGE('',*,*,#198,.T.);
#200=CARTESIAN_POINT('',(-15.0,-12.847665157529597,28.500000000000007));
#201=CARTESIAN_POINT('',(-15.0,-12.847665157529597,28.341489234693299));
#202=CARTESIAN_POINT('',(-14.984700700558859,-12.865587943501053,28.181700940457439));
#203=CARTESIAN_POINT('',(-14.924718542311822,-12.93512213498704,27.870880093228795));
#204=CARTESIAN_POINT('',(-14.880068702365534,-12.986660464762343,27.719824825966988));
#205=CARTESIAN_POINT('',(-14.71075505763794,-13.17897432376042,27.293283619906092));
#206=CARTESIAN_POINT('',(-14.54906245825001,-13.358509332989541,27.044414732414438));
#207=CARTESIAN_POINT('',(-14.140936960358177,-13.791868575871982,26.580129237551343));
#208=CARTESIAN_POINT('',(-13.844588977961934,-14.092162234250036,26.362470237031769));
#209=CARTESIAN_POINT('',(-13.193892892069259,-14.703158534305302,26.071941995160671));
#210=CARTESIAN_POINT('',(-12.839043643234637,-15.013767915169243,26.0));
#211=CARTESIAN_POINT('',(-12.5,-15.290928683373028,26.0));
#212=B_SPLINE_CURVE_WITH_KNOTS('',3,(#200,#201,#202,#203,#204,#205,#206,#207,#208,#209,#210,#211),.UNSPECIFIED.,.F.,.U.,(4,2,2,2,2,4),(0.873824322785732,0.921377552377744,0.968930781969755,1.064037241153779,1.195411445282373,1.326785649410968),.UNSPECIFIED.);
#213=EDGE_CURVE('',#193,#142,#212,.T.);
#214=ORIENTED_EDGE('',*,*,#213,.T.);
#215=ORIENTED_EDGE('',*,*,#147,.T.);
#216=EDGE_LOOP('',(#191,#199,#214,#215));
#217=FACE_OUTER_BOUND('',#216,.T.);
#218=ADVANCED_FACE('',(#217),#174,.F.);
#219=CARTESIAN_POINT('',(-15.0,19.75,26.0));
#220=DIRECTION('',(-1.0,0.0,0.0));
#221=DIRECTION('',(0.0,0.0,1.0));
#222=AXIS2_PLACEMENT_3D('',#219,#220,#221);
#223=PLANE('',#222);
#224=ORIENTED_EDGE('',*,*,#198,.F.);
#225=CARTESIAN_POINT('',(-15.0,12.847665157529597,36.5));
#226=VERTEX_POINT('',#225);
#227=CARTESIAN_POINT('',(-15.0,12.847665157529597,36.5));
#228=DIRECTION('',(0.0,0.0,-1.0));
#229=VECTOR('',#228,8.0);
#230=LINE('',#227,#229);
#231=EDGE_CURVE('',#226,#176,#230,.T.);
#232=ORIENTED_EDGE('',*,*,#231,.F.);
#233=CARTESIAN_POINT('',(-15.0,-12.847665157529597,36.5));
#234=VERTEX_POINT('',#233);
#235=CARTESIAN_POINT('',(-15.0,-12.847665157529597,36.5));
#236=DIRECTION('',(0.0,1.0,0.0));
#237=VECTOR('',#236,25.695330315059195);
#238=LINE('',#235,#237);
#239=EDGE_CURVE('',#234,#226,#238,.T.);
#240=ORIENTED_EDGE('',*,*,#239,.F.);
#241=CARTESIAN_POINT('',(-15.0,-12.847665157529597,28.5));
#242=DIRECTION('',(0.0,0.0,1.0));
#243=VECTOR('',#242,8.0);
#244=LINE('',#241,#243);
#245=EDGE_CURVE('',#193,#234,#244,.T.);
#246=ORIENTED_EDGE('',*,*,#245,.F.);
#247=EDGE_LOOP('',(#224,#232,#240,#246));
#248=FACE_OUTER_BOUND('',#247,.T.);
#249=ADVANCED_FACE('',(#248),#223,.F.);
#250=CARTESIAN_POINT('',(-12.5,19.75,36.5));
#251=DIRECTION('',(0.0,-1.0,0.0));
#252=DIRECTION('',(-0.707106781186547,0.0,0.707106781186547));
#253=AXIS2_PLACEMENT_3D('',#250,#251,#252);
#254=CYLINDRICAL_SURFACE('',#253,2.5);
#255=CARTESIAN_POINT('',(-12.5,15.290928683373028,39.0));
#256=VERTEX_POINT('',#255);
#257=CARTESIAN_POINT('',(-15.0,12.847665157529597,36.5));
#258=CARTESIAN_POINT('',(-15.0,12.847665157529597,36.658510765306708));
#259=CARTESIAN_POINT('',(-14.984700700558857,12.865587943501053,36.818299059542582));
#260=CARTESIAN_POINT('',(-14.924718542311822,12.93512213498704,37.129119906771223));
#261=CARTESIAN_POINT('',(-14.880068702365534,12.986660464762348,37.280175174033012));
#262=CARTESIAN_POINT('',(-14.710755057637941,13.178974323760421,37.706716380093908));
#263=CARTESIAN_POINT('',(-14.54906245825001,13.358509332989543,37.955585267585562));
#264=CARTESIAN_POINT('',(-14.140936960358177,13.791868575871982,38.419870762448653));
#265=CARTESIAN_POINT('',(-13.844588977961934,14.092162234250036,38.637529762968235));
#266=CARTESIAN_POINT('',(-13.193892892069261,14.703158534305299,38.928058004839336));
#267=CARTESIAN_POINT('',(-12.839043643234639,15.013767915169238,39.0));
#268=CARTESIAN_POINT('',(-12.500000000000004,15.290928683373025,39.0));
#269=B_SPLINE_CURVE_WITH_KNOTS('',3,(#257,#258,#259,#260,#261,#262,#263,#264,#265,#266,#267,#268),.UNSPECIFIED.,.F.,.U.,(4,2,2,2,2,4),(0.873824322785732,0.921377552377743,0.968930781969755,1.064037241153778,1.195411445282372,1.326785649410966),.UNSPECIFIED.);
#270=EDGE_CURVE('',#226,#256,#269,.T.);
#271=ORIENTED_EDGE('',*,*,#270,.T.);
#272=CARTESIAN_POINT('',(-12.5,-15.290928683373028,39.0));
#273=VERTEX_POINT('',#272);
#274=CARTESIAN_POINT('',(-12.5,15.290928683373028,39.0));
#275=DIRECTION('',(0.0,-1.0,0.0));
#276=VECTOR('',#275,30.58185736674606);
#277=LINE('',#274,#276);
#278=EDGE_CURVE('',#256,#273,#277,.T.);
#279=ORIENTED_EDGE('',*,*,#278,.T.);
#280=CARTESIAN_POINT('',(-12.500000000000004,-15.290928683373025,39.0));
#281=CARTESIAN_POINT('',(-12.839043643234639,-15.013767915169238,39.0));
#282=CARTESIAN_POINT('',(-13.193892892069261,-14.703158534305299,38.928058004839336));
#283=CARTESIAN_POINT('',(-13.844588977961934,-14.092162234250036,38.637529762968235));
#284=CARTESIAN_POINT('',(-14.140936960358177,-13.791868575871982,38.419870762448653));
#285=CARTESIAN_POINT('',(-14.54906245825001,-13.358509332989543,37.955585267585555));
#286=CARTESIAN_POINT('',(-14.710755057637941,-13.178974323760421,37.706716380093908));
#287=CARTESIAN_POINT('',(-14.880068702365536,-12.986660464762343,37.280175174033012));
#288=CARTESIAN_POINT('',(-14.924718542311822,-12.935122134987038,37.129119906771216));
#289=CARTESIAN_POINT('',(-14.984700700558857,-12.865587943501051,36.818299059542575));
#290=CARTESIAN_POINT('',(-15.0,-12.847665157529597,36.658510765306708));
#291=CARTESIAN_POINT('',(-15.0,-12.847665157529597,36.5));
#292=B_SPLINE_CURVE_WITH_KNOTS('',3,(#280,#281,#282,#283,#284,#285,#286,#287,#288,#289,#290,#291),.UNSPECIFIED.,.F.,.U.,(4,2,2,2,2,4),(0.420862996160497,0.552237200289091,0.683611404417685,0.778717863601708,0.82627109319372,0.873824322785732),.UNSPECIFIED.);
#293=EDGE_CURVE('',#273,#234,#292,.T.);
#294=ORIENTED_EDGE('',*,*,#293,.T.);
#295=ORIENTED_EDGE('',*,*,#239,.T.);
#296=EDGE_LOOP('',(#271,#279,#294,#295));
#297=FACE_OUTER_BOUND('',#296,.T.);
#298=ADVANCED_FACE('',(#297),#254,.F.);
#299=CARTESIAN_POINT('',(-15.0,19.75,39.0));
#300=DIRECTION('',(0.0,0.0,1.0));
#301=DIRECTION('',(1.0,0.0,0.0));
#302=AXIS2_PLACEMENT_3D('',#299,#300,#301);
#303=PLANE('',#302);
#304=ORIENTED_EDGE('',*,*,#278,.F.);
#305=CARTESIAN_POINT('',(12.5,15.290928683373028,39.0));
#306=VERTEX_POINT('',#305);
#307=CARTESIAN_POINT('',(0.0,0.0,39.0));
#308=DIRECTION('',(0.0,0.0,1.0));
#309=DIRECTION('',(-1.0,0.0,0.0));
#310=AXIS2_PLACEMENT_3D('',#307,#308,#309);
#311=CIRCLE('',#310,19.75);
#312=EDGE_CURVE('',#306,#256,#311,.T.);
#313=ORIENTED_EDGE('',*,*,#312,.F.);
#314=CARTESIAN_POINT('',(12.5,-15.290928683373028,39.0));
#315=VERTEX_POINT('',#314);
#316=CARTESIAN_POINT('',(12.5,-15.290928683373032,39.0));
#317=DIRECTION('',(0.0,1.0,0.0));
#318=VECTOR('',#317,30.58185736674606);
#319=LINE('',#316,#318);
#320=EDGE_CURVE('',#315,#306,#319,.T.);
#321=ORIENTED_EDGE('',*,*,#320,.F.);
#322=CARTESIAN_POINT('',(0.0,0.0,39.0));
#323=DIRECTION('',(0.0,0.0,1.0));
#324=DIRECTION('',(-1.0,0.0,0.0));
#325=AXIS2_PLACEMENT_3D('',#322,#323,#324);
#326=CIRCLE('',#325,19.75);
#327=EDGE_CURVE('',#273,#315,#326,.T.);
#328=ORIENTED_EDGE('',*,*,#327,.F.);
#329=EDGE_LOOP('',(#304,#313,#321,#328));
#330=FACE_OUTER_BOUND('',#329,.T.);
#331=ADVANCED_FACE('',(#330),#303,.F.);
#332=CARTESIAN_POINT('',(12.5,19.75,36.5));
#333=DIRECTION('',(0.0,-1.0,0.0));
#334=DIRECTION('',(0.707106781186547,0.0,0.707106781186547));
#335=AXIS2_PLACEMENT_3D('',#332,#333,#334);
#336=CYLINDRICAL_SURFACE('',#335,2.5);
#337=CARTESIAN_POINT('',(15.0,12.847665157529597,36.5));
#338=VERTEX_POINT('',#337);
#339=CARTESIAN_POINT('',(12.5,15.290928683373028,39.0));
#340=CARTESIAN_POINT('',(12.839043643234637,15.013767915169243,39.0));
#341=CARTESIAN_POINT('',(13.193892892069259,14.703158534305301,38.928058004839336));
#342=CARTESIAN_POINT('',(13.844588977961934,14.092162234250035,38.637529762968235));
#343=CARTESIAN_POINT('',(14.140936960358177,13.791868575871982,38.419870762448653));
#344=CARTESIAN_POINT('',(14.54906245825001,13.358509332989543,37.955585267585555));
#345=CARTESIAN_POINT('',(14.710755057637936,13.178974323760427,37.706716380093916));
#346=CARTESIAN_POINT('',(14.880068702365531,12.98666046476235,37.280175174033026));
#347=CARTESIAN_POINT('',(14.924718542311821,12.935122134987044,37.129119906771216));
#348=CARTESIAN_POINT('',(14.984700700558859,12.865587943501055,36.818299059542568));
#349=CARTESIAN_POINT('',(15.0,12.847665157529597,36.658510765306708));
#350=CARTESIAN_POINT('',(15.0,12.847665157529597,36.5));
#351=B_SPLINE_CURVE_WITH_KNOTS('',3,(#339,#340,#341,#342,#343,#344,#345,#346,#347,#348,#349,#350),.UNSPECIFIED.,.F.,.U.,(4,2,2,2,2,4),(-0.452961326625235,-0.321587122496641,-0.190212918368047,-0.095106459184023,-0.047553229592012,0.0),.UNSPECIFIED.);
#352=EDGE_CURVE('',#306,#338,#351,.T.);
#353=ORIENTED_EDGE('',*,*,#352,.T.);
#354=CARTESIAN_POINT('',(15.0,-12.847665157529597,36.5));
#355=VERTEX_POINT('',#354);
#356=CARTESIAN_POINT('',(15.0,12.847665157529597,36.5));
#357=DIRECTION('',(0.0,-1.0,0.0));
#358=VECTOR('',#357,25.695330315059195);
#359=LINE('',#356,#358);
#360=EDGE_CURVE('',#338,#355,#359,.T.);
#361=ORIENTED_EDGE('',*,*,#360,.T.);
#362=CARTESIAN_POINT('',(15.0,-12.847665157529597,36.5));
#363=CARTESIAN_POINT('',(15.0,-12.847665157529597,36.658510765306708));
#364=CARTESIAN_POINT('',(14.984700700558859,-12.865587943501053,36.818299059542568));
#365=CARTESIAN_POINT('',(14.924718542311821,-12.93512213498704,37.129119906771216));
#366=CARTESIAN_POINT('',(14.880068702365534,-12.986660464762343,37.280175174033026));
#367=CARTESIAN_POINT('',(14.71075505763794,-13.17897432376042,37.706716380093916));
#368=CARTESIAN_POINT('',(14.54906245825001,-13.358509332989543,37.955585267585562));
#369=CARTESIAN_POINT('',(14.140936960358177,-13.791868575871984,38.419870762448653));
#370=CARTESIAN_POINT('',(13.844588977961932,-14.092162234250036,38.637529762968235));
#371=CARTESIAN_POINT('',(13.193892892069259,-14.703158534305301,38.928058004839336));
#372=CARTESIAN_POINT('',(12.839043643234637,-15.01376791516924,39.0));
#373=CARTESIAN_POINT('',(12.5,-15.290928683373028,39.0));
#374=B_SPLINE_CURVE_WITH_KNOTS('',3,(#362,#363,#364,#365,#366,#367,#368,#369,#370,#371,#372,#373),.UNSPECIFIED.,.F.,.U.,(4,2,2,2,2,4),(0.0,0.047553229592012,0.095106459184023,0.190212918368046,0.321587122496641,0.452961326625235),.UNSPECIFIED.);
#375=EDGE_CURVE('',#355,#315,#374,.T.);
#376=ORIENTED_EDGE('',*,*,#375,.T.);
#377=ORIENTED_EDGE('',*,*,#320,.T.);
#378=EDGE_LOOP('',(#353,#361,#376,#377));
#379=FACE_OUTER_BOUND('',#378,.T.);
#380=ADVANCED_FACE('',(#379),#336,.F.);
#381=CARTESIAN_POINT('',(15.0,19.75,39.0));
#382=DIRECTION('',(1.0,0.0,0.0));
#383=DIRECTION('',(0.0,0.0,-1.0));
#384=AXIS2_PLACEMENT_3D('',#381,#382,#383);
#385=PLANE('',#384);
#386=ORIENTED_EDGE('',*,*,#121,.F.);
#387=CARTESIAN_POINT('',(15.0,-12.847665157529597,36.5));
#388=DIRECTION('',(0.0,0.0,-1.0));
#389=VECTOR('',#388,8.0);
#390=LINE('',#387,#389);
#391=EDGE_CURVE('',#355,#101,#390,.T.);
#392=ORIENTED_EDGE('',*,*,#391,.F.);
#393=ORIENTED_EDGE('',*,*,#360,.F.);
#394=CARTESIAN_POINT('',(15.0,12.847665157529597,28.5));
#395=DIRECTION('',(0.0,0.0,1.0));
#396=VECTOR('',#395,8.0);
#397=LINE('',#394,#396);
#398=EDGE_CURVE('',#74,#338,#397,.T.);
#399=ORIENTED_EDGE('',*,*,#398,.F.);
#400=EDGE_LOOP('',(#386,#392,#393,#399));
#401=FACE_OUTER_BOUND('',#400,.T.);
#402=ADVANCED_FACE('',(#401),#385,.F.);
#403=CARTESIAN_POINT('',(0.0,0.0,0.5));
#404=DIRECTION('',(0.0,0.0,-1.0));
#405=DIRECTION('',(1.0,0.0,0.0));
#406=AXIS2_PLACEMENT_3D('',#403,#404,#405);
#407=CONICAL_SURFACE('',#406,4.6,44.999999999999986);
#408=CARTESIAN_POINT('',(-4.1,-5.021052E-016,1.000000000000001));
#409=VERTEX_POINT('',#408);
#410=CARTESIAN_POINT('',(0.0,0.0,1.000000000000001));
#411=DIRECTION('',(0.0,0.0,1.0));
#412=DIRECTION('',(1.0,0.0,0.0));
#413=AXIS2_PLACEMENT_3D('',#410,#411,#412);
#414=CIRCLE('',#413,4.1);
#415=EDGE_CURVE('',#409,#409,#414,.T.);
#416=ORIENTED_EDGE('',*,*,#415,.T.);
#417=EDGE_LOOP('',(#416));
#418=FACE_OUTER_BOUND('',#417,.T.);
#419=CARTESIAN_POINT('',(-5.1,6.245699E-016,0.0));
#420=VERTEX_POINT('',#419);
#421=CARTESIAN_POINT('',(0.0,0.0,0.0));
#422=DIRECTION('',(0.0,0.0,-1.0));
#423=DIRECTION('',(1.0,0.0,0.0));
#424=AXIS2_PLACEMENT_3D('',#421,#422,#423);
#425=CIRCLE('',#424,5.1);
#426=EDGE_CURVE('',#420,#420,#425,.T.);
#427=ORIENTED_EDGE('',*,*,#426,.T.);
#428=EDGE_LOOP('',(#427));
#429=FACE_BOUND('',#428,.T.);
#430=ADVANCED_FACE('',(#418,#429),#407,.F.);
#431=CARTESIAN_POINT('',(0.0,0.0,14.000000000000002));
#432=DIRECTION('',(0.0,0.0,-1.0));
#433=DIRECTION('',(-1.0,0.0,0.0));
#434=AXIS2_PLACEMENT_3D('',#431,#432,#433);
#435=CYLINDRICAL_SURFACE('',#434,4.1);
#436=ORIENTED_EDGE('',*,*,#165,.T.);
#437=EDGE_LOOP('',(#436));
#438=FACE_OUTER_BOUND('',#437,.T.);
#439=ORIENTED_EDGE('',*,*,#415,.F.);
#440=EDGE_LOOP('',(#439));
#441=FACE_BOUND('',#440,.T.);
#442=ADVANCED_FACE('',(#438,#441),#435,.F.);
#443=CARTESIAN_POINT('',(0.0,0.0,0.0));
#444=DIRECTION('',(0.0,0.0,-1.0));
#445=DIRECTION('',(-1.0,0.0,0.0));
#446=AXIS2_PLACEMENT_3D('',#443,#444,#445);
#447=PLANE('',#446);
#448=CARTESIAN_POINT('',(19.75,2.418677E-015,0.0));
#449=VERTEX_POINT('',#448);
#450=CARTESIAN_POINT('',(0.0,0.0,0.0));
#451=DIRECTION('',(0.0,0.0,-1.0));
#452=DIRECTION('',(-1.0,0.0,0.0));
#453=AXIS2_PLACEMENT_3D('',#450,#451,#452);
#454=CIRCLE('',#453,19.75);
#455=EDGE_CURVE('',#449,#449,#454,.T.);
#456=ORIENTED_EDGE('',*,*,#455,.T.);
#457=EDGE_LOOP('',(#456));
#458=FACE_OUTER_BOUND('',#457,.T.);
#459=ORIENTED_EDGE('',*,*,#426,.F.);
#460=EDGE_LOOP('',(#459));
#461=FACE_BOUND('',#460,.T.);
#462=ADVANCED_FACE('',(#458,#461),#447,.T.);
#463=CARTESIAN_POINT('',(0.0,0.0,40.500000000000007));
#464=DIRECTION('',(0.0,0.0,-1.0));
#465=DIRECTION('',(-1.0,0.0,0.0));
#466=AXIS2_PLACEMENT_3D('',#463,#464,#465);
#467=TOROIDAL_SURFACE('',#466,16.25,3.5);
#468=CARTESIAN_POINT('',(16.25,-1.990051E-015,44.0));
#469=VERTEX_POINT('',#468);
#470=CARTESIAN_POINT('',(0.0,0.0,44.0));
#471=DIRECTION('',(0.0,0.0,-1.0));
#472=DIRECTION('',(-1.0,0.0,0.0));
#473=AXIS2_PLACEMENT_3D('',#470,#471,#472);
#474=CIRCLE('',#473,16.25);
#475=EDGE_CURVE('',#469,#469,#474,.T.);
#476=ORIENTED_EDGE('',*,*,#475,.T.);
#477=EDGE_LOOP('',(#476));
#478=FACE_OUTER_BOUND('',#477,.T.);
#479=CARTESIAN_POINT('',(19.75,2.418677E-015,40.500000000000007));
#480=VERTEX_POINT('',#479);
#481=CARTESIAN_POINT('',(0.0,0.0,40.500000000000007));
#482=DIRECTION('',(0.0,0.0,1.0));
#483=DIRECTION('',(-1.0,0.0,0.0));
#484=AXIS2_PLACEMENT_3D('',#481,#482,#483);
#485=CIRCLE('',#484,19.75);
#486=EDGE_CURVE('',#480,#480,#485,.T.);
#487=ORIENTED_EDGE('',*,*,#486,.T.);
#488=EDGE_LOOP('',(#487));
#489=FACE_BOUND('',#488,.T.);
#490=ADVANCED_FACE('',(#478,#489),#467,.T.);
#491=CARTESIAN_POINT('',(0.0,0.0,0.0));
#492=DIRECTION('',(0.0,0.0,1.0));
#493=DIRECTION('',(-1.0,0.0,0.0));
#494=AXIS2_PLACEMENT_3D('',#491,#492,#493);
#495=CYLINDRICAL_SURFACE('',#494,19.75);
#496=ORIENTED_EDGE('',*,*,#455,.F.);
#497=EDGE_LOOP('',(#496));
#498=FACE_OUTER_BOUND('',#497,.T.);
#499=ORIENTED_EDGE('',*,*,#245,.T.);
#500=ORIENTED_EDGE('',*,*,#293,.F.);
#501=ORIENTED_EDGE('',*,*,#327,.T.);
#502=ORIENTED_EDGE('',*,*,#375,.F.);
#503=ORIENTED_EDGE('',*,*,#391,.T.);
#504=ORIENTED_EDGE('',*,*,#115,.F.);
#505=ORIENTED_EDGE('',*,*,#154,.T.);
#506=ORIENTED_EDGE('',*,*,#213,.F.);
#507=EDGE_LOOP('',(#499,#500,#501,#502,#503,#504,#505,#506));
#508=FACE_BOUND('',#507,.T.);
#509=ORIENTED_EDGE('',*,*,#312,.T.);
#510=ORIENTED_EDGE('',*,*,#270,.F.);
#511=ORIENTED_EDGE('',*,*,#231,.T.);
#512=ORIENTED_EDGE('',*,*,#190,.F.);
#513=ORIENTED_EDGE('',*,*,#139,.T.);
#514=ORIENTED_EDGE('',*,*,#90,.F.);
#515=ORIENTED_EDGE('',*,*,#398,.T.);
#516=ORIENTED_EDGE('',*,*,#352,.F.);
#517=EDGE_LOOP('',(#509,#510,#511,#512,#513,#514,#515,#516));
#518=FACE_BOUND('',#517,.T.);
#519=ORIENTED_EDGE('',*,*,#486,.F.);
#520=EDGE_LOOP('',(#519));
#521=FACE_BOUND('',#520,.T.);
#522=ADVANCED_FACE('',(#498,#508,#518,#521),#495,.T.);
#523=CARTESIAN_POINT('',(0.0,0.0,44.0));
#524=DIRECTION('',(0.0,0.0,-1.0));
#525=DIRECTION('',(-1.0,0.0,0.0));
#526=AXIS2_PLACEMENT_3D('',#523,#524,#525);
#527=PLANE('',#526);
#528=ORIENTED_EDGE('',*,*,#475,.F.);
#529=EDGE_LOOP('',(#528));
#530=FACE_OUTER_BOUND('',#529,.T.);
#531=ADVANCED_FACE('',(#530),#527,.F.);
#532=CLOSED_SHELL('',(#125,#169,#218,#249,#298,#331,#380,#402,#430,#442,#462,#490,#522,#531));
#533=MANIFOLD_SOLID_BREP('Volumenk\S\vrper1',#532);
#534=DRAUGHTING_PRE_DEFINED_COLOUR('black');
#535=FILL_AREA_STYLE_COLOUR('Schwarz',#534);
#536=FILL_AREA_STYLE('Schwarz',(#535));
#537=SURFACE_STYLE_FILL_AREA(#536);
#538=SURFACE_SIDE_STYLE('Schwarz',(#537));
#539=SURFACE_STYLE_USAGE(.BOTH.,#538);
#540=PRESENTATION_STYLE_ASSIGNMENT((#539));
#541=STYLED_ITEM('',(#540),#533);
#542=MECHANICAL_DESIGN_GEOMETRIC_PRESENTATION_REPRESENTATION('',(#541),#36);
#543=ADVANCED_BREP_SHAPE_REPRESENTATION('ABSR',(#533),#36);
#544=SHAPE_REPRESENTATION_RELATIONSHIP('SRR','None',#543,#41);
ENDSEC;
END-ISO-10303-21;
