ISO-10303-21;
HEADER;
/****************************************************************
 * Generated by software with PDE/Lib inside                    *
 * PDElib Version v51a, created Tue 12/06/2005                  *
 * International Technegroup Inc. (www.iti-oh.com)              *
 ****************************************************************/
FILE_DESCRIPTION((''),'2;1');
FILE_NAME('U:\\Paletti Norm\\Paletti Artikel f. Palkat\\STEP\\SP600_extern.ipt.step','2007-09-10T15:11:03',(''),(''),'Autodesk Inventor 11','Autodesk Inventor 11','');
FILE_SCHEMA(('AUTOMOTIVE_DESIGN { 1 0 10303 214 1 1 1 1 }'));
ENDSEC;
DATA;
#5=APPLICATION_CONTEXT('automotive design');
#6=APPLICATION_PROTOCOL_DEFINITION('International Standard','automotive_design',2001,#5);
#7=PRODUCT_CONTEXT('',#5,'mechanical');
#8=PRODUCT('SP600_extern','SP600_extern',$,(#7));
#9=PRODUCT_RELATED_PRODUCT_CATEGORY('part',$,(#8));
#10=PRODUCT_DEFINITION_FORMATION('',$,#8);
#11=PRODUCT_DEFINITION_CONTEXT('part definition',#5,'design');
#12=PRODUCT_DEFINITION('',$,#10,#11);
#18=(NAMED_UNIT(*)PLANE_ANGLE_UNIT()SI_UNIT($,.RADIAN.));
#19=DIMENSIONAL_EXPONENTS(0.0,0.0,0.0,0.0,0.0,0.0,0.0);
#20=PLANE_ANGLE_MEASURE_WITH_UNIT(PLANE_ANGLE_MEASURE(0.017453292500000),#18);
#24=(CONVERSION_BASED_UNIT('DEGREE',#20)NAMED_UNIT(#19)PLANE_ANGLE_UNIT());
#28=(NAMED_UNIT(*)SI_UNIT($,.STERADIAN.)SOLID_ANGLE_UNIT());
#32=(LENGTH_UNIT()NAMED_UNIT(*)SI_UNIT(.MILLI.,.METRE.));
#34=UNCERTAINTY_MEASURE_WITH_UNIT(LENGTH_MEASURE(0.010000000000000),#32,'DISTANCE_ACCURACY_VALUE','');
#36=(GEOMETRIC_REPRESENTATION_CONTEXT(3)GLOBAL_UNCERTAINTY_ASSIGNED_CONTEXT((#34))GLOBAL_UNIT_ASSIGNED_CONTEXT((#24,#28,#32))REPRESENTATION_CONTEXT('None','None'));
#37=AXIS2_PLACEMENT_3D('',#38,#39,#40);
#38=CARTESIAN_POINT('',(0.0,0.0,0.0));
#39=DIRECTION('',(0.0,0.0,1.0));
#40=DIRECTION('',(1.0,0.0,0.0));
#41=SHAPE_REPRESENTATION('',(#37),#36);
#42=PRODUCT_DEFINITION_SHAPE('','',#12);
#43=SHAPE_DEFINITION_REPRESENTATION(#42,#41);
#44=CARTESIAN_POINT('',(1.0,-1.000000000000000,0.0));
#45=DIRECTION('',(0.0,0.0,-1.0));
#46=DIRECTION('',(-0.707106781186548,0.707106781186547,0.0));
#47=AXIS2_PLACEMENT_3D('',#44,#45,#46);
#48=CYLINDRICAL_SURFACE('',#47,1.0);
#49=CARTESIAN_POINT('',(1.000000000000001,0.0,-0.500000000000000));
#50=VERTEX_POINT('',#49);
#51=CARTESIAN_POINT('',(-1.714915E-031,-1.000000000000000,-0.500000000000000));
#52=VERTEX_POINT('',#51);
#53=CARTESIAN_POINT('',(1.0,-1.000000000000000,-0.500000000000000));
#54=DIRECTION('',(0.0,0.0,1.0));
#55=DIRECTION('',(-0.707106781186548,0.707106781186547,0.0));
#56=AXIS2_PLACEMENT_3D('',#53,#54,#55);
#57=CIRCLE('',#56,1.0);
#58=EDGE_CURVE('',#50,#52,#57,.T.);
#59=ORIENTED_EDGE('',*,*,#58,.T.);
#60=CARTESIAN_POINT('',(-1.714915E-031,-1.000000000000000,0.500000000000000));
#61=VERTEX_POINT('',#60);
#62=CARTESIAN_POINT('',(-1.714915E-031,-1.000000000000000,-0.500000000000000));
#63=DIRECTION('',(0.0,0.0,1.0));
#64=VECTOR('',#63,1.0);
#65=LINE('',#62,#64);
#66=EDGE_CURVE('',#52,#61,#65,.T.);
#67=ORIENTED_EDGE('',*,*,#66,.T.);
#68=CARTESIAN_POINT('',(1.000000000000001,0.0,0.500000000000000));
#69=VERTEX_POINT('',#68);
#70=CARTESIAN_POINT('',(1.0,-1.000000000000000,0.500000000000000));
#71=DIRECTION('',(0.0,0.0,-1.0));
#72=DIRECTION('',(-0.707106781186548,0.707106781186547,0.0));
#73=AXIS2_PLACEMENT_3D('',#70,#71,#72);
#74=CIRCLE('',#73,1.0);
#75=EDGE_CURVE('',#61,#69,#74,.T.);
#76=ORIENTED_EDGE('',*,*,#75,.T.);
#77=CARTESIAN_POINT('',(1.000000000000001,0.0,0.500000000000000));
#78=DIRECTION('',(0.0,0.0,-1.0));
#79=VECTOR('',#78,1.0);
#80=LINE('',#77,#79);
#81=EDGE_CURVE('',#69,#50,#80,.T.);
#82=ORIENTED_EDGE('',*,*,#81,.T.);
#83=EDGE_LOOP('',(#59,#67,#76,#82));
#84=FACE_OUTER_BOUND('',#83,.T.);
#85=ADVANCED_FACE('',(#84),#48,.T.);
#86=CARTESIAN_POINT('',(-1.972152E-030,-11.500000000000007,0.0));
#87=DIRECTION('',(-1.0,0.0,0.0));
#88=DIRECTION('',(0.0,0.0,1.0));
#89=AXIS2_PLACEMENT_3D('',#86,#87,#88);
#90=PLANE('',#89);
#91=ORIENTED_EDGE('',*,*,#66,.F.);
#92=CARTESIAN_POINT('',(-1.800661E-030,-10.500000000000007,-0.500000000000000));
#93=VERTEX_POINT('',#92);
#94=CARTESIAN_POINT('',(-1.714915E-031,-1.000000000000000,-0.500000000000000));
#95=DIRECTION('',(0.0,-1.0,0.0));
#96=VECTOR('',#95,9.500000000000007);
#97=LINE('',#94,#96);
#98=EDGE_CURVE('',#52,#93,#97,.T.);
#99=ORIENTED_EDGE('',*,*,#98,.T.);
#100=CARTESIAN_POINT('',(-1.800661E-030,-10.500000000000007,0.500000000000000));
#101=VERTEX_POINT('',#100);
#102=CARTESIAN_POINT('',(-1.800661E-030,-10.500000000000007,0.500000000000000));
#103=DIRECTION('',(0.0,0.0,-1.0));
#104=VECTOR('',#103,1.0);
#105=LINE('',#102,#104);
#106=EDGE_CURVE('',#101,#93,#105,.T.);
#107=ORIENTED_EDGE('',*,*,#106,.F.);
#108=CARTESIAN_POINT('',(-1.800661E-030,-10.500000000000007,0.500000000000000));
#109=DIRECTION('',(0.0,1.0,0.0));
#110=VECTOR('',#109,9.500000000000007);
#111=LINE('',#108,#110);
#112=EDGE_CURVE('',#101,#61,#111,.T.);
#113=ORIENTED_EDGE('',*,*,#112,.T.);
#114=EDGE_LOOP('',(#91,#99,#107,#113));
#115=FACE_OUTER_BOUND('',#114,.T.);
#116=ADVANCED_FACE('',(#115),#90,.T.);
#117=CARTESIAN_POINT('',(7.646546052631578,-3.946546052631581,-0.500000000000000));
#118=DIRECTION('',(0.0,0.0,1.0));
#119=DIRECTION('',(1.0,0.0,0.0));
#120=AXIS2_PLACEMENT_3D('',#117,#118,#119);
#121=PLANE('',#120);
#122=ORIENTED_EDGE('',*,*,#58,.F.);
#123=CARTESIAN_POINT('',(17.899999999999995,0.0,-0.500000000000000));
#124=VERTEX_POINT('',#123);
#125=CARTESIAN_POINT('',(17.899999999999995,0.0,-0.500000000000000));
#126=DIRECTION('',(-1.0,0.0,0.0));
#127=VECTOR('',#126,16.899999999999995);
#128=LINE('',#125,#127);
#129=EDGE_CURVE('',#124,#50,#128,.T.);
#130=ORIENTED_EDGE('',*,*,#129,.F.);
#131=CARTESIAN_POINT('',(18.899999999999999,-1.0,-0.500000000000000));
#132=VERTEX_POINT('',#131);
#133=CARTESIAN_POINT('',(17.899999999999995,-1.0,-0.500000000000000));
#134=DIRECTION('',(0.0,0.0,1.000000000000000));
#135=DIRECTION('',(0.707106781186548,0.707106781186547,0.0));
#136=AXIS2_PLACEMENT_3D('',#133,#134,#135);
#137=CIRCLE('',#136,1.0);
#138=EDGE_CURVE('',#132,#124,#137,.T.);
#139=ORIENTED_EDGE('',*,*,#138,.F.);
#140=CARTESIAN_POINT('',(18.899999999999999,-2.000000000000001,-0.500000000000000));
#141=VERTEX_POINT('',#140);
#142=CARTESIAN_POINT('',(18.899999999999999,-2.000000000000001,-0.500000000000000));
#143=DIRECTION('',(0.0,1.0,0.0));
#144=VECTOR('',#143,1.000000000000001);
#145=LINE('',#142,#144);
#146=EDGE_CURVE('',#141,#132,#145,.T.);
#147=ORIENTED_EDGE('',*,*,#146,.F.);
#148=CARTESIAN_POINT('',(17.899999999999995,-3.000000000000000,-0.500000000000000));
#149=VERTEX_POINT('',#148);
#150=CARTESIAN_POINT('',(17.899999999999995,-2.000000000000001,-0.500000000000000));
#151=DIRECTION('',(0.0,0.0,1.0));
#152=DIRECTION('',(0.707106781186548,-0.707106781186547,0.0));
#153=AXIS2_PLACEMENT_3D('',#150,#151,#152);
#154=CIRCLE('',#153,1.000000000000000);
#155=EDGE_CURVE('',#149,#141,#154,.T.);
#156=ORIENTED_EDGE('',*,*,#155,.F.);
#157=CARTESIAN_POINT('',(6.499999999999999,-3.000000000000003,-0.500000000000000));
#158=VERTEX_POINT('',#157);
#159=CARTESIAN_POINT('',(6.499999999999999,-3.000000000000003,-0.500000000000000));
#160=DIRECTION('',(1.0,0.0,0.0));
#161=VECTOR('',#160,11.399999999999995);
#162=LINE('',#159,#161);
#163=EDGE_CURVE('',#158,#149,#162,.T.);
#164=ORIENTED_EDGE('',*,*,#163,.F.);
#165=CARTESIAN_POINT('',(5.999999999999998,-3.500000000000003,-0.500000000000000));
#166=VERTEX_POINT('',#165);
#167=CARTESIAN_POINT('',(6.499999999999999,-3.500000000000003,-0.500000000000000));
#168=DIRECTION('',(0.0,0.0,-1.000000000000000));
#169=DIRECTION('',(-0.707106781186548,0.707106781186548,0.0));
#170=AXIS2_PLACEMENT_3D('',#167,#168,#169);
#171=CIRCLE('',#170,0.500000000000000);
#172=EDGE_CURVE('',#166,#158,#171,.T.);
#173=ORIENTED_EDGE('',*,*,#172,.F.);
#174=CARTESIAN_POINT('',(6.000000000000001,-10.500000000000000,-0.500000000000000));
#175=VERTEX_POINT('',#174);
#176=CARTESIAN_POINT('',(6.000000000000001,-10.500000000000000,-0.500000000000000));
#177=DIRECTION('',(0.0,1.0,0.0));
#178=VECTOR('',#177,6.999999999999996);
#179=LINE('',#176,#178);
#180=EDGE_CURVE('',#175,#166,#179,.T.);
#181=ORIENTED_EDGE('',*,*,#180,.F.);
#182=CARTESIAN_POINT('',(5.000000000000002,-11.500000000000002,-0.500000000000000));
#183=VERTEX_POINT('',#182);
#184=CARTESIAN_POINT('',(5.000000000000001,-10.500000000000000,-0.500000000000000));
#185=DIRECTION('',(0.0,0.0,1.000000000000000));
#186=DIRECTION('',(0.707106781186548,-0.707106781186548,0.0));
#187=AXIS2_PLACEMENT_3D('',#184,#185,#186);
#188=CIRCLE('',#187,1.000000000000000);
#189=EDGE_CURVE('',#183,#175,#188,.T.);
#190=ORIENTED_EDGE('',*,*,#189,.F.);
#191=CARTESIAN_POINT('',(1.000000000000001,-11.500000000000005,-0.500000000000000));
#192=VERTEX_POINT('',#191);
#193=CARTESIAN_POINT('',(1.000000000000001,-11.500000000000005,-0.500000000000000));
#194=DIRECTION('',(1.0,0.0,0.0));
#195=VECTOR('',#194,4.000000000000001);
#196=LINE('',#193,#195);
#197=EDGE_CURVE('',#192,#183,#196,.T.);
#198=ORIENTED_EDGE('',*,*,#197,.F.);
#199=CARTESIAN_POINT('',(1.000000000000000,-10.500000000000007,-0.500000000000000));
#200=DIRECTION('',(0.0,0.0,1.0));
#201=DIRECTION('',(-0.707106781186547,-0.707106781186548,0.0));
#202=AXIS2_PLACEMENT_3D('',#199,#200,#201);
#203=CIRCLE('',#202,1.0);
#204=EDGE_CURVE('',#93,#192,#203,.T.);
#205=ORIENTED_EDGE('',*,*,#204,.F.);
#206=ORIENTED_EDGE('',*,*,#98,.F.);
#207=EDGE_LOOP('',(#122,#130,#139,#147,#156,#164,#173,#181,#190,#198,#205,#206));
#208=FACE_OUTER_BOUND('',#207,.T.);
#209=ADVANCED_FACE('',(#208),#121,.F.);
#210=CARTESIAN_POINT('',(17.899999999999995,-1.0,0.0));
#211=DIRECTION('',(0.0,0.0,1.0));
#212=DIRECTION('',(0.707106781186548,0.707106781186547,0.0));
#213=AXIS2_PLACEMENT_3D('',#210,#211,#212);
#214=CYLINDRICAL_SURFACE('',#213,1.0);
#215=CARTESIAN_POINT('',(17.899999999999995,0.0,0.500000000000000));
#216=VERTEX_POINT('',#215);
#217=CARTESIAN_POINT('',(18.899999999999999,-1.0,0.500000000000000));
#218=VERTEX_POINT('',#217);
#219=CARTESIAN_POINT('',(17.899999999999995,-1.0,0.500000000000000));
#220=DIRECTION('',(0.0,0.0,-1.000000000000000));
#221=DIRECTION('',(0.707106781186548,0.707106781186547,0.0));
#222=AXIS2_PLACEMENT_3D('',#219,#220,#221);
#223=CIRCLE('',#222,1.0);
#224=EDGE_CURVE('',#216,#218,#223,.T.);
#225=ORIENTED_EDGE('',*,*,#224,.T.);
#226=CARTESIAN_POINT('',(18.899999999999999,-1.0,0.500000000000000));
#227=DIRECTION('',(0.0,0.0,-1.0));
#228=VECTOR('',#227,1.0);
#229=LINE('',#226,#228);
#230=EDGE_CURVE('',#218,#132,#229,.T.);
#231=ORIENTED_EDGE('',*,*,#230,.T.);
#232=ORIENTED_EDGE('',*,*,#138,.T.);
#233=CARTESIAN_POINT('',(17.899999999999995,0.0,-0.500000000000000));
#234=DIRECTION('',(0.0,0.0,1.0));
#235=VECTOR('',#234,1.0);
#236=LINE('',#233,#235);
#237=EDGE_CURVE('',#124,#216,#236,.T.);
#238=ORIENTED_EDGE('',*,*,#237,.T.);
#239=EDGE_LOOP('',(#225,#231,#232,#238));
#240=FACE_OUTER_BOUND('',#239,.T.);
#241=ADVANCED_FACE('',(#240),#214,.T.);
#242=CARTESIAN_POINT('',(18.899999999999999,0.0,0.0));
#243=DIRECTION('',(1.0,0.0,0.0));
#244=DIRECTION('',(0.0,0.0,-1.0));
#245=AXIS2_PLACEMENT_3D('',#242,#243,#244);
#246=PLANE('',#245);
#247=ORIENTED_EDGE('',*,*,#230,.F.);
#248=CARTESIAN_POINT('',(18.899999999999999,-2.000000000000001,0.500000000000000));
#249=VERTEX_POINT('',#248);
#250=CARTESIAN_POINT('',(18.899999999999999,-1.0,0.500000000000000));
#251=DIRECTION('',(0.0,-1.0,0.0));
#252=VECTOR('',#251,1.000000000000001);
#253=LINE('',#250,#252);
#254=EDGE_CURVE('',#218,#249,#253,.T.);
#255=ORIENTED_EDGE('',*,*,#254,.T.);
#256=CARTESIAN_POINT('',(18.899999999999999,-2.000000000000001,-0.500000000000000));
#257=DIRECTION('',(0.0,0.0,1.0));
#258=VECTOR('',#257,1.0);
#259=LINE('',#256,#258);
#260=EDGE_CURVE('',#141,#249,#259,.T.);
#261=ORIENTED_EDGE('',*,*,#260,.F.);
#262=ORIENTED_EDGE('',*,*,#146,.T.);
#263=EDGE_LOOP('',(#247,#255,#261,#262));
#264=FACE_OUTER_BOUND('',#263,.T.);
#265=ADVANCED_FACE('',(#264),#246,.T.);
#266=CARTESIAN_POINT('',(17.899999999999995,-2.000000000000001,0.0));
#267=DIRECTION('',(0.0,0.0,1.0));
#268=DIRECTION('',(0.707106781186548,-0.707106781186547,0.0));
#269=AXIS2_PLACEMENT_3D('',#266,#267,#268);
#270=CYLINDRICAL_SURFACE('',#269,1.000000000000000);
#271=CARTESIAN_POINT('',(17.899999999999995,-3.000000000000000,0.500000000000000));
#272=VERTEX_POINT('',#271);
#273=CARTESIAN_POINT('',(17.899999999999995,-2.000000000000001,0.500000000000000));
#274=DIRECTION('',(0.0,0.0,-1.0));
#275=DIRECTION('',(0.707106781186548,-0.707106781186547,0.0));
#276=AXIS2_PLACEMENT_3D('',#273,#274,#275);
#277=CIRCLE('',#276,1.000000000000000);
#278=EDGE_CURVE('',#249,#272,#277,.T.);
#279=ORIENTED_EDGE('',*,*,#278,.T.);
#280=CARTESIAN_POINT('',(17.899999999999995,-3.000000000000000,0.500000000000000));
#281=DIRECTION('',(0.0,0.0,-1.0));
#282=VECTOR('',#281,1.0);
#283=LINE('',#280,#282);
#284=EDGE_CURVE('',#272,#149,#283,.T.);
#285=ORIENTED_EDGE('',*,*,#284,.T.);
#286=ORIENTED_EDGE('',*,*,#155,.T.);
#287=ORIENTED_EDGE('',*,*,#260,.T.);
#288=EDGE_LOOP('',(#279,#285,#286,#287));
#289=FACE_OUTER_BOUND('',#288,.T.);
#290=ADVANCED_FACE('',(#289),#270,.T.);
#291=CARTESIAN_POINT('',(5.000000000000001,-10.500000000000000,0.0));
#292=DIRECTION('',(0.0,0.0,1.0));
#293=DIRECTION('',(0.707106781186548,-0.707106781186548,0.0));
#294=AXIS2_PLACEMENT_3D('',#291,#292,#293);
#295=CYLINDRICAL_SURFACE('',#294,1.000000000000000);
#296=CARTESIAN_POINT('',(6.000000000000001,-10.500000000000000,0.500000000000000));
#297=VERTEX_POINT('',#296);
#298=CARTESIAN_POINT('',(5.000000000000002,-11.500000000000002,0.500000000000000));
#299=VERTEX_POINT('',#298);
#300=CARTESIAN_POINT('',(5.000000000000001,-10.500000000000000,0.500000000000000));
#301=DIRECTION('',(0.0,0.0,-1.000000000000000));
#302=DIRECTION('',(0.707106781186548,-0.707106781186548,0.0));
#303=AXIS2_PLACEMENT_3D('',#300,#301,#302);
#304=CIRCLE('',#303,1.000000000000000);
#305=EDGE_CURVE('',#297,#299,#304,.T.);
#306=ORIENTED_EDGE('',*,*,#305,.T.);
#307=CARTESIAN_POINT('',(5.000000000000002,-11.500000000000002,0.500000000000000));
#308=DIRECTION('',(0.0,0.0,-1.0));
#309=VECTOR('',#308,1.0);
#310=LINE('',#307,#309);
#311=EDGE_CURVE('',#299,#183,#310,.T.);
#312=ORIENTED_EDGE('',*,*,#311,.T.);
#313=ORIENTED_EDGE('',*,*,#189,.T.);
#314=CARTESIAN_POINT('',(6.000000000000001,-10.500000000000000,-0.500000000000000));
#315=DIRECTION('',(0.0,0.0,1.0));
#316=VECTOR('',#315,1.0);
#317=LINE('',#314,#316);
#318=EDGE_CURVE('',#175,#297,#317,.T.);
#319=ORIENTED_EDGE('',*,*,#318,.T.);
#320=EDGE_LOOP('',(#306,#312,#313,#319));
#321=FACE_OUTER_BOUND('',#320,.T.);
#322=ADVANCED_FACE('',(#321),#295,.T.);
#323=CARTESIAN_POINT('',(6.000000000000001,-11.500000000000002,0.0));
#324=DIRECTION('',(0.0,-1.0,0.0));
#325=DIRECTION('',(0.0,0.0,-1.0));
#326=AXIS2_PLACEMENT_3D('',#323,#324,#325);
#327=PLANE('',#326);
#328=ORIENTED_EDGE('',*,*,#311,.F.);
#329=CARTESIAN_POINT('',(1.000000000000001,-11.500000000000005,0.500000000000000));
#330=VERTEX_POINT('',#329);
#331=CARTESIAN_POINT('',(5.000000000000002,-11.500000000000002,0.500000000000000));
#332=DIRECTION('',(-1.0,0.0,0.0));
#333=VECTOR('',#332,4.000000000000001);
#334=LINE('',#331,#333);
#335=EDGE_CURVE('',#299,#330,#334,.T.);
#336=ORIENTED_EDGE('',*,*,#335,.T.);
#337=CARTESIAN_POINT('',(1.000000000000001,-11.500000000000005,-0.500000000000000));
#338=DIRECTION('',(0.0,0.0,1.0));
#339=VECTOR('',#338,1.0);
#340=LINE('',#337,#339);
#341=EDGE_CURVE('',#192,#330,#340,.T.);
#342=ORIENTED_EDGE('',*,*,#341,.F.);
#343=ORIENTED_EDGE('',*,*,#197,.T.);
#344=EDGE_LOOP('',(#328,#336,#342,#343));
#345=FACE_OUTER_BOUND('',#344,.T.);
#346=ADVANCED_FACE('',(#345),#327,.T.);
#347=CARTESIAN_POINT('',(1.000000000000000,-10.500000000000007,0.0));
#348=DIRECTION('',(0.0,0.0,1.0));
#349=DIRECTION('',(-0.707106781186547,-0.707106781186548,0.0));
#350=AXIS2_PLACEMENT_3D('',#347,#348,#349);
#351=CYLINDRICAL_SURFACE('',#350,1.0);
#352=CARTESIAN_POINT('',(1.000000000000000,-10.500000000000007,0.500000000000000));
#353=DIRECTION('',(0.0,0.0,-1.0));
#354=DIRECTION('',(-0.707106781186547,-0.707106781186548,0.0));
#355=AXIS2_PLACEMENT_3D('',#352,#353,#354);
#356=CIRCLE('',#355,1.0);
#357=EDGE_CURVE('',#330,#101,#356,.T.);
#358=ORIENTED_EDGE('',*,*,#357,.T.);
#359=ORIENTED_EDGE('',*,*,#106,.T.);
#360=ORIENTED_EDGE('',*,*,#204,.T.);
#361=ORIENTED_EDGE('',*,*,#341,.T.);
#362=EDGE_LOOP('',(#358,#359,#360,#361));
#363=FACE_OUTER_BOUND('',#362,.T.);
#364=ADVANCED_FACE('',(#363),#351,.T.);
#365=CARTESIAN_POINT('',(6.499999999999999,-3.500000000000003,0.0));
#366=DIRECTION('',(0.0,0.0,1.0));
#367=DIRECTION('',(-0.707106781186548,0.707106781186548,0.0));
#368=AXIS2_PLACEMENT_3D('',#365,#366,#367);
#369=CYLINDRICAL_SURFACE('',#368,0.500000000000000);
#370=ORIENTED_EDGE('',*,*,#172,.T.);
#371=CARTESIAN_POINT('',(6.499999999999999,-3.000000000000003,0.500000000000000));
#372=VERTEX_POINT('',#371);
#373=CARTESIAN_POINT('',(6.499999999999999,-3.000000000000003,-0.500000000000000));
#374=DIRECTION('',(0.0,0.0,1.0));
#375=VECTOR('',#374,1.0);
#376=LINE('',#373,#375);
#377=EDGE_CURVE('',#158,#372,#376,.T.);
#378=ORIENTED_EDGE('',*,*,#377,.T.);
#379=CARTESIAN_POINT('',(5.999999999999998,-3.500000000000003,0.500000000000000));
#380=VERTEX_POINT('',#379);
#381=CARTESIAN_POINT('',(6.499999999999999,-3.500000000000003,0.500000000000000));
#382=DIRECTION('',(0.0,0.0,1.000000000000000));
#383=DIRECTION('',(-0.707106781186548,0.707106781186548,0.0));
#384=AXIS2_PLACEMENT_3D('',#381,#382,#383);
#385=CIRCLE('',#384,0.500000000000000);
#386=EDGE_CURVE('',#372,#380,#385,.T.);
#387=ORIENTED_EDGE('',*,*,#386,.T.);
#388=CARTESIAN_POINT('',(5.999999999999998,-3.500000000000003,0.500000000000000));
#389=DIRECTION('',(0.0,0.0,-1.0));
#390=VECTOR('',#389,1.0);
#391=LINE('',#388,#390);
#392=EDGE_CURVE('',#380,#166,#391,.T.);
#393=ORIENTED_EDGE('',*,*,#392,.T.);
#394=EDGE_LOOP('',(#370,#378,#387,#393));
#395=FACE_OUTER_BOUND('',#394,.T.);
#396=ADVANCED_FACE('',(#395),#369,.F.);
#397=CARTESIAN_POINT('',(18.899999999999999,-3.000000000000000,0.0));
#398=DIRECTION('',(0.0,-1.0,0.0));
#399=DIRECTION('',(0.0,0.0,-1.0));
#400=AXIS2_PLACEMENT_3D('',#397,#398,#399);
#401=PLANE('',#400);
#402=ORIENTED_EDGE('',*,*,#284,.F.);
#403=CARTESIAN_POINT('',(17.899999999999995,-3.000000000000000,0.500000000000000));
#404=DIRECTION('',(-1.0,0.0,0.0));
#405=VECTOR('',#404,11.399999999999995);
#406=LINE('',#403,#405);
#407=EDGE_CURVE('',#272,#372,#406,.T.);
#408=ORIENTED_EDGE('',*,*,#407,.T.);
#409=ORIENTED_EDGE('',*,*,#377,.F.);
#410=ORIENTED_EDGE('',*,*,#163,.T.);
#411=EDGE_LOOP('',(#402,#408,#409,#410));
#412=FACE_OUTER_BOUND('',#411,.T.);
#413=ADVANCED_FACE('',(#412),#401,.T.);
#414=CARTESIAN_POINT('',(0.0,0.0,0.0));
#415=DIRECTION('',(0.0,1.0,0.0));
#416=DIRECTION('',(0.0,0.0,1.0));
#417=AXIS2_PLACEMENT_3D('',#414,#415,#416);
#418=PLANE('',#417);
#419=ORIENTED_EDGE('',*,*,#81,.F.);
#420=CARTESIAN_POINT('',(1.000000000000001,0.0,0.500000000000000));
#421=DIRECTION('',(1.0,0.0,0.0));
#422=VECTOR('',#421,16.899999999999995);
#423=LINE('',#420,#422);
#424=EDGE_CURVE('',#69,#216,#423,.T.);
#425=ORIENTED_EDGE('',*,*,#424,.T.);
#426=ORIENTED_EDGE('',*,*,#237,.F.);
#427=ORIENTED_EDGE('',*,*,#129,.T.);
#428=EDGE_LOOP('',(#419,#425,#426,#427));
#429=FACE_OUTER_BOUND('',#428,.T.);
#430=ADVANCED_FACE('',(#429),#418,.T.);
#431=CARTESIAN_POINT('',(5.999999999999998,-3.000000000000003,0.0));
#432=DIRECTION('',(1.0,0.0,0.0));
#433=DIRECTION('',(0.0,0.0,-1.0));
#434=AXIS2_PLACEMENT_3D('',#431,#432,#433);
#435=PLANE('',#434);
#436=ORIENTED_EDGE('',*,*,#318,.F.);
#437=ORIENTED_EDGE('',*,*,#180,.T.);
#438=ORIENTED_EDGE('',*,*,#392,.F.);
#439=CARTESIAN_POINT('',(5.999999999999998,-3.500000000000003,0.500000000000000));
#440=DIRECTION('',(0.0,-1.0,0.0));
#441=VECTOR('',#440,6.999999999999996);
#442=LINE('',#439,#441);
#443=EDGE_CURVE('',#380,#297,#442,.T.);
#444=ORIENTED_EDGE('',*,*,#443,.T.);
#445=EDGE_LOOP('',(#436,#437,#438,#444));
#446=FACE_OUTER_BOUND('',#445,.T.);
#447=ADVANCED_FACE('',(#446),#435,.T.);
#448=CARTESIAN_POINT('',(7.646546052631578,-3.946546052631581,0.500000000000000));
#449=DIRECTION('',(0.0,0.0,1.0));
#450=DIRECTION('',(1.0,0.0,0.0));
#451=AXIS2_PLACEMENT_3D('',#448,#449,#450);
#452=PLANE('',#451);
#453=ORIENTED_EDGE('',*,*,#75,.F.);
#454=ORIENTED_EDGE('',*,*,#112,.F.);
#455=ORIENTED_EDGE('',*,*,#357,.F.);
#456=ORIENTED_EDGE('',*,*,#335,.F.);
#457=ORIENTED_EDGE('',*,*,#305,.F.);
#458=ORIENTED_EDGE('',*,*,#443,.F.);
#459=ORIENTED_EDGE('',*,*,#386,.F.);
#460=ORIENTED_EDGE('',*,*,#407,.F.);
#461=ORIENTED_EDGE('',*,*,#278,.F.);
#462=ORIENTED_EDGE('',*,*,#254,.F.);
#463=ORIENTED_EDGE('',*,*,#224,.F.);
#464=ORIENTED_EDGE('',*,*,#424,.F.);
#465=EDGE_LOOP('',(#453,#454,#455,#456,#457,#458,#459,#460,#461,#462,#463,#464));
#466=FACE_OUTER_BOUND('',#465,.T.);
#467=ADVANCED_FACE('',(#466),#452,.T.);
#468=CLOSED_SHELL('',(#85,#116,#209,#241,#265,#290,#322,#346,#364,#396,#413,#430,#447,#467));
#469=MANIFOLD_SOLID_BREP('',#468);
#470=COLOUR_RGB('Metall-AL-6061 (gleichm.)',0.847058832645416,0.839215695858002,0.839215695858002);
#471=FILL_AREA_STYLE_COLOUR('Metall-AL-6061 (gleichm.)',#470);
#472=FILL_AREA_STYLE('Metall-AL-6061 (gleichm.)',(#471));
#473=SURFACE_STYLE_FILL_AREA(#472);
#474=SURFACE_SIDE_STYLE('Metall-AL-6061 (gleichm.)',(#473));
#475=SURFACE_STYLE_USAGE(.BOTH.,#474);
#476=PRESENTATION_STYLE_ASSIGNMENT((#475));
#477=STYLED_ITEM('',(#476),#469);
#478=MECHANICAL_DESIGN_GEOMETRIC_PRESENTATION_REPRESENTATION('',(#477),#36);
#479=ADVANCED_BREP_SHAPE_REPRESENTATION('ABSR',(#469),#36);
#480=SHAPE_REPRESENTATION_RELATIONSHIP('SRR','None',#479,#41);
ENDSEC;
END-ISO-10303-21;
