ISO-10303-21;
HEADER;
/****************************************************************
 * Generated by software with PDE/Lib inside                    *
 * PDElib Version v51a, created Tue 12/06/2005                  *
 * International Technegroup Inc. (www.iti-oh.com)              *
 ****************************************************************/
FILE_DESCRIPTION((''),'2;1');
FILE_NAME('U:\\Paletti Norm\\Paletti Artikel f. Palkat\\STEP\\SL8603S.ipt.step','2007-09-10T15:14:35',(''),(''),'Autodesk Inventor 11','Autodesk Inventor 11','');
FILE_SCHEMA(('AUTOMOTIVE_DESIGN { 1 0 10303 214 1 1 1 1 }'));
ENDSEC;
DATA;
#5=APPLICATION_CONTEXT('automotive design');
#6=APPLICATION_PROTOCOL_DEFINITION('International Standard','automotive_design',2001,#5);
#7=PRODUCT_CONTEXT('',#5,'mechanical');
#8=PRODUCT('SL8603S','SL8603S',$,(#7));
#9=PRODUCT_RELATED_PRODUCT_CATEGORY('part',$,(#8));
#10=PRODUCT_DEFINITION_FORMATION('',$,#8);
#11=PRODUCT_DEFINITION_CONTEXT('part definition',#5,'design');
#12=PRODUCT_DEFINITION('',$,#10,#11);
#18=(NAMED_UNIT(*)PLANE_ANGLE_UNIT()SI_UNIT($,.RADIAN.));
#19=DIMENSIONAL_EXPONENTS(0.0,0.0,0.0,0.0,0.0,0.0,0.0);
#20=PLANE_ANGLE_MEASURE_WITH_UNIT(PLANE_ANGLE_MEASURE(0.017453292500000),#18);
#24=(CONVERSION_BASED_UNIT('DEGREE',#20)NAMED_UNIT(#19)PLANE_ANGLE_UNIT());
#28=(NAMED_UNIT(*)SI_UNIT($,.STERADIAN.)SOLID_ANGLE_UNIT());
#32=(LENGTH_UNIT()NAMED_UNIT(*)SI_UNIT(.MILLI.,.METRE.));
#34=UNCERTAINTY_MEASURE_WITH_UNIT(LENGTH_MEASURE(0.010000000000000),#32,'DISTANCE_ACCURACY_VALUE','');
#36=(GEOMETRIC_REPRESENTATION_CONTEXT(3)GLOBAL_UNCERTAINTY_ASSIGNED_CONTEXT((#34))GLOBAL_UNIT_ASSIGNED_CONTEXT((#24,#28,#32))REPRESENTATION_CONTEXT('None','None'));
#37=AXIS2_PLACEMENT_3D('',#38,#39,#40);
#38=CARTESIAN_POINT('',(0.0,0.0,0.0));
#39=DIRECTION('',(0.0,0.0,1.0));
#40=DIRECTION('',(1.0,0.0,0.0));
#41=SHAPE_REPRESENTATION('',(#37),#36);
#42=PRODUCT_DEFINITION_SHAPE('','',#12);
#43=SHAPE_DEFINITION_REPRESENTATION(#42,#41);
#44=CARTESIAN_POINT('',(0.0,0.0,0.0));
#45=DIRECTION('',(0.0,-1.0,0.0));
#46=DIRECTION('',(-1.0,0.0,0.0));
#47=AXIS2_PLACEMENT_3D('',#44,#45,#46);
#48=CYLINDRICAL_SURFACE('',#47,6.000000000000001);
#49=CARTESIAN_POINT('',(6.000000000000001,-31.0,7.347638E-016));
#50=VERTEX_POINT('',#49);
#51=CARTESIAN_POINT('',(0.0,-31.0,0.0));
#52=DIRECTION('',(0.0,1.0,0.0));
#53=DIRECTION('',(-1.0,0.0,0.0));
#54=AXIS2_PLACEMENT_3D('',#51,#52,#53);
#55=CIRCLE('',#54,6.000000000000001);
#56=EDGE_CURVE('',#50,#50,#55,.T.);
#57=ORIENTED_EDGE('',*,*,#56,.T.);
#58=EDGE_LOOP('',(#57));
#59=FACE_OUTER_BOUND('',#58,.T.);
#60=CARTESIAN_POINT('',(6.000000000000001,0.0,7.347638E-016));
#61=VERTEX_POINT('',#60);
#62=CARTESIAN_POINT('',(0.0,0.0,0.0));
#63=DIRECTION('',(0.0,1.0,0.0));
#64=DIRECTION('',(-1.0,0.0,0.0));
#65=AXIS2_PLACEMENT_3D('',#62,#63,#64);
#66=CIRCLE('',#65,6.000000000000001);
#67=EDGE_CURVE('',#61,#61,#66,.T.);
#68=ORIENTED_EDGE('',*,*,#67,.F.);
#69=EDGE_LOOP('',(#68));
#70=FACE_BOUND('',#69,.T.);
#71=ADVANCED_FACE('',(#59,#70),#48,.T.);
#72=CARTESIAN_POINT('',(0.0,-31.0,0.0));
#73=DIRECTION('',(0.0,1.0,0.0));
#74=DIRECTION('',(0.0,0.0,1.0));
#75=AXIS2_PLACEMENT_3D('',#72,#73,#74);
#76=PLANE('',#75);
#77=ORIENTED_EDGE('',*,*,#56,.F.);
#78=EDGE_LOOP('',(#77));
#79=FACE_OUTER_BOUND('',#78,.T.);
#80=ADVANCED_FACE('',(#79),#76,.F.);
#81=CARTESIAN_POINT('',(0.0,3.500000000000000,0.0));
#82=DIRECTION('',(0.0,1.0,0.0));
#83=DIRECTION('',(-1.0,0.0,0.0));
#84=AXIS2_PLACEMENT_3D('',#81,#82,#83);
#85=CYLINDRICAL_SURFACE('',#84,37.500000000000000);
#86=CARTESIAN_POINT('',(-37.500000000000000,7.000000000000001,0.0));
#87=VERTEX_POINT('',#86);
#88=CARTESIAN_POINT('',(0.0,7.000000000000001,0.0));
#89=DIRECTION('',(0.0,1.0,0.0));
#90=DIRECTION('',(-1.0,0.0,0.0));
#91=AXIS2_PLACEMENT_3D('',#88,#89,#90);
#92=CIRCLE('',#91,37.500000000000000);
#93=EDGE_CURVE('',#87,#87,#92,.T.);
#94=ORIENTED_EDGE('',*,*,#93,.F.);
#95=EDGE_LOOP('',(#94));
#96=FACE_OUTER_BOUND('',#95,.T.);
#97=CARTESIAN_POINT('',(-37.500000000000000,0.0,0.0));
#98=VERTEX_POINT('',#97);
#99=CARTESIAN_POINT('',(0.0,0.0,0.0));
#100=DIRECTION('',(0.0,1.0,0.0));
#101=DIRECTION('',(-1.0,0.0,0.0));
#102=AXIS2_PLACEMENT_3D('',#99,#100,#101);
#103=CIRCLE('',#102,37.500000000000000);
#104=EDGE_CURVE('',#98,#98,#103,.T.);
#105=ORIENTED_EDGE('',*,*,#104,.T.);
#106=EDGE_LOOP('',(#105));
#107=FACE_BOUND('',#106,.T.);
#108=ADVANCED_FACE('',(#96,#107),#85,.T.);
#109=CARTESIAN_POINT('',(-36.800000000000004,7.000000000000001,0.0));
#110=DIRECTION('',(0.0,1.0,0.0));
#111=DIRECTION('',(0.0,0.0,1.0));
#112=AXIS2_PLACEMENT_3D('',#109,#110,#111);
#113=PLANE('',#112);
#114=ORIENTED_EDGE('',*,*,#93,.T.);
#115=EDGE_LOOP('',(#114));
#116=FACE_OUTER_BOUND('',#115,.T.);
#117=CARTESIAN_POINT('',(-36.100000000000001,7.000000000000001,0.0));
#118=VERTEX_POINT('',#117);
#119=CARTESIAN_POINT('',(0.0,7.000000000000001,0.0));
#120=DIRECTION('',(0.0,1.0,0.0));
#121=DIRECTION('',(-1.0,0.0,0.0));
#122=AXIS2_PLACEMENT_3D('',#119,#120,#121);
#123=CIRCLE('',#122,36.100000000000001);
#124=EDGE_CURVE('',#118,#118,#123,.T.);
#125=ORIENTED_EDGE('',*,*,#124,.F.);
#126=EDGE_LOOP('',(#125));
#127=FACE_BOUND('',#126,.T.);
#128=ADVANCED_FACE('',(#116,#127),#113,.T.);
#129=CARTESIAN_POINT('',(4.420829E-015,7.0,-36.099999999999994));
#130=CARTESIAN_POINT('',(4.643958E-015,56.748547854338561,-37.922047757777307));
#131=CARTESIAN_POINT('',(1.577722E-030,89.0,0.0));
#132=CARTESIAN_POINT('',(36.099999999999994,6.999999999999999,-36.099999999999980));
#133=CARTESIAN_POINT('',(37.922047757777307,56.748547854338561,-37.922047757777293));
#134=CARTESIAN_POINT('',(1.577722E-030,89.0,1.577722E-030));
#135=CARTESIAN_POINT('',(36.099999999999994,7.0,4.420829E-015));
#136=CARTESIAN_POINT('',(37.922047757777307,56.748547854338561,4.643958E-015));
#137=CARTESIAN_POINT('',(0.0,89.0,1.577722E-030));
#138=CARTESIAN_POINT('',(36.099999999999980,6.999999999999999,36.099999999999994));
#139=CARTESIAN_POINT('',(37.922047757777293,56.748547854338561,37.922047757777307));
#140=CARTESIAN_POINT('',(-1.577722E-030,89.0,1.577722E-030));
#141=CARTESIAN_POINT('',(-4.420829E-015,7.0,36.099999999999994));
#142=CARTESIAN_POINT('',(-4.643958E-015,56.748547854338561,37.922047757777307));
#143=CARTESIAN_POINT('',(-1.577722E-030,89.0,0.0));
#144=CARTESIAN_POINT('',(-36.099999999999994,6.999999999999999,36.099999999999980));
#145=CARTESIAN_POINT('',(-37.922047757777307,56.748547854338561,37.922047757777293));
#146=CARTESIAN_POINT('',(-1.577722E-030,89.0,-1.577722E-030));
#147=CARTESIAN_POINT('',(-36.099999999999994,7.0,-4.420829E-015));
#148=CARTESIAN_POINT('',(-37.922047757777307,56.748547854338561,-4.643958E-015));
#149=CARTESIAN_POINT('',(0.0,89.0,-1.577722E-030));
#150=CARTESIAN_POINT('',(-36.099999999999980,6.999999999999999,-36.099999999999994));
#151=CARTESIAN_POINT('',(-37.922047757777293,56.748547854338561,-37.922047757777307));
#152=CARTESIAN_POINT('',(1.577722E-030,89.0,-1.577722E-030));
#153=CARTESIAN_POINT('',(4.420829E-015,7.0,-36.099999999999994));
#154=CARTESIAN_POINT('',(4.643958E-015,56.748547854338561,-37.922047757777307));
#155=CARTESIAN_POINT('',(1.577722E-030,89.0,0.0));
#163=(BOUNDED_SURFACE()B_SPLINE_SURFACE(2,2,((#129,#132,#135,#138,#141,#144,#147,#150,#153),(#130,#133,#136,#139,#142,#145,#148,#151,#154),(#131,#134,#137,#140,#143,#146,#149,#152,#155)),.UNSPECIFIED.,.F.,.T.,.U.)B_SPLINE_SURFACE_WITH_KNOTS((3,3),(3,2,2,2,3),(-0.036608781409249,0.866031177543017),(0.0,1.570796326794897,3.141592653589793,4.712388980384690,6.283185307179586),.UNSPECIFIED.)GEOMETRIC_REPRESENTATION_ITEM()RATIONAL_B_SPLINE_SURFACE(((1.0,0.707106781186548,1.0,0.707106781186548,1.0,0.707106781186548,1.0,0.707106781186548,1.0),(0.899872172496544,0.636305715373377,0.899872172496544,0.636305715373377,0.899872172496544,0.636305715373377,0.899872172496544,0.636305715373377,0.899872172496544),(1.0,0.707106781186548,1.0,0.707106781186548,1.0,0.707106781186548,1.0,0.707106781186548,1.0)))REPRESENTATION_ITEM('')SURFACE());
#164=ORIENTED_EDGE('',*,*,#124,.T.);
#165=EDGE_LOOP('',(#164));
#166=FACE_OUTER_BOUND('',#165,.T.);
#167=ADVANCED_FACE('',(#166),#163,.T.);
#168=CARTESIAN_POINT('',(-18.750000000000000,0.0,0.0));
#169=DIRECTION('',(0.0,-1.0,0.0));
#170=DIRECTION('',(0.0,0.0,-1.0));
#171=AXIS2_PLACEMENT_3D('',#168,#169,#170);
#172=PLANE('',#171);
#173=ORIENTED_EDGE('',*,*,#104,.F.);
#174=EDGE_LOOP('',(#173));
#175=FACE_OUTER_BOUND('',#174,.T.);
#176=ORIENTED_EDGE('',*,*,#67,.T.);
#177=EDGE_LOOP('',(#176));
#178=FACE_BOUND('',#177,.T.);
#179=ADVANCED_FACE('',(#175,#178),#172,.T.);
#180=CLOSED_SHELL('',(#71,#80,#108,#128,#167,#179));
#181=MANIFOLD_SOLID_BREP('',#180);
#182=COLOUR_RGB('Schwarz',0.321568638086319,0.321568638086319,0.321568638086319);
#183=FILL_AREA_STYLE_COLOUR('Schwarz',#182);
#184=FILL_AREA_STYLE('Schwarz',(#183));
#185=SURFACE_STYLE_FILL_AREA(#184);
#186=SURFACE_SIDE_STYLE('Schwarz',(#185));
#187=SURFACE_STYLE_USAGE(.BOTH.,#186);
#188=PRESENTATION_STYLE_ASSIGNMENT((#187));
#189=STYLED_ITEM('',(#188),#181);
#190=MECHANICAL_DESIGN_GEOMETRIC_PRESENTATION_REPRESENTATION('',(#189),#36);
#191=ADVANCED_BREP_SHAPE_REPRESENTATION('ABSR',(#181),#36);
#192=SHAPE_REPRESENTATION_RELATIONSHIP('SRR','None',#191,#41);
ENDSEC;
END-ISO-10303-21;
