ISO-10303-21;
HEADER;
/****************************************************************
 * Generated by software with PDE/Lib inside                    *
 * PDElib Version v51a, created Tue 12/06/2005                  *
 * International Technegroup Inc. (www.iti-oh.com)              *
 ****************************************************************/
FILE_DESCRIPTION((''),'2;1');
FILE_NAME('U:\\Paletti Norm\\Paletti Artikel f. Palkat\\STEP\\SV4120V.ipt.step','2007-09-10T15:15:17',(''),(''),'Autodesk Inventor 11','Autodesk Inventor 11','');
FILE_SCHEMA(('AUTOMOTIVE_DESIGN { 1 0 10303 214 1 1 1 1 }'));
ENDSEC;
DATA;
#5=APPLICATION_CONTEXT('automotive design');
#6=APPLICATION_PROTOCOL_DEFINITION('International Standard','automotive_design',2001,#5);
#7=PRODUCT_CONTEXT('',#5,'mechanical');
#8=PRODUCT('SV4120V','SV4120V',$,(#7));
#9=PRODUCT_RELATED_PRODUCT_CATEGORY('part',$,(#8));
#10=PRODUCT_DEFINITION_FORMATION('',$,#8);
#11=PRODUCT_DEFINITION_CONTEXT('part definition',#5,'design');
#12=PRODUCT_DEFINITION('',$,#10,#11);
#18=(NAMED_UNIT(*)PLANE_ANGLE_UNIT()SI_UNIT($,.RADIAN.));
#19=DIMENSIONAL_EXPONENTS(0.0,0.0,0.0,0.0,0.0,0.0,0.0);
#20=PLANE_ANGLE_MEASURE_WITH_UNIT(PLANE_ANGLE_MEASURE(0.017453292500000),#18);
#24=(CONVERSION_BASED_UNIT('DEGREE',#20)NAMED_UNIT(#19)PLANE_ANGLE_UNIT());
#28=(NAMED_UNIT(*)SI_UNIT($,.STERADIAN.)SOLID_ANGLE_UNIT());
#32=(LENGTH_UNIT()NAMED_UNIT(*)SI_UNIT(.MILLI.,.METRE.));
#34=UNCERTAINTY_MEASURE_WITH_UNIT(LENGTH_MEASURE(0.010000000000000),#32,'DISTANCE_ACCURACY_VALUE','');
#36=(GEOMETRIC_REPRESENTATION_CONTEXT(3)GLOBAL_UNCERTAINTY_ASSIGNED_CONTEXT((#34))GLOBAL_UNIT_ASSIGNED_CONTEXT((#24,#28,#32))REPRESENTATION_CONTEXT('None','None'));
#37=AXIS2_PLACEMENT_3D('',#38,#39,#40);
#38=CARTESIAN_POINT('',(0.0,0.0,0.0));
#39=DIRECTION('',(0.0,0.0,1.0));
#40=DIRECTION('',(1.0,0.0,0.0));
#41=SHAPE_REPRESENTATION('',(#37),#36);
#42=PRODUCT_DEFINITION_SHAPE('','',#12);
#43=SHAPE_DEFINITION_REPRESENTATION(#42,#41);
#44=CARTESIAN_POINT('',(-7.500000000000000,7.500000000000002,0.0));
#45=DIRECTION('',(-0.707106781186548,0.707106781186548,0.0));
#46=DIRECTION('',(0.0,0.0,1.0));
#47=AXIS2_PLACEMENT_3D('',#44,#45,#46);
#48=PLANE('',#47);
#49=CARTESIAN_POINT('',(-9.500000000000000,5.500000000000003,2.500000000000000));
#50=VERTEX_POINT('',#49);
#51=CARTESIAN_POINT('',(-5.500000000000002,9.500000000000000,2.500000000000000));
#52=VERTEX_POINT('',#51);
#53=CARTESIAN_POINT('',(-9.500000000000000,5.500000000000003,2.500000000000000));
#54=DIRECTION('',(0.707106781186548,0.707106781186547,0.0));
#55=VECTOR('',#54,5.656854249492377);
#56=LINE('',#53,#55);
#57=EDGE_CURVE('',#50,#52,#56,.T.);
#58=ORIENTED_EDGE('',*,*,#57,.T.);
#59=CARTESIAN_POINT('',(-5.500000000000002,9.500000000000000,-2.500000000000000));
#60=VERTEX_POINT('',#59);
#61=CARTESIAN_POINT('',(-5.500000000000002,9.500000000000000,2.500000000000000));
#62=DIRECTION('',(0.0,0.0,-1.0));
#63=VECTOR('',#62,5.0);
#64=LINE('',#61,#63);
#65=EDGE_CURVE('',#52,#60,#64,.T.);
#66=ORIENTED_EDGE('',*,*,#65,.T.);
#67=CARTESIAN_POINT('',(-9.500000000000000,5.500000000000003,-2.500000000000000));
#68=VERTEX_POINT('',#67);
#69=CARTESIAN_POINT('',(-5.500000000000002,9.500000000000000,-2.500000000000000));
#70=DIRECTION('',(-0.707106781186548,-0.707106781186547,0.0));
#71=VECTOR('',#70,5.656854249492377);
#72=LINE('',#69,#71);
#73=EDGE_CURVE('',#60,#68,#72,.T.);
#74=ORIENTED_EDGE('',*,*,#73,.T.);
#75=CARTESIAN_POINT('',(-9.500000000000000,5.500000000000003,-2.500000000000000));
#76=DIRECTION('',(0.0,0.0,1.0));
#77=VECTOR('',#76,5.0);
#78=LINE('',#75,#77);
#79=EDGE_CURVE('',#68,#50,#78,.T.);
#80=ORIENTED_EDGE('',*,*,#79,.T.);
#81=EDGE_LOOP('',(#58,#66,#74,#80));
#82=FACE_OUTER_BOUND('',#81,.T.);
#83=ADVANCED_FACE('',(#82),#48,.T.);
#84=CARTESIAN_POINT('',(8.326673E-016,1.110223E-015,-2.500000000000000));
#85=DIRECTION('',(0.0,0.0,1.0));
#86=DIRECTION('',(1.0,0.0,0.0));
#87=AXIS2_PLACEMENT_3D('',#84,#85,#86);
#88=PLANE('',#87);
#89=ORIENTED_EDGE('',*,*,#73,.F.);
#90=CARTESIAN_POINT('',(5.500000000000003,9.499999999999998,-2.500000000000000));
#91=VERTEX_POINT('',#90);
#92=CARTESIAN_POINT('',(5.500000000000003,9.499999999999998,-2.500000000000000));
#93=DIRECTION('',(-1.0,0.0,0.0));
#94=VECTOR('',#93,11.000000000000004);
#95=LINE('',#92,#94);
#96=EDGE_CURVE('',#91,#60,#95,.T.);
#97=ORIENTED_EDGE('',*,*,#96,.F.);
#98=CARTESIAN_POINT('',(9.500000000000002,5.499999999999996,-2.500000000000000));
#99=VERTEX_POINT('',#98);
#100=CARTESIAN_POINT('',(9.500000000000002,5.499999999999996,-2.500000000000000));
#101=DIRECTION('',(-0.707106781186547,0.707106781186548,0.0));
#102=VECTOR('',#101,5.656854249492381);
#103=LINE('',#100,#102);
#104=EDGE_CURVE('',#99,#91,#103,.T.);
#105=ORIENTED_EDGE('',*,*,#104,.F.);
#106=CARTESIAN_POINT('',(9.500000000000002,-5.499999999999998,-2.500000000000000));
#107=VERTEX_POINT('',#106);
#108=CARTESIAN_POINT('',(9.500000000000002,-5.499999999999998,-2.500000000000000));
#109=DIRECTION('',(0.0,1.0,0.0));
#110=VECTOR('',#109,10.999999999999995);
#111=LINE('',#108,#110);
#112=EDGE_CURVE('',#107,#99,#111,.T.);
#113=ORIENTED_EDGE('',*,*,#112,.F.);
#114=CARTESIAN_POINT('',(5.500000000000002,-9.499999999999998,-2.500000000000000));
#115=VERTEX_POINT('',#114);
#116=CARTESIAN_POINT('',(5.500000000000002,-9.499999999999998,-2.500000000000000));
#117=DIRECTION('',(0.707106781186547,0.707106781186547,0.0));
#118=VECTOR('',#117,5.656854249492381);
#119=LINE('',#116,#118);
#120=EDGE_CURVE('',#115,#107,#119,.T.);
#121=ORIENTED_EDGE('',*,*,#120,.F.);
#122=CARTESIAN_POINT('',(-5.499999999999994,-9.500000000000000,-2.500000000000000));
#123=VERTEX_POINT('',#122);
#124=CARTESIAN_POINT('',(-5.499999999999994,-9.500000000000000,-2.500000000000000));
#125=DIRECTION('',(1.0,0.0,0.0));
#126=VECTOR('',#125,10.999999999999996);
#127=LINE('',#124,#126);
#128=EDGE_CURVE('',#123,#115,#127,.T.);
#129=ORIENTED_EDGE('',*,*,#128,.F.);
#130=CARTESIAN_POINT('',(-9.499999999999995,-5.500000000000003,-2.500000000000000));
#131=VERTEX_POINT('',#130);
#132=CARTESIAN_POINT('',(-9.499999999999995,-5.500000000000003,-2.500000000000000));
#133=DIRECTION('',(0.707106781186548,-0.707106781186547,0.0));
#134=VECTOR('',#133,5.656854249492379);
#135=LINE('',#132,#134);
#136=EDGE_CURVE('',#131,#123,#135,.T.);
#137=ORIENTED_EDGE('',*,*,#136,.F.);
#138=CARTESIAN_POINT('',(-9.500000000000000,5.500000000000003,-2.500000000000000));
#139=DIRECTION('',(0.0,-1.0,0.0));
#140=VECTOR('',#139,11.000000000000005);
#141=LINE('',#138,#140);
#142=EDGE_CURVE('',#68,#131,#141,.T.);
#143=ORIENTED_EDGE('',*,*,#142,.F.);
#144=EDGE_LOOP('',(#89,#97,#105,#113,#121,#129,#137,#143));
#145=FACE_OUTER_BOUND('',#144,.T.);
#146=CARTESIAN_POINT('',(-6.249999999999991,6.223998E-016,-2.500000000000000));
#147=VERTEX_POINT('',#146);
#148=CARTESIAN_POINT('',(8.881784E-015,1.387779E-015,-2.500000000000000));
#149=DIRECTION('',(0.0,0.0,1.0));
#150=DIRECTION('',(1.0,0.0,0.0));
#151=AXIS2_PLACEMENT_3D('',#148,#149,#150);
#152=CIRCLE('',#151,6.250000000000000);
#153=EDGE_CURVE('',#147,#147,#152,.T.);
#154=ORIENTED_EDGE('',*,*,#153,.T.);
#155=EDGE_LOOP('',(#154));
#156=FACE_BOUND('',#155,.T.);
#157=ADVANCED_FACE('',(#145,#156),#88,.F.);
#158=CARTESIAN_POINT('',(-9.500000000000002,9.500000000000002,0.0));
#159=DIRECTION('',(0.0,1.0,0.0));
#160=DIRECTION('',(0.0,0.0,1.0));
#161=AXIS2_PLACEMENT_3D('',#158,#159,#160);
#162=PLANE('',#161);
#163=ORIENTED_EDGE('',*,*,#65,.F.);
#164=CARTESIAN_POINT('',(5.500000000000003,9.499999999999998,2.500000000000000));
#165=VERTEX_POINT('',#164);
#166=CARTESIAN_POINT('',(-5.500000000000002,9.500000000000000,2.500000000000000));
#167=DIRECTION('',(1.0,0.0,0.0));
#168=VECTOR('',#167,11.000000000000004);
#169=LINE('',#166,#168);
#170=EDGE_CURVE('',#52,#165,#169,.T.);
#171=ORIENTED_EDGE('',*,*,#170,.T.);
#172=CARTESIAN_POINT('',(5.500000000000003,9.499999999999998,-2.500000000000000));
#173=DIRECTION('',(0.0,0.0,1.0));
#174=VECTOR('',#173,5.0);
#175=LINE('',#172,#174);
#176=EDGE_CURVE('',#91,#165,#175,.T.);
#177=ORIENTED_EDGE('',*,*,#176,.F.);
#178=ORIENTED_EDGE('',*,*,#96,.T.);
#179=EDGE_LOOP('',(#163,#171,#177,#178));
#180=FACE_OUTER_BOUND('',#179,.T.);
#181=ADVANCED_FACE('',(#180),#162,.T.);
#182=CARTESIAN_POINT('',(7.500000000000002,7.499999999999998,0.0));
#183=DIRECTION('',(0.707106781186548,0.707106781186547,0.0));
#184=DIRECTION('',(0.0,0.0,-1.0));
#185=AXIS2_PLACEMENT_3D('',#182,#183,#184);
#186=PLANE('',#185);
#187=ORIENTED_EDGE('',*,*,#104,.T.);
#188=ORIENTED_EDGE('',*,*,#176,.T.);
#189=CARTESIAN_POINT('',(9.500000000000002,5.499999999999996,2.500000000000000));
#190=VERTEX_POINT('',#189);
#191=CARTESIAN_POINT('',(5.500000000000003,9.499999999999998,2.500000000000000));
#192=DIRECTION('',(0.707106781186547,-0.707106781186548,0.0));
#193=VECTOR('',#192,5.656854249492381);
#194=LINE('',#191,#193);
#195=EDGE_CURVE('',#165,#190,#194,.T.);
#196=ORIENTED_EDGE('',*,*,#195,.T.);
#197=CARTESIAN_POINT('',(9.500000000000002,5.499999999999996,2.500000000000000));
#198=DIRECTION('',(0.0,0.0,-1.0));
#199=VECTOR('',#198,5.0);
#200=LINE('',#197,#199);
#201=EDGE_CURVE('',#190,#99,#200,.T.);
#202=ORIENTED_EDGE('',*,*,#201,.T.);
#203=EDGE_LOOP('',(#187,#188,#196,#202));
#204=FACE_OUTER_BOUND('',#203,.T.);
#205=ADVANCED_FACE('',(#204),#186,.T.);
#206=CARTESIAN_POINT('',(7.500000000000002,-7.499999999999998,0.0));
#207=DIRECTION('',(0.707106781186548,-0.707106781186547,0.0));
#208=DIRECTION('',(0.0,0.0,-1.0));
#209=AXIS2_PLACEMENT_3D('',#206,#207,#208);
#210=PLANE('',#209);
#211=ORIENTED_EDGE('',*,*,#120,.T.);
#212=CARTESIAN_POINT('',(9.500000000000002,-5.499999999999998,2.500000000000000));
#213=VERTEX_POINT('',#212);
#214=CARTESIAN_POINT('',(9.500000000000002,-5.499999999999998,-2.500000000000000));
#215=DIRECTION('',(0.0,0.0,1.0));
#216=VECTOR('',#215,5.0);
#217=LINE('',#214,#216);
#218=EDGE_CURVE('',#107,#213,#217,.T.);
#219=ORIENTED_EDGE('',*,*,#218,.T.);
#220=CARTESIAN_POINT('',(5.500000000000002,-9.499999999999998,2.500000000000000));
#221=VERTEX_POINT('',#220);
#222=CARTESIAN_POINT('',(9.500000000000002,-5.499999999999998,2.500000000000000));
#223=DIRECTION('',(-0.707106781186547,-0.707106781186547,0.0));
#224=VECTOR('',#223,5.656854249492381);
#225=LINE('',#222,#224);
#226=EDGE_CURVE('',#213,#221,#225,.T.);
#227=ORIENTED_EDGE('',*,*,#226,.T.);
#228=CARTESIAN_POINT('',(5.500000000000002,-9.499999999999998,2.500000000000000));
#229=DIRECTION('',(0.0,0.0,-1.0));
#230=VECTOR('',#229,5.0);
#231=LINE('',#228,#230);
#232=EDGE_CURVE('',#221,#115,#231,.T.);
#233=ORIENTED_EDGE('',*,*,#232,.T.);
#234=EDGE_LOOP('',(#211,#219,#227,#233));
#235=FACE_OUTER_BOUND('',#234,.T.);
#236=ADVANCED_FACE('',(#235),#210,.T.);
#237=CARTESIAN_POINT('',(9.500000000000002,-9.499999999999996,0.0));
#238=DIRECTION('',(0.0,-1.0,0.0));
#239=DIRECTION('',(0.0,0.0,-1.0));
#240=AXIS2_PLACEMENT_3D('',#237,#238,#239);
#241=PLANE('',#240);
#242=ORIENTED_EDGE('',*,*,#232,.F.);
#243=CARTESIAN_POINT('',(-5.499999999999994,-9.500000000000000,2.500000000000000));
#244=VERTEX_POINT('',#243);
#245=CARTESIAN_POINT('',(5.500000000000002,-9.499999999999998,2.500000000000000));
#246=DIRECTION('',(-1.0,0.0,0.0));
#247=VECTOR('',#246,10.999999999999996);
#248=LINE('',#245,#247);
#249=EDGE_CURVE('',#221,#244,#248,.T.);
#250=ORIENTED_EDGE('',*,*,#249,.T.);
#251=CARTESIAN_POINT('',(-5.499999999999994,-9.500000000000000,-2.500000000000000));
#252=DIRECTION('',(0.0,0.0,1.0));
#253=VECTOR('',#252,5.0);
#254=LINE('',#251,#253);
#255=EDGE_CURVE('',#123,#244,#254,.T.);
#256=ORIENTED_EDGE('',*,*,#255,.F.);
#257=ORIENTED_EDGE('',*,*,#128,.T.);
#258=EDGE_LOOP('',(#242,#250,#256,#257));
#259=FACE_OUTER_BOUND('',#258,.T.);
#260=ADVANCED_FACE('',(#259),#241,.T.);
#261=CARTESIAN_POINT('',(-7.499999999999993,-7.500000000000002,0.0));
#262=DIRECTION('',(-0.707106781186547,-0.707106781186548,0.0));
#263=DIRECTION('',(0.0,0.0,1.0));
#264=AXIS2_PLACEMENT_3D('',#261,#262,#263);
#265=PLANE('',#264);
#266=ORIENTED_EDGE('',*,*,#136,.T.);
#267=ORIENTED_EDGE('',*,*,#255,.T.);
#268=CARTESIAN_POINT('',(-9.499999999999995,-5.500000000000003,2.500000000000000));
#269=VERTEX_POINT('',#268);
#270=CARTESIAN_POINT('',(-5.499999999999994,-9.500000000000000,2.500000000000000));
#271=DIRECTION('',(-0.707106781186548,0.707106781186547,0.0));
#272=VECTOR('',#271,5.656854249492379);
#273=LINE('',#270,#272);
#274=EDGE_CURVE('',#244,#269,#273,.T.);
#275=ORIENTED_EDGE('',*,*,#274,.T.);
#276=CARTESIAN_POINT('',(-9.499999999999995,-5.500000000000003,2.500000000000000));
#277=DIRECTION('',(0.0,0.0,-1.0));
#278=VECTOR('',#277,5.0);
#279=LINE('',#276,#278);
#280=EDGE_CURVE('',#269,#131,#279,.T.);
#281=ORIENTED_EDGE('',*,*,#280,.T.);
#282=EDGE_LOOP('',(#266,#267,#275,#281));
#283=FACE_OUTER_BOUND('',#282,.T.);
#284=ADVANCED_FACE('',(#283),#265,.T.);
#285=CARTESIAN_POINT('',(-6.249999999999991,6.223998E-016,2.500000000000000));
#286=CARTESIAN_POINT('',(-6.249999999999991,6.223998E-016,-2.500000000000000));
#287=CARTESIAN_POINT('',(-6.249999999999989,-6.249999999999997,2.500000000000000));
#288=CARTESIAN_POINT('',(-6.249999999999989,-6.249999999999997,-2.500000000000000));
#289=CARTESIAN_POINT('',(9.647163E-015,-6.249999999999998,2.500000000000000));
#290=CARTESIAN_POINT('',(9.647163E-015,-6.249999999999998,-2.500000000000000));
#291=CARTESIAN_POINT('',(6.250000000000009,-6.249999999999996,2.500000000000000));
#292=CARTESIAN_POINT('',(6.250000000000009,-6.249999999999996,-2.500000000000000));
#293=CARTESIAN_POINT('',(6.250000000000009,2.153158E-015,2.500000000000000));
#294=CARTESIAN_POINT('',(6.250000000000009,2.153158E-015,-2.500000000000000));
#295=CARTESIAN_POINT('',(6.250000000000006,6.250000000000001,2.500000000000000));
#296=CARTESIAN_POINT('',(6.250000000000006,6.250000000000001,-2.500000000000000));
#297=CARTESIAN_POINT('',(8.116405E-015,6.250000000000002,2.500000000000000));
#298=CARTESIAN_POINT('',(8.116405E-015,6.250000000000002,-2.500000000000000));
#299=CARTESIAN_POINT('',(-6.249999999999989,6.249999999999998,2.500000000000000));
#300=CARTESIAN_POINT('',(-6.249999999999989,6.249999999999998,-2.500000000000000));
#301=CARTESIAN_POINT('',(-6.249999999999991,6.223998E-016,2.500000000000000));
#302=CARTESIAN_POINT('',(-6.249999999999991,6.223998E-016,-2.500000000000000));
#310=(BOUNDED_SURFACE()B_SPLINE_SURFACE(1,2,((#285,#287,#289,#291,#293,#295,#297,#299,#301),(#286,#288,#290,#292,#294,#296,#298,#300,#302)),.UNSPECIFIED.,.F.,.T.,.U.)B_SPLINE_SURFACE_WITH_KNOTS((2,2),(3,2,2,2,3),(-4.373008117989264,-3.573008117989264),(0.0,9.817477042468104,19.634954084936208,29.452431127404310,39.269908169872416),.UNSPECIFIED.)GEOMETRIC_REPRESENTATION_ITEM()RATIONAL_B_SPLINE_SURFACE(((1.0,0.707106781186548,1.0,0.707106781186548,1.0,0.707106781186548,1.0,0.707106781186548,1.0),(1.0,0.707106781186548,1.0,0.707106781186548,1.0,0.707106781186548,1.0,0.707106781186548,1.0)))REPRESENTATION_ITEM('')SURFACE());
#311=ORIENTED_EDGE('',*,*,#153,.F.);
#312=EDGE_LOOP('',(#311));
#313=FACE_OUTER_BOUND('',#312,.T.);
#314=CARTESIAN_POINT('',(6.250000000000009,1.387779E-015,2.500000000000000));
#315=VERTEX_POINT('',#314);
#316=CARTESIAN_POINT('',(8.881784E-015,1.387779E-015,2.500000000000000));
#317=DIRECTION('',(0.0,0.0,-1.0));
#318=DIRECTION('',(1.0,0.0,0.0));
#319=AXIS2_PLACEMENT_3D('',#316,#317,#318);
#320=CIRCLE('',#319,6.250000000000000);
#321=EDGE_CURVE('',#315,#315,#320,.T.);
#322=ORIENTED_EDGE('',*,*,#321,.F.);
#323=EDGE_LOOP('',(#322));
#324=FACE_BOUND('',#323,.T.);
#325=ADVANCED_FACE('',(#313,#324),#310,.F.);
#326=CARTESIAN_POINT('',(9.500000000000002,9.499999999999996,0.0));
#327=DIRECTION('',(1.0,0.0,0.0));
#328=DIRECTION('',(0.0,0.0,-1.0));
#329=AXIS2_PLACEMENT_3D('',#326,#327,#328);
#330=PLANE('',#329);
#331=ORIENTED_EDGE('',*,*,#201,.F.);
#332=CARTESIAN_POINT('',(9.500000000000002,5.499999999999996,2.500000000000000));
#333=DIRECTION('',(0.0,-1.0,0.0));
#334=VECTOR('',#333,10.999999999999995);
#335=LINE('',#332,#334);
#336=EDGE_CURVE('',#190,#213,#335,.T.);
#337=ORIENTED_EDGE('',*,*,#336,.T.);
#338=ORIENTED_EDGE('',*,*,#218,.F.);
#339=ORIENTED_EDGE('',*,*,#112,.T.);
#340=EDGE_LOOP('',(#331,#337,#338,#339));
#341=FACE_OUTER_BOUND('',#340,.T.);
#342=ADVANCED_FACE('',(#341),#330,.T.);
#343=CARTESIAN_POINT('',(-9.499999999999993,-9.500000000000002,0.0));
#344=DIRECTION('',(-1.0,0.0,0.0));
#345=DIRECTION('',(0.0,0.0,1.0));
#346=AXIS2_PLACEMENT_3D('',#343,#344,#345);
#347=PLANE('',#346);
#348=ORIENTED_EDGE('',*,*,#79,.F.);
#349=ORIENTED_EDGE('',*,*,#142,.T.);
#350=ORIENTED_EDGE('',*,*,#280,.F.);
#351=CARTESIAN_POINT('',(-9.499999999999995,-5.500000000000003,2.500000000000000));
#352=DIRECTION('',(0.0,1.0,0.0));
#353=VECTOR('',#352,11.000000000000005);
#354=LINE('',#351,#353);
#355=EDGE_CURVE('',#269,#50,#354,.T.);
#356=ORIENTED_EDGE('',*,*,#355,.T.);
#357=EDGE_LOOP('',(#348,#349,#350,#356));
#358=FACE_OUTER_BOUND('',#357,.T.);
#359=ADVANCED_FACE('',(#358),#347,.T.);
#360=CARTESIAN_POINT('',(8.326673E-016,1.110223E-015,2.500000000000000));
#361=DIRECTION('',(0.0,0.0,1.0));
#362=DIRECTION('',(1.0,0.0,0.0));
#363=AXIS2_PLACEMENT_3D('',#360,#361,#362);
#364=PLANE('',#363);
#365=ORIENTED_EDGE('',*,*,#57,.F.);
#366=ORIENTED_EDGE('',*,*,#355,.F.);
#367=ORIENTED_EDGE('',*,*,#274,.F.);
#368=ORIENTED_EDGE('',*,*,#249,.F.);
#369=ORIENTED_EDGE('',*,*,#226,.F.);
#370=ORIENTED_EDGE('',*,*,#336,.F.);
#371=ORIENTED_EDGE('',*,*,#195,.F.);
#372=ORIENTED_EDGE('',*,*,#170,.F.);
#373=EDGE_LOOP('',(#365,#366,#367,#368,#369,#370,#371,#372));
#374=FACE_OUTER_BOUND('',#373,.T.);
#375=ORIENTED_EDGE('',*,*,#321,.T.);
#376=EDGE_LOOP('',(#375));
#377=FACE_BOUND('',#376,.T.);
#378=ADVANCED_FACE('',(#374,#377),#364,.T.);
#379=CLOSED_SHELL('',(#83,#157,#181,#205,#236,#260,#284,#325,#342,#359,#378));
#380=MANIFOLD_SOLID_BREP('',#379);
#381=COLOUR_RGB('Aluminium (gleichmig)',0.847058832645416,0.839215695858002,0.839215695858002);
#382=FILL_AREA_STYLE_COLOUR('Aluminium (gleichmig)',#381);
#383=FILL_AREA_STYLE('Aluminium (gleichmig)',(#382));
#384=SURFACE_STYLE_FILL_AREA(#383);
#385=SURFACE_SIDE_STYLE('Aluminium (gleichmig)',(#384));
#386=SURFACE_STYLE_USAGE(.BOTH.,#385);
#387=PRESENTATION_STYLE_ASSIGNMENT((#386));
#388=STYLED_ITEM('',(#387),#380);
#389=MECHANICAL_DESIGN_GEOMETRIC_PRESENTATION_REPRESENTATION('',(#388),#36);
#390=ADVANCED_BREP_SHAPE_REPRESENTATION('ABSR',(#380),#36);
#391=SHAPE_REPRESENTATION_RELATIONSHIP('SRR','None',#390,#41);
ENDSEC;
END-ISO-10303-21;
