ISO-10303-21;
HEADER;
/****************************************************************
 * Generated by software with PDE/Lib inside                    *
 * PDElib Version v51a, created Tue 12/06/2005                  *
 * International Technegroup Inc. (www.iti-oh.com)              *
 ****************************************************************/
FILE_DESCRIPTION((''),'2;1');
FILE_NAME('U:\\Paletti Norm\\Paletti Artikel f. Palkat\\STEP\\SV4006V.ipt.step','2007-09-10T15:15:13',(''),(''),'Autodesk Inventor 11','Autodesk Inventor 11','');
FILE_SCHEMA(('AUTOMOTIVE_DESIGN { 1 0 10303 214 1 1 1 1 }'));
ENDSEC;
DATA;
#5=APPLICATION_CONTEXT('automotive design');
#6=APPLICATION_PROTOCOL_DEFINITION('International Standard','automotive_design',2001,#5);
#7=PRODUCT_CONTEXT('',#5,'mechanical');
#8=PRODUCT('SV4006V','SV4006V',$,(#7));
#9=PRODUCT_RELATED_PRODUCT_CATEGORY('part',$,(#8));
#10=PRODUCT_DEFINITION_FORMATION('',$,#8);
#11=PRODUCT_DEFINITION_CONTEXT('part definition',#5,'design');
#12=PRODUCT_DEFINITION('',$,#10,#11);
#18=(NAMED_UNIT(*)PLANE_ANGLE_UNIT()SI_UNIT($,.RADIAN.));
#19=DIMENSIONAL_EXPONENTS(0.0,0.0,0.0,0.0,0.0,0.0,0.0);
#20=PLANE_ANGLE_MEASURE_WITH_UNIT(PLANE_ANGLE_MEASURE(0.017453292500000),#18);
#24=(CONVERSION_BASED_UNIT('DEGREE',#20)NAMED_UNIT(#19)PLANE_ANGLE_UNIT());
#28=(NAMED_UNIT(*)SI_UNIT($,.STERADIAN.)SOLID_ANGLE_UNIT());
#32=(LENGTH_UNIT()NAMED_UNIT(*)SI_UNIT(.MILLI.,.METRE.));
#34=UNCERTAINTY_MEASURE_WITH_UNIT(LENGTH_MEASURE(0.010000000000000),#32,'DISTANCE_ACCURACY_VALUE','');
#36=(GEOMETRIC_REPRESENTATION_CONTEXT(3)GLOBAL_UNCERTAINTY_ASSIGNED_CONTEXT((#34))GLOBAL_UNIT_ASSIGNED_CONTEXT((#24,#28,#32))REPRESENTATION_CONTEXT('None','None'));
#37=AXIS2_PLACEMENT_3D('',#38,#39,#40);
#38=CARTESIAN_POINT('',(0.0,0.0,0.0));
#39=DIRECTION('',(0.0,0.0,1.0));
#40=DIRECTION('',(1.0,0.0,0.0));
#41=SHAPE_REPRESENTATION('',(#37),#36);
#42=PRODUCT_DEFINITION_SHAPE('','',#12);
#43=SHAPE_DEFINITION_REPRESENTATION(#42,#41);
#44=CARTESIAN_POINT('',(-10.000000000000007,-20.000000000000004,4.0));
#45=CARTESIAN_POINT('',(-10.000000000000007,-20.000000000000004,-4.0));
#46=CARTESIAN_POINT('',(-10.000000000000005,-30.0,4.0));
#47=CARTESIAN_POINT('',(-10.000000000000005,-30.0,-4.0));
#48=CARTESIAN_POINT('',(-6.661338E-015,-30.000000000000004,4.0));
#49=CARTESIAN_POINT('',(-6.661338E-015,-30.000000000000004,-4.0));
#50=CARTESIAN_POINT('',(9.999999999999991,-30.0,4.0));
#51=CARTESIAN_POINT('',(9.999999999999991,-30.0,-4.0));
#52=CARTESIAN_POINT('',(9.999999999999993,-20.000000000000004,4.0));
#53=CARTESIAN_POINT('',(9.999999999999993,-20.000000000000004,-4.0));
#54=CARTESIAN_POINT('',(9.999999999999991,-10.000000000000005,4.0));
#55=CARTESIAN_POINT('',(9.999999999999991,-10.000000000000005,-4.0));
#56=CARTESIAN_POINT('',(-6.661338E-015,-10.000000000000004,4.0));
#57=CARTESIAN_POINT('',(-6.661338E-015,-10.000000000000004,-4.0));
#58=CARTESIAN_POINT('',(-10.000000000000005,-10.000000000000005,4.0));
#59=CARTESIAN_POINT('',(-10.000000000000005,-10.000000000000005,-4.0));
#60=CARTESIAN_POINT('',(-10.000000000000007,-20.000000000000004,4.0));
#61=CARTESIAN_POINT('',(-10.000000000000007,-20.000000000000004,-4.0));
#69=(BOUNDED_SURFACE()B_SPLINE_SURFACE(1,2,((#44,#46,#48,#50,#52,#54,#56,#58,#60),(#45,#47,#49,#51,#53,#55,#57,#59,#61)),.UNSPECIFIED.,.F.,.T.,.U.)B_SPLINE_SURFACE_WITH_KNOTS((2,2),(3,2,2,2,3),(-7.557777451076476,-6.757777451076476),(0.0,15.707963267948966,31.415926535897931,47.123889803846893,62.831853071795862),.UNSPECIFIED.)GEOMETRIC_REPRESENTATION_ITEM()RATIONAL_B_SPLINE_SURFACE(((1.0,0.707106781186548,1.0,0.707106781186548,1.0,0.707106781186548,1.0,0.707106781186548,1.0),(1.0,0.707106781186548,1.0,0.707106781186548,1.0,0.707106781186548,1.0,0.707106781186548,1.0)))REPRESENTATION_ITEM('')SURFACE());
#70=CARTESIAN_POINT('',(-10.000000000000007,-20.000000000000004,-4.000000000000004));
#71=VERTEX_POINT('',#70);
#72=CARTESIAN_POINT('',(-6.661338E-015,-20.000000000000004,-4.000000000000004));
#73=DIRECTION('',(0.0,0.0,1.0));
#74=DIRECTION('',(1.0,0.0,0.0));
#75=AXIS2_PLACEMENT_3D('',#72,#73,#74);
#76=CIRCLE('',#75,10.0);
#77=EDGE_CURVE('',#71,#71,#76,.T.);
#78=ORIENTED_EDGE('',*,*,#77,.F.);
#79=EDGE_LOOP('',(#78));
#80=FACE_OUTER_BOUND('',#79,.T.);
#81=CARTESIAN_POINT('',(9.999999999999993,-20.000000000000004,4.0));
#82=VERTEX_POINT('',#81);
#83=CARTESIAN_POINT('',(-6.661338E-015,-20.000000000000004,4.000000000000004));
#84=DIRECTION('',(0.0,0.0,-1.0));
#85=DIRECTION('',(1.0,0.0,0.0));
#86=AXIS2_PLACEMENT_3D('',#83,#84,#85);
#87=CIRCLE('',#86,10.0);
#88=EDGE_CURVE('',#82,#82,#87,.T.);
#89=ORIENTED_EDGE('',*,*,#88,.F.);
#90=EDGE_LOOP('',(#89));
#91=FACE_BOUND('',#90,.T.);
#92=ADVANCED_FACE('',(#80,#91),#69,.F.);
#93=CARTESIAN_POINT('',(-10.000000000000007,20.000000000000004,4.0));
#94=CARTESIAN_POINT('',(-10.000000000000007,20.000000000000004,-4.0));
#95=CARTESIAN_POINT('',(-10.000000000000005,10.000000000000005,4.0));
#96=CARTESIAN_POINT('',(-10.000000000000005,10.000000000000005,-4.0));
#97=CARTESIAN_POINT('',(-6.661338E-015,10.000000000000004,4.0));
#98=CARTESIAN_POINT('',(-6.661338E-015,10.000000000000004,-4.0));
#99=CARTESIAN_POINT('',(9.999999999999991,10.000000000000005,4.0));
#100=CARTESIAN_POINT('',(9.999999999999991,10.000000000000005,-4.0));
#101=CARTESIAN_POINT('',(9.999999999999993,20.000000000000004,4.0));
#102=CARTESIAN_POINT('',(9.999999999999993,20.000000000000004,-4.0));
#103=CARTESIAN_POINT('',(9.999999999999991,30.0,4.0));
#104=CARTESIAN_POINT('',(9.999999999999991,30.0,-4.0));
#105=CARTESIAN_POINT('',(-6.661338E-015,30.000000000000004,4.0));
#106=CARTESIAN_POINT('',(-6.661338E-015,30.000000000000004,-4.0));
#107=CARTESIAN_POINT('',(-10.000000000000005,30.0,4.0));
#108=CARTESIAN_POINT('',(-10.000000000000005,30.0,-4.0));
#109=CARTESIAN_POINT('',(-10.000000000000007,20.000000000000004,4.0));
#110=CARTESIAN_POINT('',(-10.000000000000007,20.000000000000004,-4.0));
#118=(BOUNDED_SURFACE()B_SPLINE_SURFACE(1,2,((#93,#95,#97,#99,#101,#103,#105,#107,#109),(#94,#96,#98,#100,#102,#104,#106,#108,#110)),.UNSPECIFIED.,.F.,.T.,.U.)B_SPLINE_SURFACE_WITH_KNOTS((2,2),(3,2,2,2,3),(-7.557777451076476,-6.757777451076476),(0.0,15.707963267948966,31.415926535897931,47.123889803846893,62.831853071795862),.UNSPECIFIED.)GEOMETRIC_REPRESENTATION_ITEM()RATIONAL_B_SPLINE_SURFACE(((1.0,0.707106781186548,1.0,0.707106781186548,1.0,0.707106781186548,1.0,0.707106781186548,1.0),(1.0,0.707106781186548,1.0,0.707106781186548,1.0,0.707106781186548,1.0,0.707106781186548,1.0)))REPRESENTATION_ITEM('')SURFACE());
#119=CARTESIAN_POINT('',(-10.000000000000007,20.000000000000004,-4.000000000000004));
#120=VERTEX_POINT('',#119);
#121=CARTESIAN_POINT('',(-6.661338E-015,20.000000000000004,-4.000000000000004));
#122=DIRECTION('',(0.0,0.0,1.0));
#123=DIRECTION('',(1.0,0.0,0.0));
#124=AXIS2_PLACEMENT_3D('',#121,#122,#123);
#125=CIRCLE('',#124,10.0);
#126=EDGE_CURVE('',#120,#120,#125,.T.);
#127=ORIENTED_EDGE('',*,*,#126,.F.);
#128=EDGE_LOOP('',(#127));
#129=FACE_OUTER_BOUND('',#128,.T.);
#130=CARTESIAN_POINT('',(9.999999999999993,20.000000000000004,4.0));
#131=VERTEX_POINT('',#130);
#132=CARTESIAN_POINT('',(-6.661338E-015,20.000000000000004,4.000000000000004));
#133=DIRECTION('',(0.0,0.0,-1.0));
#134=DIRECTION('',(1.0,0.0,0.0));
#135=AXIS2_PLACEMENT_3D('',#132,#133,#134);
#136=CIRCLE('',#135,10.0);
#137=EDGE_CURVE('',#131,#131,#136,.T.);
#138=ORIENTED_EDGE('',*,*,#137,.F.);
#139=EDGE_LOOP('',(#138));
#140=FACE_BOUND('',#139,.T.);
#141=ADVANCED_FACE('',(#129,#140),#118,.F.);
#142=CARTESIAN_POINT('',(12.999999999999993,31.000000000000011,0.0));
#143=DIRECTION('',(0.707106781186548,0.707106781186547,0.0));
#144=DIRECTION('',(0.0,0.0,-1.0));
#145=AXIS2_PLACEMENT_3D('',#142,#143,#144);
#146=PLANE('',#145);
#147=CARTESIAN_POINT('',(15.999999999999995,28.000000000000007,-4.0));
#148=VERTEX_POINT('',#147);
#149=CARTESIAN_POINT('',(9.999999999999993,34.000000000000014,-4.0));
#150=VERTEX_POINT('',#149);
#151=CARTESIAN_POINT('',(15.999999999999995,28.000000000000007,-4.0));
#152=DIRECTION('',(-0.707106781186547,0.707106781186548,0.0));
#153=VECTOR('',#152,8.485281374238577);
#154=LINE('',#151,#153);
#155=EDGE_CURVE('',#148,#150,#154,.T.);
#156=ORIENTED_EDGE('',*,*,#155,.T.);
#157=CARTESIAN_POINT('',(9.999999999999993,34.000000000000014,4.0));
#158=VERTEX_POINT('',#157);
#159=CARTESIAN_POINT('',(9.999999999999993,34.000000000000014,-4.0));
#160=DIRECTION('',(0.0,0.0,1.0));
#161=VECTOR('',#160,8.0);
#162=LINE('',#159,#161);
#163=EDGE_CURVE('',#150,#158,#162,.T.);
#164=ORIENTED_EDGE('',*,*,#163,.T.);
#165=CARTESIAN_POINT('',(15.999999999999995,28.000000000000007,4.0));
#166=VERTEX_POINT('',#165);
#167=CARTESIAN_POINT('',(9.999999999999993,34.000000000000014,4.0));
#168=DIRECTION('',(0.707106781186547,-0.707106781186548,0.0));
#169=VECTOR('',#168,8.485281374238577);
#170=LINE('',#167,#169);
#171=EDGE_CURVE('',#158,#166,#170,.T.);
#172=ORIENTED_EDGE('',*,*,#171,.T.);
#173=CARTESIAN_POINT('',(15.999999999999995,28.000000000000007,4.0));
#174=DIRECTION('',(0.0,0.0,-1.0));
#175=VECTOR('',#174,8.0);
#176=LINE('',#173,#175);
#177=EDGE_CURVE('',#166,#148,#176,.T.);
#178=ORIENTED_EDGE('',*,*,#177,.T.);
#179=EDGE_LOOP('',(#156,#164,#172,#178));
#180=FACE_OUTER_BOUND('',#179,.T.);
#181=ADVANCED_FACE('',(#180),#146,.T.);
#182=CARTESIAN_POINT('',(-16.000000000000007,34.0,0.0));
#183=DIRECTION('',(0.0,1.0,0.0));
#184=DIRECTION('',(0.0,0.0,1.0));
#185=AXIS2_PLACEMENT_3D('',#182,#183,#184);
#186=PLANE('',#185);
#187=ORIENTED_EDGE('',*,*,#163,.F.);
#188=CARTESIAN_POINT('',(-10.000000000000007,34.0,-4.0));
#189=VERTEX_POINT('',#188);
#190=CARTESIAN_POINT('',(9.999999999999993,34.000000000000014,-4.0));
#191=DIRECTION('',(-1.0,0.0,0.0));
#192=VECTOR('',#191,20.0);
#193=LINE('',#190,#192);
#194=EDGE_CURVE('',#150,#189,#193,.T.);
#195=ORIENTED_EDGE('',*,*,#194,.T.);
#196=CARTESIAN_POINT('',(-10.000000000000007,34.0,4.0));
#197=VERTEX_POINT('',#196);
#198=CARTESIAN_POINT('',(-10.000000000000007,34.0,4.0));
#199=DIRECTION('',(0.0,0.0,-1.0));
#200=VECTOR('',#199,8.0);
#201=LINE('',#198,#200);
#202=EDGE_CURVE('',#197,#189,#201,.T.);
#203=ORIENTED_EDGE('',*,*,#202,.F.);
#204=CARTESIAN_POINT('',(-10.000000000000007,34.0,4.0));
#205=DIRECTION('',(1.0,0.0,0.0));
#206=VECTOR('',#205,20.0);
#207=LINE('',#204,#206);
#208=EDGE_CURVE('',#197,#158,#207,.T.);
#209=ORIENTED_EDGE('',*,*,#208,.T.);
#210=EDGE_LOOP('',(#187,#195,#203,#209));
#211=FACE_OUTER_BOUND('',#210,.T.);
#212=ADVANCED_FACE('',(#211),#186,.T.);
#213=CARTESIAN_POINT('',(-6.661338E-015,2.220446E-015,-4.0));
#214=DIRECTION('',(0.0,0.0,1.0));
#215=DIRECTION('',(1.0,0.0,0.0));
#216=AXIS2_PLACEMENT_3D('',#213,#214,#215);
#217=PLANE('',#216);
#218=ORIENTED_EDGE('',*,*,#155,.F.);
#219=CARTESIAN_POINT('',(15.999999999999995,-28.000000000000014,-4.0));
#220=VERTEX_POINT('',#219);
#221=CARTESIAN_POINT('',(15.999999999999995,-28.000000000000014,-4.0));
#222=DIRECTION('',(0.0,1.0,0.0));
#223=VECTOR('',#222,56.000000000000021);
#224=LINE('',#221,#223);
#225=EDGE_CURVE('',#220,#148,#224,.T.);
#226=ORIENTED_EDGE('',*,*,#225,.F.);
#227=CARTESIAN_POINT('',(9.999999999999995,-34.000000000000014,-4.0));
#228=VERTEX_POINT('',#227);
#229=CARTESIAN_POINT('',(9.999999999999995,-34.000000000000014,-4.0));
#230=DIRECTION('',(0.707106781186548,0.707106781186548,0.0));
#231=VECTOR('',#230,8.485281374238570);
#232=LINE('',#229,#231);
#233=EDGE_CURVE('',#228,#220,#232,.T.);
#234=ORIENTED_EDGE('',*,*,#233,.F.);
#235=CARTESIAN_POINT('',(-10.000000000000007,-34.0,-4.0));
#236=VERTEX_POINT('',#235);
#237=CARTESIAN_POINT('',(-10.000000000000007,-34.0,-4.0));
#238=DIRECTION('',(1.0,0.0,0.0));
#239=VECTOR('',#238,20.0);
#240=LINE('',#237,#239);
#241=EDGE_CURVE('',#236,#228,#240,.T.);
#242=ORIENTED_EDGE('',*,*,#241,.F.);
#243=CARTESIAN_POINT('',(-16.000000000000007,-28.000000000000004,-4.0));
#244=VERTEX_POINT('',#243);
#245=CARTESIAN_POINT('',(-16.000000000000007,-28.000000000000004,-4.0));
#246=DIRECTION('',(0.707106781186548,-0.707106781186547,0.0));
#247=VECTOR('',#246,8.485281374238568);
#248=LINE('',#245,#247);
#249=EDGE_CURVE('',#244,#236,#248,.T.);
#250=ORIENTED_EDGE('',*,*,#249,.F.);
#251=CARTESIAN_POINT('',(-16.000000000000007,28.000000000000007,-4.0));
#252=VERTEX_POINT('',#251);
#253=CARTESIAN_POINT('',(-16.000000000000007,28.000000000000007,-4.0));
#254=DIRECTION('',(0.0,-1.0,0.0));
#255=VECTOR('',#254,56.000000000000014);
#256=LINE('',#253,#255);
#257=EDGE_CURVE('',#252,#244,#256,.T.);
#258=ORIENTED_EDGE('',*,*,#257,.F.);
#259=CARTESIAN_POINT('',(-10.000000000000007,34.0,-4.0));
#260=DIRECTION('',(-0.707106781186548,-0.707106781186547,0.0));
#261=VECTOR('',#260,8.485281374238566);
#262=LINE('',#259,#261);
#263=EDGE_CURVE('',#189,#252,#262,.T.);
#264=ORIENTED_EDGE('',*,*,#263,.F.);
#265=ORIENTED_EDGE('',*,*,#194,.F.);
#266=EDGE_LOOP('',(#218,#226,#234,#242,#250,#258,#264,#265));
#267=FACE_OUTER_BOUND('',#266,.T.);
#268=ORIENTED_EDGE('',*,*,#77,.T.);
#269=EDGE_LOOP('',(#268));
#270=FACE_BOUND('',#269,.T.);
#271=ORIENTED_EDGE('',*,*,#126,.T.);
#272=EDGE_LOOP('',(#271));
#273=FACE_BOUND('',#272,.T.);
#274=ADVANCED_FACE('',(#267,#270,#273),#217,.F.);
#275=CARTESIAN_POINT('',(-13.000000000000007,31.000000000000007,0.0));
#276=DIRECTION('',(-0.707106781186547,0.707106781186548,0.0));
#277=DIRECTION('',(0.0,0.0,1.0));
#278=AXIS2_PLACEMENT_3D('',#275,#276,#277);
#279=PLANE('',#278);
#280=ORIENTED_EDGE('',*,*,#263,.T.);
#281=CARTESIAN_POINT('',(-16.000000000000007,28.000000000000007,4.0));
#282=VERTEX_POINT('',#281);
#283=CARTESIAN_POINT('',(-16.000000000000007,28.000000000000007,-4.0));
#284=DIRECTION('',(0.0,0.0,1.0));
#285=VECTOR('',#284,8.0);
#286=LINE('',#283,#285);
#287=EDGE_CURVE('',#252,#282,#286,.T.);
#288=ORIENTED_EDGE('',*,*,#287,.T.);
#289=CARTESIAN_POINT('',(-16.000000000000007,28.000000000000007,4.0));
#290=DIRECTION('',(0.707106781186548,0.707106781186547,0.0));
#291=VECTOR('',#290,8.485281374238566);
#292=LINE('',#289,#291);
#293=EDGE_CURVE('',#282,#197,#292,.T.);
#294=ORIENTED_EDGE('',*,*,#293,.T.);
#295=ORIENTED_EDGE('',*,*,#202,.T.);
#296=EDGE_LOOP('',(#280,#288,#294,#295));
#297=FACE_OUTER_BOUND('',#296,.T.);
#298=ADVANCED_FACE('',(#297),#279,.T.);
#299=CARTESIAN_POINT('',(-16.000000000000007,-34.0,0.0));
#300=DIRECTION('',(-1.0,0.0,0.0));
#301=DIRECTION('',(0.0,0.0,1.0));
#302=AXIS2_PLACEMENT_3D('',#299,#300,#301);
#303=PLANE('',#302);
#304=ORIENTED_EDGE('',*,*,#287,.F.);
#305=ORIENTED_EDGE('',*,*,#257,.T.);
#306=CARTESIAN_POINT('',(-16.000000000000007,-28.000000000000004,4.0));
#307=VERTEX_POINT('',#306);
#308=CARTESIAN_POINT('',(-16.000000000000007,-28.000000000000004,4.0));
#309=DIRECTION('',(0.0,0.0,-1.0));
#310=VECTOR('',#309,8.0);
#311=LINE('',#308,#310);
#312=EDGE_CURVE('',#307,#244,#311,.T.);
#313=ORIENTED_EDGE('',*,*,#312,.F.);
#314=CARTESIAN_POINT('',(-16.000000000000007,-28.000000000000004,4.0));
#315=DIRECTION('',(0.0,1.0,0.0));
#316=VECTOR('',#315,56.000000000000014);
#317=LINE('',#314,#316);
#318=EDGE_CURVE('',#307,#282,#317,.T.);
#319=ORIENTED_EDGE('',*,*,#318,.T.);
#320=EDGE_LOOP('',(#304,#305,#313,#319));
#321=FACE_OUTER_BOUND('',#320,.T.);
#322=ADVANCED_FACE('',(#321),#303,.T.);
#323=CARTESIAN_POINT('',(12.999999999999993,-31.000000000000014,0.0));
#324=DIRECTION('',(0.707106781186547,-0.707106781186548,0.0));
#325=DIRECTION('',(0.0,0.0,-1.0));
#326=AXIS2_PLACEMENT_3D('',#323,#324,#325);
#327=PLANE('',#326);
#328=CARTESIAN_POINT('',(15.999999999999995,-28.000000000000014,4.0));
#329=VERTEX_POINT('',#328);
#330=CARTESIAN_POINT('',(9.999999999999995,-34.000000000000014,4.0));
#331=VERTEX_POINT('',#330);
#332=CARTESIAN_POINT('',(15.999999999999995,-28.000000000000014,4.0));
#333=DIRECTION('',(-0.707106781186548,-0.707106781186548,0.0));
#334=VECTOR('',#333,8.485281374238570);
#335=LINE('',#332,#334);
#336=EDGE_CURVE('',#329,#331,#335,.T.);
#337=ORIENTED_EDGE('',*,*,#336,.T.);
#338=CARTESIAN_POINT('',(9.999999999999995,-34.000000000000014,4.0));
#339=DIRECTION('',(0.0,0.0,-1.0));
#340=VECTOR('',#339,8.0);
#341=LINE('',#338,#340);
#342=EDGE_CURVE('',#331,#228,#341,.T.);
#343=ORIENTED_EDGE('',*,*,#342,.T.);
#344=ORIENTED_EDGE('',*,*,#233,.T.);
#345=CARTESIAN_POINT('',(15.999999999999995,-28.000000000000014,-4.0));
#346=DIRECTION('',(0.0,0.0,1.0));
#347=VECTOR('',#346,8.0);
#348=LINE('',#345,#347);
#349=EDGE_CURVE('',#220,#329,#348,.T.);
#350=ORIENTED_EDGE('',*,*,#349,.T.);
#351=EDGE_LOOP('',(#337,#343,#344,#350));
#352=FACE_OUTER_BOUND('',#351,.T.);
#353=ADVANCED_FACE('',(#352),#327,.T.);
#354=CARTESIAN_POINT('',(15.999999999999995,-34.000000000000014,0.0));
#355=DIRECTION('',(0.0,-1.0,0.0));
#356=DIRECTION('',(0.0,0.0,-1.0));
#357=AXIS2_PLACEMENT_3D('',#354,#355,#356);
#358=PLANE('',#357);
#359=ORIENTED_EDGE('',*,*,#342,.F.);
#360=CARTESIAN_POINT('',(-10.000000000000007,-34.0,4.0));
#361=VERTEX_POINT('',#360);
#362=CARTESIAN_POINT('',(9.999999999999995,-34.000000000000014,4.0));
#363=DIRECTION('',(-1.0,0.0,0.0));
#364=VECTOR('',#363,20.0);
#365=LINE('',#362,#364);
#366=EDGE_CURVE('',#331,#361,#365,.T.);
#367=ORIENTED_EDGE('',*,*,#366,.T.);
#368=CARTESIAN_POINT('',(-10.000000000000007,-34.0,-4.0));
#369=DIRECTION('',(0.0,0.0,1.0));
#370=VECTOR('',#369,8.0);
#371=LINE('',#368,#370);
#372=EDGE_CURVE('',#236,#361,#371,.T.);
#373=ORIENTED_EDGE('',*,*,#372,.F.);
#374=ORIENTED_EDGE('',*,*,#241,.T.);
#375=EDGE_LOOP('',(#359,#367,#373,#374));
#376=FACE_OUTER_BOUND('',#375,.T.);
#377=ADVANCED_FACE('',(#376),#358,.T.);
#378=CARTESIAN_POINT('',(-13.000000000000007,-31.000000000000007,0.0));
#379=DIRECTION('',(-0.707106781186548,-0.707106781186548,0.0));
#380=DIRECTION('',(0.0,0.0,1.0));
#381=AXIS2_PLACEMENT_3D('',#378,#379,#380);
#382=PLANE('',#381);
#383=ORIENTED_EDGE('',*,*,#249,.T.);
#384=ORIENTED_EDGE('',*,*,#372,.T.);
#385=CARTESIAN_POINT('',(-10.000000000000007,-34.0,4.0));
#386=DIRECTION('',(-0.707106781186548,0.707106781186547,0.0));
#387=VECTOR('',#386,8.485281374238568);
#388=LINE('',#385,#387);
#389=EDGE_CURVE('',#361,#307,#388,.T.);
#390=ORIENTED_EDGE('',*,*,#389,.T.);
#391=ORIENTED_EDGE('',*,*,#312,.T.);
#392=EDGE_LOOP('',(#383,#384,#390,#391));
#393=FACE_OUTER_BOUND('',#392,.T.);
#394=ADVANCED_FACE('',(#393),#382,.T.);
#395=CARTESIAN_POINT('',(15.999999999999995,34.000000000000014,0.0));
#396=DIRECTION('',(1.0,0.0,0.0));
#397=DIRECTION('',(0.0,0.0,-1.0));
#398=AXIS2_PLACEMENT_3D('',#395,#396,#397);
#399=PLANE('',#398);
#400=ORIENTED_EDGE('',*,*,#177,.F.);
#401=CARTESIAN_POINT('',(15.999999999999995,28.000000000000007,4.0));
#402=DIRECTION('',(0.0,-1.0,0.0));
#403=VECTOR('',#402,56.000000000000021);
#404=LINE('',#401,#403);
#405=EDGE_CURVE('',#166,#329,#404,.T.);
#406=ORIENTED_EDGE('',*,*,#405,.T.);
#407=ORIENTED_EDGE('',*,*,#349,.F.);
#408=ORIENTED_EDGE('',*,*,#225,.T.);
#409=EDGE_LOOP('',(#400,#406,#407,#408));
#410=FACE_OUTER_BOUND('',#409,.T.);
#411=ADVANCED_FACE('',(#410),#399,.T.);
#412=CARTESIAN_POINT('',(-6.661338E-015,2.220446E-015,4.0));
#413=DIRECTION('',(0.0,0.0,1.0));
#414=DIRECTION('',(1.0,0.0,0.0));
#415=AXIS2_PLACEMENT_3D('',#412,#413,#414);
#416=PLANE('',#415);
#417=ORIENTED_EDGE('',*,*,#171,.F.);
#418=ORIENTED_EDGE('',*,*,#208,.F.);
#419=ORIENTED_EDGE('',*,*,#293,.F.);
#420=ORIENTED_EDGE('',*,*,#318,.F.);
#421=ORIENTED_EDGE('',*,*,#389,.F.);
#422=ORIENTED_EDGE('',*,*,#366,.F.);
#423=ORIENTED_EDGE('',*,*,#336,.F.);
#424=ORIENTED_EDGE('',*,*,#405,.F.);
#425=EDGE_LOOP('',(#417,#418,#419,#420,#421,#422,#423,#424));
#426=FACE_OUTER_BOUND('',#425,.T.);
#427=ORIENTED_EDGE('',*,*,#88,.T.);
#428=EDGE_LOOP('',(#427));
#429=FACE_BOUND('',#428,.T.);
#430=ORIENTED_EDGE('',*,*,#137,.T.);
#431=EDGE_LOOP('',(#430));
#432=FACE_BOUND('',#431,.T.);
#433=ADVANCED_FACE('',(#426,#429,#432),#416,.T.);
#434=CLOSED_SHELL('',(#92,#141,#181,#212,#274,#298,#322,#353,#377,#394,#411,#433));
#435=MANIFOLD_SOLID_BREP('',#434);
#436=COLOUR_RGB('Aluminium (gleichmig)',0.847058832645416,0.839215695858002,0.839215695858002);
#437=FILL_AREA_STYLE_COLOUR('Aluminium (gleichmig)',#436);
#438=FILL_AREA_STYLE('Aluminium (gleichmig)',(#437));
#439=SURFACE_STYLE_FILL_AREA(#438);
#440=SURFACE_SIDE_STYLE('Aluminium (gleichmig)',(#439));
#441=SURFACE_STYLE_USAGE(.BOTH.,#440);
#442=PRESENTATION_STYLE_ASSIGNMENT((#441));
#443=STYLED_ITEM('',(#442),#435);
#444=MECHANICAL_DESIGN_GEOMETRIC_PRESENTATION_REPRESENTATION('',(#443),#36);
#445=ADVANCED_BREP_SHAPE_REPRESENTATION('ABSR',(#435),#36);
#446=SHAPE_REPRESENTATION_RELATIONSHIP('SRR','None',#445,#41);
ENDSEC;
END-ISO-10303-21;
