ISO-10303-21;
HEADER;
/****************************************************************
 * Generated by software with PDE/Lib inside                    *
 * PDElib Version v51a, created Tue 12/06/2005                  *
 * International Technegroup Inc. (www.iti-oh.com)              *
 ****************************************************************/
FILE_DESCRIPTION((''),'2;1');
FILE_NAME('U:\\Paletti Norm\\Paletti Artikel f. Palkat\\STEP\\SP793_extern.ipt.step','2007-09-10T15:12:07',(''),(''),'Autodesk Inventor 11','Autodesk Inventor 11','');
FILE_SCHEMA(('AUTOMOTIVE_DESIGN { 1 0 10303 214 1 1 1 1 }'));
ENDSEC;
DATA;
#5=APPLICATION_CONTEXT('automotive design');
#6=APPLICATION_PROTOCOL_DEFINITION('International Standard','automotive_design',2001,#5);
#7=PRODUCT_CONTEXT('',#5,'mechanical');
#8=PRODUCT('SP793_extern','SP793_extern',$,(#7));
#9=PRODUCT_RELATED_PRODUCT_CATEGORY('part',$,(#8));
#10=PRODUCT_DEFINITION_FORMATION('',$,#8);
#11=PRODUCT_DEFINITION_CONTEXT('part definition',#5,'design');
#12=PRODUCT_DEFINITION('',$,#10,#11);
#18=(NAMED_UNIT(*)PLANE_ANGLE_UNIT()SI_UNIT($,.RADIAN.));
#19=DIMENSIONAL_EXPONENTS(0.0,0.0,0.0,0.0,0.0,0.0,0.0);
#20=PLANE_ANGLE_MEASURE_WITH_UNIT(PLANE_ANGLE_MEASURE(0.017453292500000),#18);
#24=(CONVERSION_BASED_UNIT('DEGREE',#20)NAMED_UNIT(#19)PLANE_ANGLE_UNIT());
#28=(NAMED_UNIT(*)SI_UNIT($,.STERADIAN.)SOLID_ANGLE_UNIT());
#32=(LENGTH_UNIT()NAMED_UNIT(*)SI_UNIT(.MILLI.,.METRE.));
#34=UNCERTAINTY_MEASURE_WITH_UNIT(LENGTH_MEASURE(0.010000000000000),#32,'DISTANCE_ACCURACY_VALUE','');
#36=(GEOMETRIC_REPRESENTATION_CONTEXT(3)GLOBAL_UNCERTAINTY_ASSIGNED_CONTEXT((#34))GLOBAL_UNIT_ASSIGNED_CONTEXT((#24,#28,#32))REPRESENTATION_CONTEXT('None','None'));
#37=AXIS2_PLACEMENT_3D('',#38,#39,#40);
#38=CARTESIAN_POINT('',(0.0,0.0,0.0));
#39=DIRECTION('',(0.0,0.0,1.0));
#40=DIRECTION('',(1.0,0.0,0.0));
#41=SHAPE_REPRESENTATION('',(#37),#36);
#42=PRODUCT_DEFINITION_SHAPE('','',#12);
#43=SHAPE_DEFINITION_REPRESENTATION(#42,#41);
#44=CARTESIAN_POINT('',(3.209238E-016,-0.644444444444445,-0.500000000000000));
#45=DIRECTION('',(0.0,0.0,1.0));
#46=DIRECTION('',(1.0,0.0,0.0));
#47=AXIS2_PLACEMENT_3D('',#44,#45,#46);
#48=PLANE('',#47);
#49=CARTESIAN_POINT('',(-4.100000000000000,-2.400000000000000,-0.500000000000000));
#50=VERTEX_POINT('',#49);
#51=CARTESIAN_POINT('',(-3.700000000000000,-2.400000000000000,-0.500000000000000));
#52=VERTEX_POINT('',#51);
#53=CARTESIAN_POINT('',(-4.100000000000000,-2.400000000000000,-0.500000000000000));
#54=DIRECTION('',(1.0,0.0,0.0));
#55=VECTOR('',#54,0.399999999999999);
#56=LINE('',#53,#55);
#57=EDGE_CURVE('',#50,#52,#56,.T.);
#58=ORIENTED_EDGE('',*,*,#57,.F.);
#59=CARTESIAN_POINT('',(-4.100000000000000,0.0,-0.500000000000000));
#60=VERTEX_POINT('',#59);
#61=CARTESIAN_POINT('',(-4.100000000000000,0.0,-0.500000000000000));
#62=DIRECTION('',(0.0,-1.0,0.0));
#63=VECTOR('',#62,2.400000000000000);
#64=LINE('',#61,#63);
#65=EDGE_CURVE('',#60,#50,#64,.T.);
#66=ORIENTED_EDGE('',*,*,#65,.F.);
#67=CARTESIAN_POINT('',(4.100000000000000,0.0,-0.500000000000000));
#68=VERTEX_POINT('',#67);
#69=CARTESIAN_POINT('',(4.100000000000000,0.0,-0.500000000000000));
#70=DIRECTION('',(-1.0,0.0,0.0));
#71=VECTOR('',#70,8.199999999999999);
#72=LINE('',#69,#71);
#73=EDGE_CURVE('',#68,#60,#72,.T.);
#74=ORIENTED_EDGE('',*,*,#73,.F.);
#75=CARTESIAN_POINT('',(4.100000000000000,-2.400000000000000,-0.500000000000000));
#76=VERTEX_POINT('',#75);
#77=CARTESIAN_POINT('',(4.100000000000000,-2.400000000000000,-0.500000000000000));
#78=DIRECTION('',(0.0,1.0,0.0));
#79=VECTOR('',#78,2.400000000000000);
#80=LINE('',#77,#79);
#81=EDGE_CURVE('',#76,#68,#80,.T.);
#82=ORIENTED_EDGE('',*,*,#81,.F.);
#83=CARTESIAN_POINT('',(3.700000000000000,-2.400000000000001,-0.500000000000000));
#84=VERTEX_POINT('',#83);
#85=CARTESIAN_POINT('',(3.700000000000000,-2.400000000000001,-0.500000000000000));
#86=DIRECTION('',(1.0,0.0,0.0));
#87=VECTOR('',#86,0.399999999999999);
#88=LINE('',#85,#87);
#89=EDGE_CURVE('',#84,#76,#88,.T.);
#90=ORIENTED_EDGE('',*,*,#89,.F.);
#91=CARTESIAN_POINT('',(3.700000000000000,-0.400000000000001,-0.500000000000000));
#92=VERTEX_POINT('',#91);
#93=CARTESIAN_POINT('',(3.700000000000000,-0.400000000000001,-0.500000000000000));
#94=DIRECTION('',(0.0,-1.0,0.0));
#95=VECTOR('',#94,2.000000000000000);
#96=LINE('',#93,#95);
#97=EDGE_CURVE('',#92,#84,#96,.T.);
#98=ORIENTED_EDGE('',*,*,#97,.F.);
#99=CARTESIAN_POINT('',(-3.700000000000000,-0.400000000000001,-0.500000000000000));
#100=VERTEX_POINT('',#99);
#101=CARTESIAN_POINT('',(-3.700000000000000,-0.400000000000001,-0.500000000000000));
#102=DIRECTION('',(1.0,0.0,0.0));
#103=VECTOR('',#102,7.400000000000000);
#104=LINE('',#101,#103);
#105=EDGE_CURVE('',#100,#92,#104,.T.);
#106=ORIENTED_EDGE('',*,*,#105,.F.);
#107=CARTESIAN_POINT('',(-3.700000000000000,-2.400000000000000,-0.500000000000000));
#108=DIRECTION('',(0.0,1.0,0.0));
#109=VECTOR('',#108,1.999999999999999);
#110=LINE('',#107,#109);
#111=EDGE_CURVE('',#52,#100,#110,.T.);
#112=ORIENTED_EDGE('',*,*,#111,.F.);
#113=EDGE_LOOP('',(#58,#66,#74,#82,#90,#98,#106,#112));
#114=FACE_OUTER_BOUND('',#113,.T.);
#115=ADVANCED_FACE('',(#114),#48,.F.);
#116=CARTESIAN_POINT('',(-4.100000000000000,0.0,0.0));
#117=DIRECTION('',(0.0,1.0,0.0));
#118=DIRECTION('',(0.0,0.0,1.0));
#119=AXIS2_PLACEMENT_3D('',#116,#117,#118);
#120=PLANE('',#119);
#121=CARTESIAN_POINT('',(-4.100000000000000,0.0,0.500000000000000));
#122=VERTEX_POINT('',#121);
#123=CARTESIAN_POINT('',(4.100000000000000,0.0,0.500000000000000));
#124=VERTEX_POINT('',#123);
#125=CARTESIAN_POINT('',(-4.100000000000000,0.0,0.500000000000000));
#126=DIRECTION('',(1.0,0.0,0.0));
#127=VECTOR('',#126,8.199999999999999);
#128=LINE('',#125,#127);
#129=EDGE_CURVE('',#122,#124,#128,.T.);
#130=ORIENTED_EDGE('',*,*,#129,.T.);
#131=CARTESIAN_POINT('',(4.100000000000000,0.0,0.500000000000000));
#132=DIRECTION('',(0.0,0.0,-1.0));
#133=VECTOR('',#132,1.0);
#134=LINE('',#131,#133);
#135=EDGE_CURVE('',#124,#68,#134,.T.);
#136=ORIENTED_EDGE('',*,*,#135,.T.);
#137=ORIENTED_EDGE('',*,*,#73,.T.);
#138=CARTESIAN_POINT('',(-4.100000000000000,0.0,0.500000000000000));
#139=DIRECTION('',(0.0,0.0,-1.0));
#140=VECTOR('',#139,1.0);
#141=LINE('',#138,#140);
#142=EDGE_CURVE('',#122,#60,#141,.T.);
#143=ORIENTED_EDGE('',*,*,#142,.F.);
#144=EDGE_LOOP('',(#130,#136,#137,#143));
#145=FACE_OUTER_BOUND('',#144,.T.);
#146=ADVANCED_FACE('',(#145),#120,.T.);
#147=CARTESIAN_POINT('',(4.100000000000000,0.0,0.0));
#148=DIRECTION('',(1.0,0.0,0.0));
#149=DIRECTION('',(0.0,0.0,-1.0));
#150=AXIS2_PLACEMENT_3D('',#147,#148,#149);
#151=PLANE('',#150);
#152=CARTESIAN_POINT('',(4.100000000000000,-2.400000000000000,0.500000000000000));
#153=VERTEX_POINT('',#152);
#154=CARTESIAN_POINT('',(4.100000000000000,0.0,0.500000000000000));
#155=DIRECTION('',(0.0,-1.0,0.0));
#156=VECTOR('',#155,2.400000000000000);
#157=LINE('',#154,#156);
#158=EDGE_CURVE('',#124,#153,#157,.T.);
#159=ORIENTED_EDGE('',*,*,#158,.T.);
#160=CARTESIAN_POINT('',(4.100000000000000,-2.400000000000000,0.500000000000000));
#161=DIRECTION('',(0.0,0.0,-1.0));
#162=VECTOR('',#161,1.0);
#163=LINE('',#160,#162);
#164=EDGE_CURVE('',#153,#76,#163,.T.);
#165=ORIENTED_EDGE('',*,*,#164,.T.);
#166=ORIENTED_EDGE('',*,*,#81,.T.);
#167=ORIENTED_EDGE('',*,*,#135,.F.);
#168=EDGE_LOOP('',(#159,#165,#166,#167));
#169=FACE_OUTER_BOUND('',#168,.T.);
#170=ADVANCED_FACE('',(#169),#151,.T.);
#171=CARTESIAN_POINT('',(4.100000000000000,-2.400000000000000,0.0));
#172=DIRECTION('',(0.0,-1.0,0.0));
#173=DIRECTION('',(0.0,0.0,-1.0));
#174=AXIS2_PLACEMENT_3D('',#171,#172,#173);
#175=PLANE('',#174);
#176=CARTESIAN_POINT('',(3.700000000000000,-2.400000000000001,0.500000000000000));
#177=VERTEX_POINT('',#176);
#178=CARTESIAN_POINT('',(4.100000000000000,-2.400000000000000,0.500000000000000));
#179=DIRECTION('',(-1.0,0.0,0.0));
#180=VECTOR('',#179,0.399999999999999);
#181=LINE('',#178,#180);
#182=EDGE_CURVE('',#153,#177,#181,.T.);
#183=ORIENTED_EDGE('',*,*,#182,.T.);
#184=CARTESIAN_POINT('',(3.700000000000000,-2.400000000000001,0.500000000000000));
#185=DIRECTION('',(0.0,0.0,-1.0));
#186=VECTOR('',#185,1.0);
#187=LINE('',#184,#186);
#188=EDGE_CURVE('',#177,#84,#187,.T.);
#189=ORIENTED_EDGE('',*,*,#188,.T.);
#190=ORIENTED_EDGE('',*,*,#89,.T.);
#191=ORIENTED_EDGE('',*,*,#164,.F.);
#192=EDGE_LOOP('',(#183,#189,#190,#191));
#193=FACE_OUTER_BOUND('',#192,.T.);
#194=ADVANCED_FACE('',(#193),#175,.T.);
#195=CARTESIAN_POINT('',(3.700000000000000,-2.400000000000001,0.0));
#196=DIRECTION('',(-1.0,0.0,0.0));
#197=DIRECTION('',(0.0,0.0,1.0));
#198=AXIS2_PLACEMENT_3D('',#195,#196,#197);
#199=PLANE('',#198);
#200=CARTESIAN_POINT('',(3.700000000000000,-0.400000000000001,0.500000000000000));
#201=VERTEX_POINT('',#200);
#202=CARTESIAN_POINT('',(3.700000000000000,-2.400000000000001,0.500000000000000));
#203=DIRECTION('',(0.0,1.0,0.0));
#204=VECTOR('',#203,2.000000000000000);
#205=LINE('',#202,#204);
#206=EDGE_CURVE('',#177,#201,#205,.T.);
#207=ORIENTED_EDGE('',*,*,#206,.T.);
#208=CARTESIAN_POINT('',(3.700000000000000,-0.400000000000001,0.500000000000000));
#209=DIRECTION('',(0.0,0.0,-1.0));
#210=VECTOR('',#209,1.0);
#211=LINE('',#208,#210);
#212=EDGE_CURVE('',#201,#92,#211,.T.);
#213=ORIENTED_EDGE('',*,*,#212,.T.);
#214=ORIENTED_EDGE('',*,*,#97,.T.);
#215=ORIENTED_EDGE('',*,*,#188,.F.);
#216=EDGE_LOOP('',(#207,#213,#214,#215));
#217=FACE_OUTER_BOUND('',#216,.T.);
#218=ADVANCED_FACE('',(#217),#199,.T.);
#219=CARTESIAN_POINT('',(3.700000000000000,-0.400000000000001,0.0));
#220=DIRECTION('',(0.0,-1.0,0.0));
#221=DIRECTION('',(0.0,0.0,-1.0));
#222=AXIS2_PLACEMENT_3D('',#219,#220,#221);
#223=PLANE('',#222);
#224=CARTESIAN_POINT('',(-3.700000000000000,-0.400000000000001,0.500000000000000));
#225=VERTEX_POINT('',#224);
#226=CARTESIAN_POINT('',(3.700000000000000,-0.400000000000001,0.500000000000000));
#227=DIRECTION('',(-1.0,0.0,0.0));
#228=VECTOR('',#227,7.400000000000000);
#229=LINE('',#226,#228);
#230=EDGE_CURVE('',#201,#225,#229,.T.);
#231=ORIENTED_EDGE('',*,*,#230,.T.);
#232=CARTESIAN_POINT('',(-3.700000000000000,-0.400000000000001,0.500000000000000));
#233=DIRECTION('',(0.0,0.0,-1.0));
#234=VECTOR('',#233,1.0);
#235=LINE('',#232,#234);
#236=EDGE_CURVE('',#225,#100,#235,.T.);
#237=ORIENTED_EDGE('',*,*,#236,.T.);
#238=ORIENTED_EDGE('',*,*,#105,.T.);
#239=ORIENTED_EDGE('',*,*,#212,.F.);
#240=EDGE_LOOP('',(#231,#237,#238,#239));
#241=FACE_OUTER_BOUND('',#240,.T.);
#242=ADVANCED_FACE('',(#241),#223,.T.);
#243=CARTESIAN_POINT('',(-3.700000000000000,-0.400000000000001,0.0));
#244=DIRECTION('',(1.0,0.0,0.0));
#245=DIRECTION('',(0.0,0.0,-1.0));
#246=AXIS2_PLACEMENT_3D('',#243,#244,#245);
#247=PLANE('',#246);
#248=CARTESIAN_POINT('',(-3.700000000000000,-2.400000000000000,0.500000000000000));
#249=VERTEX_POINT('',#248);
#250=CARTESIAN_POINT('',(-3.700000000000000,-0.400000000000001,0.500000000000000));
#251=DIRECTION('',(0.0,-1.0,0.0));
#252=VECTOR('',#251,1.999999999999999);
#253=LINE('',#250,#252);
#254=EDGE_CURVE('',#225,#249,#253,.T.);
#255=ORIENTED_EDGE('',*,*,#254,.T.);
#256=CARTESIAN_POINT('',(-3.700000000000000,-2.400000000000000,0.500000000000000));
#257=DIRECTION('',(0.0,0.0,-1.0));
#258=VECTOR('',#257,1.0);
#259=LINE('',#256,#258);
#260=EDGE_CURVE('',#249,#52,#259,.T.);
#261=ORIENTED_EDGE('',*,*,#260,.T.);
#262=ORIENTED_EDGE('',*,*,#111,.T.);
#263=ORIENTED_EDGE('',*,*,#236,.F.);
#264=EDGE_LOOP('',(#255,#261,#262,#263));
#265=FACE_OUTER_BOUND('',#264,.T.);
#266=ADVANCED_FACE('',(#265),#247,.T.);
#267=CARTESIAN_POINT('',(-3.700000000000000,-2.400000000000000,0.0));
#268=DIRECTION('',(0.0,-1.0,0.0));
#269=DIRECTION('',(0.0,0.0,-1.0));
#270=AXIS2_PLACEMENT_3D('',#267,#268,#269);
#271=PLANE('',#270);
#272=CARTESIAN_POINT('',(-4.100000000000000,-2.400000000000000,0.500000000000000));
#273=VERTEX_POINT('',#272);
#274=CARTESIAN_POINT('',(-3.700000000000000,-2.400000000000000,0.500000000000000));
#275=DIRECTION('',(-1.0,0.0,0.0));
#276=VECTOR('',#275,0.399999999999999);
#277=LINE('',#274,#276);
#278=EDGE_CURVE('',#249,#273,#277,.T.);
#279=ORIENTED_EDGE('',*,*,#278,.T.);
#280=CARTESIAN_POINT('',(-4.100000000000000,-2.400000000000000,-0.500000000000000));
#281=DIRECTION('',(0.0,0.0,1.0));
#282=VECTOR('',#281,1.0);
#283=LINE('',#280,#282);
#284=EDGE_CURVE('',#50,#273,#283,.T.);
#285=ORIENTED_EDGE('',*,*,#284,.F.);
#286=ORIENTED_EDGE('',*,*,#57,.T.);
#287=ORIENTED_EDGE('',*,*,#260,.F.);
#288=EDGE_LOOP('',(#279,#285,#286,#287));
#289=FACE_OUTER_BOUND('',#288,.T.);
#290=ADVANCED_FACE('',(#289),#271,.T.);
#291=CARTESIAN_POINT('',(-4.100000000000000,-2.400000000000000,0.0));
#292=DIRECTION('',(-1.0,0.0,0.0));
#293=DIRECTION('',(0.0,0.0,1.0));
#294=AXIS2_PLACEMENT_3D('',#291,#292,#293);
#295=PLANE('',#294);
#296=CARTESIAN_POINT('',(-4.100000000000000,-2.400000000000000,0.500000000000000));
#297=DIRECTION('',(0.0,1.0,0.0));
#298=VECTOR('',#297,2.400000000000000);
#299=LINE('',#296,#298);
#300=EDGE_CURVE('',#273,#122,#299,.T.);
#301=ORIENTED_EDGE('',*,*,#300,.T.);
#302=ORIENTED_EDGE('',*,*,#142,.T.);
#303=ORIENTED_EDGE('',*,*,#65,.T.);
#304=ORIENTED_EDGE('',*,*,#284,.T.);
#305=EDGE_LOOP('',(#301,#302,#303,#304));
#306=FACE_OUTER_BOUND('',#305,.T.);
#307=ADVANCED_FACE('',(#306),#295,.T.);
#308=CARTESIAN_POINT('',(4.089241E-016,-0.644444444444445,0.500000000000000));
#309=DIRECTION('',(0.0,0.0,1.0));
#310=DIRECTION('',(1.0,0.0,0.0));
#311=AXIS2_PLACEMENT_3D('',#308,#309,#310);
#312=PLANE('',#311);
#313=ORIENTED_EDGE('',*,*,#129,.F.);
#314=ORIENTED_EDGE('',*,*,#300,.F.);
#315=ORIENTED_EDGE('',*,*,#278,.F.);
#316=ORIENTED_EDGE('',*,*,#254,.F.);
#317=ORIENTED_EDGE('',*,*,#230,.F.);
#318=ORIENTED_EDGE('',*,*,#206,.F.);
#319=ORIENTED_EDGE('',*,*,#182,.F.);
#320=ORIENTED_EDGE('',*,*,#158,.F.);
#321=EDGE_LOOP('',(#313,#314,#315,#316,#317,#318,#319,#320));
#322=FACE_OUTER_BOUND('',#321,.T.);
#323=ADVANCED_FACE('',(#322),#312,.T.);
#324=CLOSED_SHELL('',(#115,#146,#170,#194,#218,#242,#266,#290,#307,#323));
#325=MANIFOLD_SOLID_BREP('',#324);
#326=COLOUR_RGB('Metall-AL-6061 (gleichm.)',0.847058832645416,0.839215695858002,0.839215695858002);
#327=FILL_AREA_STYLE_COLOUR('Metall-AL-6061 (gleichm.)',#326);
#328=FILL_AREA_STYLE('Metall-AL-6061 (gleichm.)',(#327));
#329=SURFACE_STYLE_FILL_AREA(#328);
#330=SURFACE_SIDE_STYLE('Metall-AL-6061 (gleichm.)',(#329));
#331=SURFACE_STYLE_USAGE(.BOTH.,#330);
#332=PRESENTATION_STYLE_ASSIGNMENT((#331));
#333=STYLED_ITEM('',(#332),#325);
#334=MECHANICAL_DESIGN_GEOMETRIC_PRESENTATION_REPRESENTATION('',(#333),#36);
#335=ADVANCED_BREP_SHAPE_REPRESENTATION('ABSR',(#325),#36);
#336=SHAPE_REPRESENTATION_RELATIONSHIP('SRR','None',#335,#41);
ENDSEC;
END-ISO-10303-21;
