ISO-10303-21;
HEADER;
/****************************************************************
 * Generated by software with PDE/Lib inside                    *
 * PDElib Version v51a, created Tue 12/06/2005                  *
 * International Technegroup Inc. (www.iti-oh.com)              *
 ****************************************************************/
FILE_DESCRIPTION((''),'2;1');
FILE_NAME('U:\\Paletti Norm\\Paletti Artikel f. Palkat\\STEP\\SP791_extern.ipt.step','2007-09-10T15:12:07',(''),(''),'Autodesk Inventor 11','Autodesk Inventor 11','');
FILE_SCHEMA(('AUTOMOTIVE_DESIGN { 1 0 10303 214 1 1 1 1 }'));
ENDSEC;
DATA;
#5=APPLICATION_CONTEXT('automotive design');
#6=APPLICATION_PROTOCOL_DEFINITION('International Standard','automotive_design',2001,#5);
#7=PRODUCT_CONTEXT('',#5,'mechanical');
#8=PRODUCT('SP791_extern','SP791_extern',$,(#7));
#9=PRODUCT_RELATED_PRODUCT_CATEGORY('part',$,(#8));
#10=PRODUCT_DEFINITION_FORMATION('',$,#8);
#11=PRODUCT_DEFINITION_CONTEXT('part definition',#5,'design');
#12=PRODUCT_DEFINITION('',$,#10,#11);
#18=(NAMED_UNIT(*)PLANE_ANGLE_UNIT()SI_UNIT($,.RADIAN.));
#19=DIMENSIONAL_EXPONENTS(0.0,0.0,0.0,0.0,0.0,0.0,0.0);
#20=PLANE_ANGLE_MEASURE_WITH_UNIT(PLANE_ANGLE_MEASURE(0.017453292500000),#18);
#24=(CONVERSION_BASED_UNIT('DEGREE',#20)NAMED_UNIT(#19)PLANE_ANGLE_UNIT());
#28=(NAMED_UNIT(*)SI_UNIT($,.STERADIAN.)SOLID_ANGLE_UNIT());
#32=(LENGTH_UNIT()NAMED_UNIT(*)SI_UNIT(.MILLI.,.METRE.));
#34=UNCERTAINTY_MEASURE_WITH_UNIT(LENGTH_MEASURE(0.010000000000000),#32,'DISTANCE_ACCURACY_VALUE','');
#36=(GEOMETRIC_REPRESENTATION_CONTEXT(3)GLOBAL_UNCERTAINTY_ASSIGNED_CONTEXT((#34))GLOBAL_UNIT_ASSIGNED_CONTEXT((#24,#28,#32))REPRESENTATION_CONTEXT('None','None'));
#37=AXIS2_PLACEMENT_3D('',#38,#39,#40);
#38=CARTESIAN_POINT('',(0.0,0.0,0.0));
#39=DIRECTION('',(0.0,0.0,1.0));
#40=DIRECTION('',(1.0,0.0,0.0));
#41=SHAPE_REPRESENTATION('',(#37),#36);
#42=PRODUCT_DEFINITION_SHAPE('','',#12);
#43=SHAPE_DEFINITION_REPRESENTATION(#42,#41);
#44=CARTESIAN_POINT('',(-6.000000000000001,-1.000000000000000,0.0));
#45=DIRECTION('',(1.0,0.0,0.0));
#46=DIRECTION('',(0.0,0.0,-1.0));
#47=AXIS2_PLACEMENT_3D('',#44,#45,#46);
#48=PLANE('',#47);
#49=CARTESIAN_POINT('',(-6.000000000000001,-1.000000000000000,0.500000000000000));
#50=VERTEX_POINT('',#49);
#51=CARTESIAN_POINT('',(-6.000000000000001,-3.900000000000000,0.500000000000000));
#52=VERTEX_POINT('',#51);
#53=CARTESIAN_POINT('',(-6.000000000000001,-1.000000000000000,0.500000000000000));
#54=DIRECTION('',(0.0,-1.0,0.0));
#55=VECTOR('',#54,2.899999999999999);
#56=LINE('',#53,#55);
#57=EDGE_CURVE('',#50,#52,#56,.T.);
#58=ORIENTED_EDGE('',*,*,#57,.T.);
#59=CARTESIAN_POINT('',(-6.000000000000001,-3.900000000000000,-0.500000000000000));
#60=VERTEX_POINT('',#59);
#61=CARTESIAN_POINT('',(-6.000000000000001,-3.900000000000000,-0.500000000000000));
#62=DIRECTION('',(0.0,0.0,1.0));
#63=VECTOR('',#62,1.0);
#64=LINE('',#61,#63);
#65=EDGE_CURVE('',#60,#52,#64,.T.);
#66=ORIENTED_EDGE('',*,*,#65,.F.);
#67=CARTESIAN_POINT('',(-6.000000000000001,-1.000000000000000,-0.500000000000000));
#68=VERTEX_POINT('',#67);
#69=CARTESIAN_POINT('',(-6.000000000000001,-3.900000000000000,-0.500000000000000));
#70=DIRECTION('',(0.0,1.0,0.0));
#71=VECTOR('',#70,2.899999999999999);
#72=LINE('',#69,#71);
#73=EDGE_CURVE('',#60,#68,#72,.T.);
#74=ORIENTED_EDGE('',*,*,#73,.T.);
#75=CARTESIAN_POINT('',(-6.000000000000001,-1.000000000000000,-0.500000000000000));
#76=DIRECTION('',(0.0,0.0,1.0));
#77=VECTOR('',#76,1.0);
#78=LINE('',#75,#77);
#79=EDGE_CURVE('',#68,#50,#78,.T.);
#80=ORIENTED_EDGE('',*,*,#79,.T.);
#81=EDGE_LOOP('',(#58,#66,#74,#80));
#82=FACE_OUTER_BOUND('',#81,.T.);
#83=ADVANCED_FACE('',(#82),#48,.T.);
#84=CARTESIAN_POINT('',(-6.000000000000001,-3.900000000000000,0.0));
#85=DIRECTION('',(0.0,-1.0,0.0));
#86=DIRECTION('',(0.0,0.0,-1.0));
#87=AXIS2_PLACEMENT_3D('',#84,#85,#86);
#88=PLANE('',#87);
#89=CARTESIAN_POINT('',(-7.000000000000001,-3.900000000000000,0.500000000000000));
#90=VERTEX_POINT('',#89);
#91=CARTESIAN_POINT('',(-6.000000000000001,-3.900000000000000,0.500000000000000));
#92=DIRECTION('',(-1.0,0.0,0.0));
#93=VECTOR('',#92,1.0);
#94=LINE('',#91,#93);
#95=EDGE_CURVE('',#52,#90,#94,.T.);
#96=ORIENTED_EDGE('',*,*,#95,.T.);
#97=CARTESIAN_POINT('',(-7.000000000000001,-3.900000000000000,-0.500000000000000));
#98=VERTEX_POINT('',#97);
#99=CARTESIAN_POINT('',(-7.000000000000001,-3.900000000000000,-0.500000000000000));
#100=DIRECTION('',(0.0,0.0,1.0));
#101=VECTOR('',#100,1.0);
#102=LINE('',#99,#101);
#103=EDGE_CURVE('',#98,#90,#102,.T.);
#104=ORIENTED_EDGE('',*,*,#103,.F.);
#105=CARTESIAN_POINT('',(-7.000000000000001,-3.900000000000000,-0.500000000000000));
#106=DIRECTION('',(1.0,0.0,0.0));
#107=VECTOR('',#106,1.0);
#108=LINE('',#105,#107);
#109=EDGE_CURVE('',#98,#60,#108,.T.);
#110=ORIENTED_EDGE('',*,*,#109,.T.);
#111=ORIENTED_EDGE('',*,*,#65,.T.);
#112=EDGE_LOOP('',(#96,#104,#110,#111));
#113=FACE_OUTER_BOUND('',#112,.T.);
#114=ADVANCED_FACE('',(#113),#88,.T.);
#115=CARTESIAN_POINT('',(-7.000000000000001,-3.900000000000000,0.0));
#116=DIRECTION('',(-1.0,0.0,0.0));
#117=DIRECTION('',(0.0,0.0,1.0));
#118=AXIS2_PLACEMENT_3D('',#115,#116,#117);
#119=PLANE('',#118);
#120=CARTESIAN_POINT('',(-7.000000000000001,0.0,0.500000000000000));
#121=VERTEX_POINT('',#120);
#122=CARTESIAN_POINT('',(-7.000000000000001,-3.900000000000000,0.500000000000000));
#123=DIRECTION('',(0.0,1.0,0.0));
#124=VECTOR('',#123,3.900000000000000);
#125=LINE('',#122,#124);
#126=EDGE_CURVE('',#90,#121,#125,.T.);
#127=ORIENTED_EDGE('',*,*,#126,.T.);
#128=CARTESIAN_POINT('',(-7.000000000000001,0.0,-0.500000000000000));
#129=VERTEX_POINT('',#128);
#130=CARTESIAN_POINT('',(-7.000000000000001,0.0,-0.500000000000000));
#131=DIRECTION('',(0.0,0.0,1.0));
#132=VECTOR('',#131,1.0);
#133=LINE('',#130,#132);
#134=EDGE_CURVE('',#129,#121,#133,.T.);
#135=ORIENTED_EDGE('',*,*,#134,.F.);
#136=CARTESIAN_POINT('',(-7.000000000000001,0.0,-0.500000000000000));
#137=DIRECTION('',(0.0,-1.0,0.0));
#138=VECTOR('',#137,3.900000000000000);
#139=LINE('',#136,#138);
#140=EDGE_CURVE('',#129,#98,#139,.T.);
#141=ORIENTED_EDGE('',*,*,#140,.T.);
#142=ORIENTED_EDGE('',*,*,#103,.T.);
#143=EDGE_LOOP('',(#127,#135,#141,#142));
#144=FACE_OUTER_BOUND('',#143,.T.);
#145=ADVANCED_FACE('',(#144),#119,.T.);
#146=CARTESIAN_POINT('',(4.298165137614679,-1.151834862385321,-0.500000000000000));
#147=DIRECTION('',(0.0,0.0,1.0));
#148=DIRECTION('',(1.0,0.0,0.0));
#149=AXIS2_PLACEMENT_3D('',#146,#147,#148);
#150=PLANE('',#149);
#151=CARTESIAN_POINT('',(6.000000000000001,-1.000000000000000,-0.500000000000000));
#152=VERTEX_POINT('',#151);
#153=CARTESIAN_POINT('',(-6.000000000000001,-1.000000000000000,-0.500000000000000));
#154=DIRECTION('',(1.0,0.0,0.0));
#155=VECTOR('',#154,12.000000000000002);
#156=LINE('',#153,#155);
#157=EDGE_CURVE('',#68,#152,#156,.T.);
#158=ORIENTED_EDGE('',*,*,#157,.F.);
#159=ORIENTED_EDGE('',*,*,#73,.F.);
#160=ORIENTED_EDGE('',*,*,#109,.F.);
#161=ORIENTED_EDGE('',*,*,#140,.F.);
#162=CARTESIAN_POINT('',(7.000000000000001,0.0,-0.500000000000000));
#163=VERTEX_POINT('',#162);
#164=CARTESIAN_POINT('',(7.000000000000001,0.0,-0.500000000000000));
#165=DIRECTION('',(-1.0,0.0,0.0));
#166=VECTOR('',#165,14.000000000000002);
#167=LINE('',#164,#166);
#168=EDGE_CURVE('',#163,#129,#167,.T.);
#169=ORIENTED_EDGE('',*,*,#168,.F.);
#170=CARTESIAN_POINT('',(7.000000000000001,-3.900000000000000,-0.500000000000000));
#171=VERTEX_POINT('',#170);
#172=CARTESIAN_POINT('',(7.000000000000001,-3.900000000000000,-0.500000000000000));
#173=DIRECTION('',(0.0,1.0,0.0));
#174=VECTOR('',#173,3.900000000000000);
#175=LINE('',#172,#174);
#176=EDGE_CURVE('',#171,#163,#175,.T.);
#177=ORIENTED_EDGE('',*,*,#176,.F.);
#178=CARTESIAN_POINT('',(6.000000000000001,-3.900000000000000,-0.500000000000000));
#179=VERTEX_POINT('',#178);
#180=CARTESIAN_POINT('',(6.000000000000001,-3.900000000000000,-0.500000000000000));
#181=DIRECTION('',(1.0,0.0,0.0));
#182=VECTOR('',#181,1.0);
#183=LINE('',#180,#182);
#184=EDGE_CURVE('',#179,#171,#183,.T.);
#185=ORIENTED_EDGE('',*,*,#184,.F.);
#186=CARTESIAN_POINT('',(6.000000000000001,-1.000000000000000,-0.500000000000000));
#187=DIRECTION('',(0.0,-1.0,0.0));
#188=VECTOR('',#187,2.899999999999999);
#189=LINE('',#186,#188);
#190=EDGE_CURVE('',#152,#179,#189,.T.);
#191=ORIENTED_EDGE('',*,*,#190,.F.);
#192=EDGE_LOOP('',(#158,#159,#160,#161,#169,#177,#185,#191));
#193=FACE_OUTER_BOUND('',#192,.T.);
#194=ADVANCED_FACE('',(#193),#150,.F.);
#195=CARTESIAN_POINT('',(0.0,0.0,0.0));
#196=DIRECTION('',(0.0,1.0,0.0));
#197=DIRECTION('',(0.0,0.0,1.0));
#198=AXIS2_PLACEMENT_3D('',#195,#196,#197);
#199=PLANE('',#198);
#200=CARTESIAN_POINT('',(7.000000000000001,0.0,0.500000000000000));
#201=VERTEX_POINT('',#200);
#202=CARTESIAN_POINT('',(-7.000000000000001,0.0,0.500000000000000));
#203=DIRECTION('',(1.0,0.0,0.0));
#204=VECTOR('',#203,14.000000000000002);
#205=LINE('',#202,#204);
#206=EDGE_CURVE('',#121,#201,#205,.T.);
#207=ORIENTED_EDGE('',*,*,#206,.T.);
#208=CARTESIAN_POINT('',(7.000000000000001,0.0,-0.500000000000000));
#209=DIRECTION('',(0.0,0.0,1.0));
#210=VECTOR('',#209,1.0);
#211=LINE('',#208,#210);
#212=EDGE_CURVE('',#163,#201,#211,.T.);
#213=ORIENTED_EDGE('',*,*,#212,.F.);
#214=ORIENTED_EDGE('',*,*,#168,.T.);
#215=ORIENTED_EDGE('',*,*,#134,.T.);
#216=EDGE_LOOP('',(#207,#213,#214,#215));
#217=FACE_OUTER_BOUND('',#216,.T.);
#218=ADVANCED_FACE('',(#217),#199,.T.);
#219=CARTESIAN_POINT('',(7.000000000000001,0.0,0.0));
#220=DIRECTION('',(1.0,0.0,0.0));
#221=DIRECTION('',(0.0,0.0,-1.0));
#222=AXIS2_PLACEMENT_3D('',#219,#220,#221);
#223=PLANE('',#222);
#224=CARTESIAN_POINT('',(7.000000000000001,-3.900000000000000,0.500000000000000));
#225=VERTEX_POINT('',#224);
#226=CARTESIAN_POINT('',(7.000000000000001,0.0,0.500000000000000));
#227=DIRECTION('',(0.0,-1.0,0.0));
#228=VECTOR('',#227,3.900000000000000);
#229=LINE('',#226,#228);
#230=EDGE_CURVE('',#201,#225,#229,.T.);
#231=ORIENTED_EDGE('',*,*,#230,.T.);
#232=CARTESIAN_POINT('',(7.000000000000001,-3.900000000000000,-0.500000000000000));
#233=DIRECTION('',(0.0,0.0,1.0));
#234=VECTOR('',#233,1.0);
#235=LINE('',#232,#234);
#236=EDGE_CURVE('',#171,#225,#235,.T.);
#237=ORIENTED_EDGE('',*,*,#236,.F.);
#238=ORIENTED_EDGE('',*,*,#176,.T.);
#239=ORIENTED_EDGE('',*,*,#212,.T.);
#240=EDGE_LOOP('',(#231,#237,#238,#239));
#241=FACE_OUTER_BOUND('',#240,.T.);
#242=ADVANCED_FACE('',(#241),#223,.T.);
#243=CARTESIAN_POINT('',(7.000000000000001,-3.900000000000000,0.0));
#244=DIRECTION('',(0.0,-1.0,0.0));
#245=DIRECTION('',(0.0,0.0,-1.0));
#246=AXIS2_PLACEMENT_3D('',#243,#244,#245);
#247=PLANE('',#246);
#248=CARTESIAN_POINT('',(6.000000000000001,-3.900000000000000,0.500000000000000));
#249=VERTEX_POINT('',#248);
#250=CARTESIAN_POINT('',(7.000000000000001,-3.900000000000000,0.500000000000000));
#251=DIRECTION('',(-1.0,0.0,0.0));
#252=VECTOR('',#251,1.0);
#253=LINE('',#250,#252);
#254=EDGE_CURVE('',#225,#249,#253,.T.);
#255=ORIENTED_EDGE('',*,*,#254,.T.);
#256=CARTESIAN_POINT('',(6.000000000000001,-3.900000000000000,-0.500000000000000));
#257=DIRECTION('',(0.0,0.0,1.0));
#258=VECTOR('',#257,1.0);
#259=LINE('',#256,#258);
#260=EDGE_CURVE('',#179,#249,#259,.T.);
#261=ORIENTED_EDGE('',*,*,#260,.F.);
#262=ORIENTED_EDGE('',*,*,#184,.T.);
#263=ORIENTED_EDGE('',*,*,#236,.T.);
#264=EDGE_LOOP('',(#255,#261,#262,#263));
#265=FACE_OUTER_BOUND('',#264,.T.);
#266=ADVANCED_FACE('',(#265),#247,.T.);
#267=CARTESIAN_POINT('',(6.000000000000001,-3.900000000000000,0.0));
#268=DIRECTION('',(-1.0,0.0,0.0));
#269=DIRECTION('',(0.0,0.0,1.0));
#270=AXIS2_PLACEMENT_3D('',#267,#268,#269);
#271=PLANE('',#270);
#272=CARTESIAN_POINT('',(6.000000000000001,-1.000000000000000,0.500000000000000));
#273=VERTEX_POINT('',#272);
#274=CARTESIAN_POINT('',(6.000000000000001,-3.900000000000000,0.500000000000000));
#275=DIRECTION('',(0.0,1.0,0.0));
#276=VECTOR('',#275,2.899999999999999);
#277=LINE('',#274,#276);
#278=EDGE_CURVE('',#249,#273,#277,.T.);
#279=ORIENTED_EDGE('',*,*,#278,.T.);
#280=CARTESIAN_POINT('',(6.000000000000001,-1.000000000000000,-0.500000000000000));
#281=DIRECTION('',(0.0,0.0,1.0));
#282=VECTOR('',#281,1.0);
#283=LINE('',#280,#282);
#284=EDGE_CURVE('',#152,#273,#283,.T.);
#285=ORIENTED_EDGE('',*,*,#284,.F.);
#286=ORIENTED_EDGE('',*,*,#190,.T.);
#287=ORIENTED_EDGE('',*,*,#260,.T.);
#288=EDGE_LOOP('',(#279,#285,#286,#287));
#289=FACE_OUTER_BOUND('',#288,.T.);
#290=ADVANCED_FACE('',(#289),#271,.T.);
#291=CARTESIAN_POINT('',(6.000000000000001,-1.000000000000000,0.0));
#292=DIRECTION('',(0.0,-1.0,0.0));
#293=DIRECTION('',(0.0,0.0,-1.0));
#294=AXIS2_PLACEMENT_3D('',#291,#292,#293);
#295=PLANE('',#294);
#296=CARTESIAN_POINT('',(6.000000000000001,-1.000000000000000,0.500000000000000));
#297=DIRECTION('',(-1.0,0.0,0.0));
#298=VECTOR('',#297,12.000000000000002);
#299=LINE('',#296,#298);
#300=EDGE_CURVE('',#273,#50,#299,.T.);
#301=ORIENTED_EDGE('',*,*,#300,.T.);
#302=ORIENTED_EDGE('',*,*,#79,.F.);
#303=ORIENTED_EDGE('',*,*,#157,.T.);
#304=ORIENTED_EDGE('',*,*,#284,.T.);
#305=EDGE_LOOP('',(#301,#302,#303,#304));
#306=FACE_OUTER_BOUND('',#305,.T.);
#307=ADVANCED_FACE('',(#306),#295,.T.);
#308=CARTESIAN_POINT('',(4.298165137614680,-1.151834862385321,0.500000000000000));
#309=DIRECTION('',(0.0,0.0,1.0));
#310=DIRECTION('',(1.0,0.0,0.0));
#311=AXIS2_PLACEMENT_3D('',#308,#309,#310);
#312=PLANE('',#311);
#313=ORIENTED_EDGE('',*,*,#206,.F.);
#314=ORIENTED_EDGE('',*,*,#126,.F.);
#315=ORIENTED_EDGE('',*,*,#95,.F.);
#316=ORIENTED_EDGE('',*,*,#57,.F.);
#317=ORIENTED_EDGE('',*,*,#300,.F.);
#318=ORIENTED_EDGE('',*,*,#278,.F.);
#319=ORIENTED_EDGE('',*,*,#254,.F.);
#320=ORIENTED_EDGE('',*,*,#230,.F.);
#321=EDGE_LOOP('',(#313,#314,#315,#316,#317,#318,#319,#320));
#322=FACE_OUTER_BOUND('',#321,.T.);
#323=ADVANCED_FACE('',(#322),#312,.T.);
#324=CLOSED_SHELL('',(#83,#114,#145,#194,#218,#242,#266,#290,#307,#323));
#325=MANIFOLD_SOLID_BREP('',#324);
#326=COLOUR_RGB('Metall-AL-6061 (gleichm.)',0.847058832645416,0.839215695858002,0.839215695858002);
#327=FILL_AREA_STYLE_COLOUR('Metall-AL-6061 (gleichm.)',#326);
#328=FILL_AREA_STYLE('Metall-AL-6061 (gleichm.)',(#327));
#329=SURFACE_STYLE_FILL_AREA(#328);
#330=SURFACE_SIDE_STYLE('Metall-AL-6061 (gleichm.)',(#329));
#331=SURFACE_STYLE_USAGE(.BOTH.,#330);
#332=PRESENTATION_STYLE_ASSIGNMENT((#331));
#333=STYLED_ITEM('',(#332),#325);
#334=MECHANICAL_DESIGN_GEOMETRIC_PRESENTATION_REPRESENTATION('',(#333),#36);
#335=ADVANCED_BREP_SHAPE_REPRESENTATION('ABSR',(#325),#36);
#336=SHAPE_REPRESENTATION_RELATIONSHIP('SRR','None',#335,#41);
ENDSEC;
END-ISO-10303-21;
