ISO-10303-21;
HEADER;
/****************************************************************
 * Generated by software with PDE/Lib inside                    *
 * PDElib Version v51a, created Tue 12/06/2005                  *
 * International Technegroup Inc. (www.iti-oh.com)              *
 ****************************************************************/
FILE_DESCRIPTION((''),'2;1');
FILE_NAME('U:\\Paletti Norm\\Paletti Artikel f. Palkat\\STEP\\SP601_extern.ipt.step','2007-09-10T15:11:03',(''),(''),'Autodesk Inventor 11','Autodesk Inventor 11','');
FILE_SCHEMA(('AUTOMOTIVE_DESIGN { 1 0 10303 214 1 1 1 1 }'));
ENDSEC;
DATA;
#5=APPLICATION_CONTEXT('automotive design');
#6=APPLICATION_PROTOCOL_DEFINITION('International Standard','automotive_design',2001,#5);
#7=PRODUCT_CONTEXT('',#5,'mechanical');
#8=PRODUCT('SP601_extern','SP601_extern',$,(#7));
#9=PRODUCT_RELATED_PRODUCT_CATEGORY('part',$,(#8));
#10=PRODUCT_DEFINITION_FORMATION('',$,#8);
#11=PRODUCT_DEFINITION_CONTEXT('part definition',#5,'design');
#12=PRODUCT_DEFINITION('',$,#10,#11);
#18=(NAMED_UNIT(*)PLANE_ANGLE_UNIT()SI_UNIT($,.RADIAN.));
#19=DIMENSIONAL_EXPONENTS(0.0,0.0,0.0,0.0,0.0,0.0,0.0);
#20=PLANE_ANGLE_MEASURE_WITH_UNIT(PLANE_ANGLE_MEASURE(0.017453292500000),#18);
#24=(CONVERSION_BASED_UNIT('DEGREE',#20)NAMED_UNIT(#19)PLANE_ANGLE_UNIT());
#28=(NAMED_UNIT(*)SI_UNIT($,.STERADIAN.)SOLID_ANGLE_UNIT());
#32=(LENGTH_UNIT()NAMED_UNIT(*)SI_UNIT(.MILLI.,.METRE.));
#34=UNCERTAINTY_MEASURE_WITH_UNIT(LENGTH_MEASURE(0.010000000000000),#32,'DISTANCE_ACCURACY_VALUE','');
#36=(GEOMETRIC_REPRESENTATION_CONTEXT(3)GLOBAL_UNCERTAINTY_ASSIGNED_CONTEXT((#34))GLOBAL_UNIT_ASSIGNED_CONTEXT((#24,#28,#32))REPRESENTATION_CONTEXT('None','None'));
#37=AXIS2_PLACEMENT_3D('',#38,#39,#40);
#38=CARTESIAN_POINT('',(0.0,0.0,0.0));
#39=DIRECTION('',(0.0,0.0,1.0));
#40=DIRECTION('',(1.0,0.0,0.0));
#41=SHAPE_REPRESENTATION('',(#37),#36);
#42=PRODUCT_DEFINITION_SHAPE('','',#12);
#43=SHAPE_DEFINITION_REPRESENTATION(#42,#41);
#44=CARTESIAN_POINT('',(0.999999999999999,-5.150000000000001,0.0));
#45=DIRECTION('',(0.0,0.0,1.0));
#46=DIRECTION('',(-0.707106781186547,-0.707106781186548,0.0));
#47=AXIS2_PLACEMENT_3D('',#44,#45,#46);
#48=CYLINDRICAL_SURFACE('',#47,1.0);
#49=CARTESIAN_POINT('',(0.999999999999999,-6.150000000000001,0.500000000000000));
#50=VERTEX_POINT('',#49);
#51=CARTESIAN_POINT('',(-2.008126E-015,-5.150000000000002,0.500000000000000));
#52=VERTEX_POINT('',#51);
#53=CARTESIAN_POINT('',(0.999999999999999,-5.150000000000001,0.500000000000000));
#54=DIRECTION('',(0.0,0.0,-1.0));
#55=DIRECTION('',(-0.707106781186547,-0.707106781186548,0.0));
#56=AXIS2_PLACEMENT_3D('',#53,#54,#55);
#57=CIRCLE('',#56,1.0);
#58=EDGE_CURVE('',#50,#52,#57,.T.);
#59=ORIENTED_EDGE('',*,*,#58,.T.);
#60=CARTESIAN_POINT('',(1.839257E-015,-5.150000000000001,-0.500000000000000));
#61=VERTEX_POINT('',#60);
#62=CARTESIAN_POINT('',(-2.008126E-015,-5.150000000000002,0.500000000000000));
#63=DIRECTION('',(0.0,0.0,-1.0));
#64=VECTOR('',#63,1.0);
#65=LINE('',#62,#64);
#66=EDGE_CURVE('',#52,#61,#65,.T.);
#67=ORIENTED_EDGE('',*,*,#66,.T.);
#68=CARTESIAN_POINT('',(0.999999999999999,-6.150000000000001,-0.500000000000000));
#69=VERTEX_POINT('',#68);
#70=CARTESIAN_POINT('',(0.999999999999999,-5.150000000000001,-0.500000000000000));
#71=DIRECTION('',(0.0,0.0,1.0));
#72=DIRECTION('',(-0.707106781186547,-0.707106781186548,0.0));
#73=AXIS2_PLACEMENT_3D('',#70,#71,#72);
#74=CIRCLE('',#73,1.0);
#75=EDGE_CURVE('',#61,#69,#74,.T.);
#76=ORIENTED_EDGE('',*,*,#75,.T.);
#77=CARTESIAN_POINT('',(0.999999999999999,-6.150000000000001,-0.500000000000000));
#78=DIRECTION('',(0.0,0.0,1.0));
#79=VECTOR('',#78,1.0);
#80=LINE('',#77,#79);
#81=EDGE_CURVE('',#69,#50,#80,.T.);
#82=ORIENTED_EDGE('',*,*,#81,.T.);
#83=EDGE_LOOP('',(#59,#67,#76,#82));
#84=FACE_OUTER_BOUND('',#83,.T.);
#85=ADVANCED_FACE('',(#84),#48,.T.);
#86=CARTESIAN_POINT('',(5.359195402298851,0.0,-0.500000000000000));
#87=DIRECTION('',(0.0,0.0,1.0));
#88=DIRECTION('',(1.0,0.0,0.0));
#89=AXIS2_PLACEMENT_3D('',#86,#87,#88);
#90=PLANE('',#89);
#91=ORIENTED_EDGE('',*,*,#75,.F.);
#92=CARTESIAN_POINT('',(-1.656051E-015,5.150000000000001,-0.500000000000000));
#93=VERTEX_POINT('',#92);
#94=CARTESIAN_POINT('',(-1.656051E-015,5.150000000000001,-0.500000000000000));
#95=DIRECTION('',(0.0,-1.0,0.0));
#96=VECTOR('',#95,10.300000000000002);
#97=LINE('',#94,#96);
#98=EDGE_CURVE('',#93,#61,#97,.T.);
#99=ORIENTED_EDGE('',*,*,#98,.F.);
#100=CARTESIAN_POINT('',(1.000000000000001,6.150000000000001,-0.500000000000000));
#101=VERTEX_POINT('',#100);
#102=CARTESIAN_POINT('',(1.000000000000002,5.150000000000001,-0.500000000000000));
#103=DIRECTION('',(0.0,0.0,1.000000000000000));
#104=DIRECTION('',(-0.707106781186547,0.707106781186548,0.0));
#105=AXIS2_PLACEMENT_3D('',#102,#103,#104);
#106=CIRCLE('',#105,1.0);
#107=EDGE_CURVE('',#101,#93,#106,.T.);
#108=ORIENTED_EDGE('',*,*,#107,.F.);
#109=CARTESIAN_POINT('',(12.0,6.150000000000001,-0.500000000000000));
#110=VERTEX_POINT('',#109);
#111=CARTESIAN_POINT('',(12.0,6.150000000000001,-0.500000000000000));
#112=DIRECTION('',(-1.0,0.0,0.0));
#113=VECTOR('',#112,11.0);
#114=LINE('',#111,#113);
#115=EDGE_CURVE('',#110,#101,#114,.T.);
#116=ORIENTED_EDGE('',*,*,#115,.F.);
#117=CARTESIAN_POINT('',(12.500000000000000,5.650000000000002,-0.500000000000000));
#118=VERTEX_POINT('',#117);
#119=CARTESIAN_POINT('',(12.0,5.650000000000000,-0.500000000000000));
#120=DIRECTION('',(0.0,0.0,1.0));
#121=DIRECTION('',(0.707106781186549,0.707106781186546,0.0));
#122=AXIS2_PLACEMENT_3D('',#119,#120,#121);
#123=CIRCLE('',#122,0.500000000000000);
#124=EDGE_CURVE('',#118,#110,#123,.T.);
#125=ORIENTED_EDGE('',*,*,#124,.F.);
#126=CARTESIAN_POINT('',(12.500000000000002,4.850000000000001,-0.500000000000000));
#127=VERTEX_POINT('',#126);
#128=CARTESIAN_POINT('',(12.500000000000002,4.850000000000001,-0.500000000000000));
#129=DIRECTION('',(0.0,1.0,0.0));
#130=VECTOR('',#129,0.800000000000001);
#131=LINE('',#128,#130);
#132=EDGE_CURVE('',#127,#118,#131,.T.);
#133=ORIENTED_EDGE('',*,*,#132,.F.);
#134=CARTESIAN_POINT('',(12.000000000000002,4.350000000000001,-0.500000000000000));
#135=VERTEX_POINT('',#134);
#136=CARTESIAN_POINT('',(12.000000000000002,4.850000000000001,-0.500000000000000));
#137=DIRECTION('',(0.0,0.0,1.0));
#138=DIRECTION('',(0.707106781186546,-0.707106781186549,0.0));
#139=AXIS2_PLACEMENT_3D('',#136,#137,#138);
#140=CIRCLE('',#139,0.500000000000000);
#141=EDGE_CURVE('',#135,#127,#140,.T.);
#142=ORIENTED_EDGE('',*,*,#141,.F.);
#143=CARTESIAN_POINT('',(2.999999999999997,4.349999999999998,-0.500000000000000));
#144=VERTEX_POINT('',#143);
#145=CARTESIAN_POINT('',(2.999999999999997,4.349999999999998,-0.500000000000000));
#146=DIRECTION('',(1.0,0.0,0.0));
#147=VECTOR('',#146,9.000000000000004);
#148=LINE('',#145,#147);
#149=EDGE_CURVE('',#144,#135,#148,.T.);
#150=ORIENTED_EDGE('',*,*,#149,.F.);
#151=CARTESIAN_POINT('',(2.499999999999999,3.849999999999998,-0.500000000000000));
#152=VERTEX_POINT('',#151);
#153=CARTESIAN_POINT('',(2.999999999999997,3.849999999999998,-0.500000000000000));
#154=DIRECTION('',(0.0,0.0,-1.0));
#155=DIRECTION('',(-0.707106781186548,0.707106781186547,0.0));
#156=AXIS2_PLACEMENT_3D('',#153,#154,#155);
#157=CIRCLE('',#156,0.500000000000000);
#158=EDGE_CURVE('',#152,#144,#157,.T.);
#159=ORIENTED_EDGE('',*,*,#158,.F.);
#160=CARTESIAN_POINT('',(2.499999999999996,-3.849999999999998,-0.500000000000000));
#161=VERTEX_POINT('',#160);
#162=CARTESIAN_POINT('',(2.499999999999996,-3.849999999999998,-0.500000000000000));
#163=DIRECTION('',(0.0,1.0,0.0));
#164=VECTOR('',#163,7.699999999999997);
#165=LINE('',#162,#164);
#166=EDGE_CURVE('',#161,#152,#165,.T.);
#167=ORIENTED_EDGE('',*,*,#166,.F.);
#168=CARTESIAN_POINT('',(2.999999999999998,-4.349999999999998,-0.500000000000000));
#169=VERTEX_POINT('',#168);
#170=CARTESIAN_POINT('',(2.999999999999999,-3.849999999999998,-0.500000000000000));
#171=DIRECTION('',(0.0,0.0,-1.000000000000000));
#172=DIRECTION('',(-0.707106781186548,-0.707106781186548,0.0));
#173=AXIS2_PLACEMENT_3D('',#170,#171,#172);
#174=CIRCLE('',#173,0.500000000000000);
#175=EDGE_CURVE('',#169,#161,#174,.T.);
#176=ORIENTED_EDGE('',*,*,#175,.F.);
#177=CARTESIAN_POINT('',(12.000000000000002,-4.350000000000001,-0.500000000000000));
#178=VERTEX_POINT('',#177);
#179=CARTESIAN_POINT('',(12.000000000000002,-4.350000000000001,-0.500000000000000));
#180=DIRECTION('',(-1.0,0.0,0.0));
#181=VECTOR('',#180,9.000000000000004);
#182=LINE('',#179,#181);
#183=EDGE_CURVE('',#178,#169,#182,.T.);
#184=ORIENTED_EDGE('',*,*,#183,.F.);
#185=CARTESIAN_POINT('',(12.500000000000002,-4.850000000000001,-0.500000000000000));
#186=VERTEX_POINT('',#185);
#187=CARTESIAN_POINT('',(12.000000000000002,-4.850000000000001,-0.500000000000000));
#188=DIRECTION('',(0.0,0.0,1.000000000000000));
#189=DIRECTION('',(0.707106781186547,0.707106781186548,0.0));
#190=AXIS2_PLACEMENT_3D('',#187,#188,#189);
#191=CIRCLE('',#190,0.500000000000000);
#192=EDGE_CURVE('',#186,#178,#191,.T.);
#193=ORIENTED_EDGE('',*,*,#192,.F.);
#194=CARTESIAN_POINT('',(12.500000000000000,-5.650000000000002,-0.500000000000000));
#195=VERTEX_POINT('',#194);
#196=CARTESIAN_POINT('',(12.500000000000000,-5.650000000000002,-0.500000000000000));
#197=DIRECTION('',(0.0,1.0,0.0));
#198=VECTOR('',#197,0.800000000000001);
#199=LINE('',#196,#198);
#200=EDGE_CURVE('',#195,#186,#199,.T.);
#201=ORIENTED_EDGE('',*,*,#200,.F.);
#202=CARTESIAN_POINT('',(12.0,-6.150000000000001,-0.500000000000000));
#203=VERTEX_POINT('',#202);
#204=CARTESIAN_POINT('',(12.0,-5.650000000000000,-0.500000000000000));
#205=DIRECTION('',(0.0,0.0,1.0));
#206=DIRECTION('',(0.707106781186549,-0.707106781186546,0.0));
#207=AXIS2_PLACEMENT_3D('',#204,#205,#206);
#208=CIRCLE('',#207,0.500000000000000);
#209=EDGE_CURVE('',#203,#195,#208,.T.);
#210=ORIENTED_EDGE('',*,*,#209,.F.);
#211=CARTESIAN_POINT('',(0.999999999999999,-6.150000000000001,-0.500000000000000));
#212=DIRECTION('',(1.0,0.0,0.0));
#213=VECTOR('',#212,11.000000000000002);
#214=LINE('',#211,#213);
#215=EDGE_CURVE('',#69,#203,#214,.T.);
#216=ORIENTED_EDGE('',*,*,#215,.F.);
#217=EDGE_LOOP('',(#91,#99,#108,#116,#125,#133,#142,#150,#159,#167,#176,#184,#193,#201,#210,#216));
#218=FACE_OUTER_BOUND('',#217,.T.);
#219=ADVANCED_FACE('',(#218),#90,.F.);
#220=CARTESIAN_POINT('',(0.0,0.269935289945971,0.0));
#221=DIRECTION('',(-1.0,0.0,0.0));
#222=DIRECTION('',(0.0,0.0,1.0));
#223=AXIS2_PLACEMENT_3D('',#220,#221,#222);
#224=PLANE('',#223);
#225=ORIENTED_EDGE('',*,*,#66,.F.);
#226=CARTESIAN_POINT('',(1.808100E-015,5.150000000000001,0.500000000000000));
#227=VERTEX_POINT('',#226);
#228=CARTESIAN_POINT('',(-2.008126E-015,-5.150000000000002,0.500000000000000));
#229=DIRECTION('',(0.0,1.0,0.0));
#230=VECTOR('',#229,10.300000000000004);
#231=LINE('',#228,#230);
#232=EDGE_CURVE('',#52,#227,#231,.T.);
#233=ORIENTED_EDGE('',*,*,#232,.T.);
#234=CARTESIAN_POINT('',(-1.656051E-015,5.150000000000001,-0.500000000000000));
#235=DIRECTION('',(0.0,0.0,1.0));
#236=VECTOR('',#235,1.0);
#237=LINE('',#234,#236);
#238=EDGE_CURVE('',#93,#227,#237,.T.);
#239=ORIENTED_EDGE('',*,*,#238,.F.);
#240=ORIENTED_EDGE('',*,*,#98,.T.);
#241=EDGE_LOOP('',(#225,#233,#239,#240));
#242=FACE_OUTER_BOUND('',#241,.T.);
#243=ADVANCED_FACE('',(#242),#224,.T.);
#244=CARTESIAN_POINT('',(1.000000000000002,5.150000000000001,0.0));
#245=DIRECTION('',(0.0,0.0,1.0));
#246=DIRECTION('',(-0.707106781186547,0.707106781186548,0.0));
#247=AXIS2_PLACEMENT_3D('',#244,#245,#246);
#248=CYLINDRICAL_SURFACE('',#247,1.0);
#249=CARTESIAN_POINT('',(1.000000000000001,6.150000000000001,0.500000000000000));
#250=VERTEX_POINT('',#249);
#251=CARTESIAN_POINT('',(1.000000000000002,5.150000000000001,0.500000000000000));
#252=DIRECTION('',(0.0,0.0,-1.000000000000000));
#253=DIRECTION('',(-0.707106781186547,0.707106781186548,0.0));
#254=AXIS2_PLACEMENT_3D('',#251,#252,#253);
#255=CIRCLE('',#254,1.0);
#256=EDGE_CURVE('',#227,#250,#255,.T.);
#257=ORIENTED_EDGE('',*,*,#256,.T.);
#258=CARTESIAN_POINT('',(1.000000000000001,6.150000000000001,0.500000000000000));
#259=DIRECTION('',(0.0,0.0,-1.0));
#260=VECTOR('',#259,1.0);
#261=LINE('',#258,#260);
#262=EDGE_CURVE('',#250,#101,#261,.T.);
#263=ORIENTED_EDGE('',*,*,#262,.T.);
#264=ORIENTED_EDGE('',*,*,#107,.T.);
#265=ORIENTED_EDGE('',*,*,#238,.T.);
#266=EDGE_LOOP('',(#257,#263,#264,#265));
#267=FACE_OUTER_BOUND('',#266,.T.);
#268=ADVANCED_FACE('',(#267),#248,.T.);
#269=CARTESIAN_POINT('',(12.0,-5.650000000000000,0.0));
#270=DIRECTION('',(0.0,0.0,1.0));
#271=DIRECTION('',(0.707106781186549,-0.707106781186546,0.0));
#272=AXIS2_PLACEMENT_3D('',#269,#270,#271);
#273=CYLINDRICAL_SURFACE('',#272,0.500000000000000);
#274=CARTESIAN_POINT('',(12.500000000000000,-5.650000000000002,0.500000000000000));
#275=VERTEX_POINT('',#274);
#276=CARTESIAN_POINT('',(12.0,-6.150000000000001,0.500000000000000));
#277=VERTEX_POINT('',#276);
#278=CARTESIAN_POINT('',(12.0,-5.650000000000000,0.500000000000000));
#279=DIRECTION('',(0.0,0.0,-1.0));
#280=DIRECTION('',(0.707106781186549,-0.707106781186546,0.0));
#281=AXIS2_PLACEMENT_3D('',#278,#279,#280);
#282=CIRCLE('',#281,0.500000000000000);
#283=EDGE_CURVE('',#275,#277,#282,.T.);
#284=ORIENTED_EDGE('',*,*,#283,.T.);
#285=CARTESIAN_POINT('',(12.0,-6.150000000000001,0.500000000000000));
#286=DIRECTION('',(0.0,0.0,-1.0));
#287=VECTOR('',#286,1.0);
#288=LINE('',#285,#287);
#289=EDGE_CURVE('',#277,#203,#288,.T.);
#290=ORIENTED_EDGE('',*,*,#289,.T.);
#291=ORIENTED_EDGE('',*,*,#209,.T.);
#292=CARTESIAN_POINT('',(12.500000000000000,-5.650000000000002,-0.500000000000000));
#293=DIRECTION('',(0.0,0.0,1.0));
#294=VECTOR('',#293,1.0);
#295=LINE('',#292,#294);
#296=EDGE_CURVE('',#195,#275,#295,.T.);
#297=ORIENTED_EDGE('',*,*,#296,.T.);
#298=EDGE_LOOP('',(#284,#290,#291,#297));
#299=FACE_OUTER_BOUND('',#298,.T.);
#300=ADVANCED_FACE('',(#299),#273,.T.);
#301=CARTESIAN_POINT('',(12.500000000000002,-4.350000000000001,0.0));
#302=DIRECTION('',(1.0,0.0,0.0));
#303=DIRECTION('',(0.0,0.0,-1.0));
#304=AXIS2_PLACEMENT_3D('',#301,#302,#303);
#305=PLANE('',#304);
#306=ORIENTED_EDGE('',*,*,#296,.F.);
#307=ORIENTED_EDGE('',*,*,#200,.T.);
#308=CARTESIAN_POINT('',(12.500000000000002,-4.850000000000001,0.500000000000000));
#309=VERTEX_POINT('',#308);
#310=CARTESIAN_POINT('',(12.500000000000002,-4.850000000000001,0.500000000000000));
#311=DIRECTION('',(0.0,0.0,-1.0));
#312=VECTOR('',#311,1.0);
#313=LINE('',#310,#312);
#314=EDGE_CURVE('',#309,#186,#313,.T.);
#315=ORIENTED_EDGE('',*,*,#314,.F.);
#316=CARTESIAN_POINT('',(12.500000000000002,-4.850000000000001,0.500000000000000));
#317=DIRECTION('',(0.0,-1.0,0.0));
#318=VECTOR('',#317,0.800000000000001);
#319=LINE('',#316,#318);
#320=EDGE_CURVE('',#309,#275,#319,.T.);
#321=ORIENTED_EDGE('',*,*,#320,.T.);
#322=EDGE_LOOP('',(#306,#307,#315,#321));
#323=FACE_OUTER_BOUND('',#322,.T.);
#324=ADVANCED_FACE('',(#323),#305,.T.);
#325=CARTESIAN_POINT('',(12.000000000000002,-4.850000000000001,0.0));
#326=DIRECTION('',(0.0,0.0,1.0));
#327=DIRECTION('',(0.707106781186547,0.707106781186548,0.0));
#328=AXIS2_PLACEMENT_3D('',#325,#326,#327);
#329=CYLINDRICAL_SURFACE('',#328,0.500000000000000);
#330=CARTESIAN_POINT('',(12.000000000000002,-4.350000000000001,0.500000000000000));
#331=VERTEX_POINT('',#330);
#332=CARTESIAN_POINT('',(12.000000000000002,-4.850000000000001,0.500000000000000));
#333=DIRECTION('',(0.0,0.0,-1.000000000000000));
#334=DIRECTION('',(0.707106781186547,0.707106781186548,0.0));
#335=AXIS2_PLACEMENT_3D('',#332,#333,#334);
#336=CIRCLE('',#335,0.500000000000000);
#337=EDGE_CURVE('',#331,#309,#336,.T.);
#338=ORIENTED_EDGE('',*,*,#337,.T.);
#339=ORIENTED_EDGE('',*,*,#314,.T.);
#340=ORIENTED_EDGE('',*,*,#192,.T.);
#341=CARTESIAN_POINT('',(12.000000000000002,-4.350000000000001,-0.500000000000000));
#342=DIRECTION('',(0.0,0.0,1.0));
#343=VECTOR('',#342,1.0);
#344=LINE('',#341,#343);
#345=EDGE_CURVE('',#178,#331,#344,.T.);
#346=ORIENTED_EDGE('',*,*,#345,.T.);
#347=EDGE_LOOP('',(#338,#339,#340,#346));
#348=FACE_OUTER_BOUND('',#347,.T.);
#349=ADVANCED_FACE('',(#348),#329,.T.);
#350=CARTESIAN_POINT('',(2.499999999999999,-4.349999999999998,0.0));
#351=DIRECTION('',(0.0,1.0,0.0));
#352=DIRECTION('',(0.0,0.0,1.0));
#353=AXIS2_PLACEMENT_3D('',#350,#351,#352);
#354=PLANE('',#353);
#355=ORIENTED_EDGE('',*,*,#345,.F.);
#356=ORIENTED_EDGE('',*,*,#183,.T.);
#357=CARTESIAN_POINT('',(2.999999999999998,-4.349999999999998,0.500000000000000));
#358=VERTEX_POINT('',#357);
#359=CARTESIAN_POINT('',(2.999999999999998,-4.349999999999998,0.500000000000000));
#360=DIRECTION('',(0.0,0.0,-1.0));
#361=VECTOR('',#360,1.0);
#362=LINE('',#359,#361);
#363=EDGE_CURVE('',#358,#169,#362,.T.);
#364=ORIENTED_EDGE('',*,*,#363,.F.);
#365=CARTESIAN_POINT('',(2.999999999999998,-4.349999999999998,0.500000000000000));
#366=DIRECTION('',(1.0,0.0,0.0));
#367=VECTOR('',#366,9.000000000000004);
#368=LINE('',#365,#367);
#369=EDGE_CURVE('',#358,#331,#368,.T.);
#370=ORIENTED_EDGE('',*,*,#369,.T.);
#371=EDGE_LOOP('',(#355,#356,#364,#370));
#372=FACE_OUTER_BOUND('',#371,.T.);
#373=ADVANCED_FACE('',(#372),#354,.T.);
#374=CARTESIAN_POINT('',(2.999999999999999,-3.849999999999998,0.0));
#375=DIRECTION('',(0.0,0.0,1.0));
#376=DIRECTION('',(-0.707106781186548,-0.707106781186548,0.0));
#377=AXIS2_PLACEMENT_3D('',#374,#375,#376);
#378=CYLINDRICAL_SURFACE('',#377,0.500000000000000);
#379=ORIENTED_EDGE('',*,*,#175,.T.);
#380=CARTESIAN_POINT('',(2.499999999999999,-3.849999999999998,0.500000000000000));
#381=VERTEX_POINT('',#380);
#382=CARTESIAN_POINT('',(2.499999999999996,-3.849999999999998,-0.500000000000000));
#383=DIRECTION('',(0.0,0.0,1.0));
#384=VECTOR('',#383,1.0);
#385=LINE('',#382,#384);
#386=EDGE_CURVE('',#161,#381,#385,.T.);
#387=ORIENTED_EDGE('',*,*,#386,.T.);
#388=CARTESIAN_POINT('',(2.999999999999999,-3.849999999999998,0.500000000000000));
#389=DIRECTION('',(0.0,0.0,1.000000000000000));
#390=DIRECTION('',(-0.707106781186548,-0.707106781186548,0.0));
#391=AXIS2_PLACEMENT_3D('',#388,#389,#390);
#392=CIRCLE('',#391,0.500000000000000);
#393=EDGE_CURVE('',#381,#358,#392,.T.);
#394=ORIENTED_EDGE('',*,*,#393,.T.);
#395=ORIENTED_EDGE('',*,*,#363,.T.);
#396=EDGE_LOOP('',(#379,#387,#394,#395));
#397=FACE_OUTER_BOUND('',#396,.T.);
#398=ADVANCED_FACE('',(#397),#378,.F.);
#399=CARTESIAN_POINT('',(2.499999999999998,0.0,0.0));
#400=DIRECTION('',(1.0,0.0,0.0));
#401=DIRECTION('',(0.0,0.0,-1.0));
#402=AXIS2_PLACEMENT_3D('',#399,#400,#401);
#403=PLANE('',#402);
#404=ORIENTED_EDGE('',*,*,#386,.F.);
#405=ORIENTED_EDGE('',*,*,#166,.T.);
#406=CARTESIAN_POINT('',(2.499999999999996,3.849999999999998,0.500000000000000));
#407=VERTEX_POINT('',#406);
#408=CARTESIAN_POINT('',(2.499999999999996,3.849999999999998,0.500000000000000));
#409=DIRECTION('',(0.0,0.0,-1.0));
#410=VECTOR('',#409,1.0);
#411=LINE('',#408,#410);
#412=EDGE_CURVE('',#407,#152,#411,.T.);
#413=ORIENTED_EDGE('',*,*,#412,.F.);
#414=CARTESIAN_POINT('',(2.499999999999996,3.849999999999998,0.500000000000000));
#415=DIRECTION('',(0.0,-1.0,0.0));
#416=VECTOR('',#415,7.699999999999996);
#417=LINE('',#414,#416);
#418=EDGE_CURVE('',#407,#381,#417,.T.);
#419=ORIENTED_EDGE('',*,*,#418,.T.);
#420=EDGE_LOOP('',(#404,#405,#413,#419));
#421=FACE_OUTER_BOUND('',#420,.T.);
#422=ADVANCED_FACE('',(#421),#403,.T.);
#423=CARTESIAN_POINT('',(12.0,5.650000000000000,0.0));
#424=DIRECTION('',(0.0,0.0,1.0));
#425=DIRECTION('',(0.707106781186549,0.707106781186546,0.0));
#426=AXIS2_PLACEMENT_3D('',#423,#424,#425);
#427=CYLINDRICAL_SURFACE('',#426,0.500000000000000);
#428=CARTESIAN_POINT('',(12.0,6.150000000000001,0.500000000000000));
#429=VERTEX_POINT('',#428);
#430=CARTESIAN_POINT('',(12.500000000000000,5.650000000000002,0.500000000000000));
#431=VERTEX_POINT('',#430);
#432=CARTESIAN_POINT('',(12.0,5.650000000000000,0.500000000000000));
#433=DIRECTION('',(0.0,0.0,-1.0));
#434=DIRECTION('',(0.707106781186549,0.707106781186546,0.0));
#435=AXIS2_PLACEMENT_3D('',#432,#433,#434);
#436=CIRCLE('',#435,0.500000000000000);
#437=EDGE_CURVE('',#429,#431,#436,.T.);
#438=ORIENTED_EDGE('',*,*,#437,.T.);
#439=CARTESIAN_POINT('',(12.500000000000000,5.650000000000002,0.500000000000000));
#440=DIRECTION('',(0.0,0.0,-1.0));
#441=VECTOR('',#440,1.0);
#442=LINE('',#439,#441);
#443=EDGE_CURVE('',#431,#118,#442,.T.);
#444=ORIENTED_EDGE('',*,*,#443,.T.);
#445=ORIENTED_EDGE('',*,*,#124,.T.);
#446=CARTESIAN_POINT('',(12.0,6.150000000000001,-0.500000000000000));
#447=DIRECTION('',(0.0,0.0,1.0));
#448=VECTOR('',#447,1.0);
#449=LINE('',#446,#448);
#450=EDGE_CURVE('',#110,#429,#449,.T.);
#451=ORIENTED_EDGE('',*,*,#450,.T.);
#452=EDGE_LOOP('',(#438,#444,#445,#451));
#453=FACE_OUTER_BOUND('',#452,.T.);
#454=ADVANCED_FACE('',(#453),#427,.T.);
#455=CARTESIAN_POINT('',(2.178607E-015,6.150000000000001,0.0));
#456=DIRECTION('',(0.0,1.0,0.0));
#457=DIRECTION('',(0.0,0.0,1.0));
#458=AXIS2_PLACEMENT_3D('',#455,#456,#457);
#459=PLANE('',#458);
#460=ORIENTED_EDGE('',*,*,#262,.F.);
#461=CARTESIAN_POINT('',(1.000000000000001,6.150000000000001,0.500000000000000));
#462=DIRECTION('',(1.0,0.0,0.0));
#463=VECTOR('',#462,11.0);
#464=LINE('',#461,#463);
#465=EDGE_CURVE('',#250,#429,#464,.T.);
#466=ORIENTED_EDGE('',*,*,#465,.T.);
#467=ORIENTED_EDGE('',*,*,#450,.F.);
#468=ORIENTED_EDGE('',*,*,#115,.T.);
#469=EDGE_LOOP('',(#460,#466,#467,#468));
#470=FACE_OUTER_BOUND('',#469,.T.);
#471=ADVANCED_FACE('',(#470),#459,.T.);
#472=CARTESIAN_POINT('',(12.000000000000002,4.850000000000001,0.0));
#473=DIRECTION('',(0.0,0.0,1.0));
#474=DIRECTION('',(0.707106781186546,-0.707106781186549,0.0));
#475=AXIS2_PLACEMENT_3D('',#472,#473,#474);
#476=CYLINDRICAL_SURFACE('',#475,0.500000000000000);
#477=CARTESIAN_POINT('',(12.500000000000002,4.850000000000001,0.500000000000000));
#478=VERTEX_POINT('',#477);
#479=CARTESIAN_POINT('',(12.000000000000002,4.350000000000001,0.500000000000000));
#480=VERTEX_POINT('',#479);
#481=CARTESIAN_POINT('',(12.000000000000002,4.850000000000001,0.500000000000000));
#482=DIRECTION('',(0.0,0.0,-1.0));
#483=DIRECTION('',(0.707106781186546,-0.707106781186549,0.0));
#484=AXIS2_PLACEMENT_3D('',#481,#482,#483);
#485=CIRCLE('',#484,0.500000000000000);
#486=EDGE_CURVE('',#478,#480,#485,.T.);
#487=ORIENTED_EDGE('',*,*,#486,.T.);
#488=CARTESIAN_POINT('',(12.000000000000002,4.350000000000001,0.500000000000000));
#489=DIRECTION('',(0.0,0.0,-1.0));
#490=VECTOR('',#489,1.0);
#491=LINE('',#488,#490);
#492=EDGE_CURVE('',#480,#135,#491,.T.);
#493=ORIENTED_EDGE('',*,*,#492,.T.);
#494=ORIENTED_EDGE('',*,*,#141,.T.);
#495=CARTESIAN_POINT('',(12.500000000000002,4.850000000000001,-0.500000000000000));
#496=DIRECTION('',(0.0,0.0,1.0));
#497=VECTOR('',#496,1.0);
#498=LINE('',#495,#497);
#499=EDGE_CURVE('',#127,#478,#498,.T.);
#500=ORIENTED_EDGE('',*,*,#499,.T.);
#501=EDGE_LOOP('',(#487,#493,#494,#500));
#502=FACE_OUTER_BOUND('',#501,.T.);
#503=ADVANCED_FACE('',(#502),#476,.T.);
#504=CARTESIAN_POINT('',(12.500000000000002,4.350000000000001,0.0));
#505=DIRECTION('',(0.0,-1.0,0.0));
#506=DIRECTION('',(0.0,0.0,-1.0));
#507=AXIS2_PLACEMENT_3D('',#504,#505,#506);
#508=PLANE('',#507);
#509=ORIENTED_EDGE('',*,*,#492,.F.);
#510=CARTESIAN_POINT('',(2.999999999999997,4.349999999999998,0.500000000000000));
#511=VERTEX_POINT('',#510);
#512=CARTESIAN_POINT('',(12.000000000000002,4.350000000000001,0.500000000000000));
#513=DIRECTION('',(-1.0,0.0,0.0));
#514=VECTOR('',#513,9.000000000000004);
#515=LINE('',#512,#514);
#516=EDGE_CURVE('',#480,#511,#515,.T.);
#517=ORIENTED_EDGE('',*,*,#516,.T.);
#518=CARTESIAN_POINT('',(2.999999999999997,4.349999999999998,-0.500000000000000));
#519=DIRECTION('',(0.0,0.0,1.0));
#520=VECTOR('',#519,1.0);
#521=LINE('',#518,#520);
#522=EDGE_CURVE('',#144,#511,#521,.T.);
#523=ORIENTED_EDGE('',*,*,#522,.F.);
#524=ORIENTED_EDGE('',*,*,#149,.T.);
#525=EDGE_LOOP('',(#509,#517,#523,#524));
#526=FACE_OUTER_BOUND('',#525,.T.);
#527=ADVANCED_FACE('',(#526),#508,.T.);
#528=CARTESIAN_POINT('',(2.999999999999997,3.849999999999998,0.0));
#529=DIRECTION('',(0.0,0.0,1.0));
#530=DIRECTION('',(-0.707106781186548,0.707106781186547,0.0));
#531=AXIS2_PLACEMENT_3D('',#528,#529,#530);
#532=CYLINDRICAL_SURFACE('',#531,0.500000000000000);
#533=ORIENTED_EDGE('',*,*,#158,.T.);
#534=ORIENTED_EDGE('',*,*,#522,.T.);
#535=CARTESIAN_POINT('',(2.999999999999997,3.849999999999998,0.500000000000000));
#536=DIRECTION('',(0.0,0.0,1.0));
#537=DIRECTION('',(-0.707106781186548,0.707106781186547,0.0));
#538=AXIS2_PLACEMENT_3D('',#535,#536,#537);
#539=CIRCLE('',#538,0.500000000000000);
#540=EDGE_CURVE('',#511,#407,#539,.T.);
#541=ORIENTED_EDGE('',*,*,#540,.T.);
#542=ORIENTED_EDGE('',*,*,#412,.T.);
#543=EDGE_LOOP('',(#533,#534,#541,#542));
#544=FACE_OUTER_BOUND('',#543,.T.);
#545=ADVANCED_FACE('',(#544),#532,.F.);
#546=CARTESIAN_POINT('',(12.500000000000000,6.150000000000001,0.0));
#547=DIRECTION('',(1.0,0.0,0.0));
#548=DIRECTION('',(0.0,0.0,-1.0));
#549=AXIS2_PLACEMENT_3D('',#546,#547,#548);
#550=PLANE('',#549);
#551=ORIENTED_EDGE('',*,*,#443,.F.);
#552=CARTESIAN_POINT('',(12.500000000000000,5.650000000000002,0.500000000000000));
#553=DIRECTION('',(0.0,-1.0,0.0));
#554=VECTOR('',#553,0.800000000000001);
#555=LINE('',#552,#554);
#556=EDGE_CURVE('',#431,#478,#555,.T.);
#557=ORIENTED_EDGE('',*,*,#556,.T.);
#558=ORIENTED_EDGE('',*,*,#499,.F.);
#559=ORIENTED_EDGE('',*,*,#132,.T.);
#560=EDGE_LOOP('',(#551,#557,#558,#559));
#561=FACE_OUTER_BOUND('',#560,.T.);
#562=ADVANCED_FACE('',(#561),#550,.T.);
#563=CARTESIAN_POINT('',(12.500000000000000,-6.150000000000001,0.0));
#564=DIRECTION('',(0.0,-1.0,0.0));
#565=DIRECTION('',(0.0,0.0,-1.0));
#566=AXIS2_PLACEMENT_3D('',#563,#564,#565);
#567=PLANE('',#566);
#568=ORIENTED_EDGE('',*,*,#81,.F.);
#569=ORIENTED_EDGE('',*,*,#215,.T.);
#570=ORIENTED_EDGE('',*,*,#289,.F.);
#571=CARTESIAN_POINT('',(12.0,-6.150000000000001,0.500000000000000));
#572=DIRECTION('',(-1.0,0.0,0.0));
#573=VECTOR('',#572,11.000000000000002);
#574=LINE('',#571,#573);
#575=EDGE_CURVE('',#277,#50,#574,.T.);
#576=ORIENTED_EDGE('',*,*,#575,.T.);
#577=EDGE_LOOP('',(#568,#569,#570,#576));
#578=FACE_OUTER_BOUND('',#577,.T.);
#579=ADVANCED_FACE('',(#578),#567,.T.);
#580=CARTESIAN_POINT('',(5.359195402298852,-3.469447E-017,0.500000000000000));
#581=DIRECTION('',(0.0,0.0,1.0));
#582=DIRECTION('',(1.0,0.0,0.0));
#583=AXIS2_PLACEMENT_3D('',#580,#581,#582);
#584=PLANE('',#583);
#585=ORIENTED_EDGE('',*,*,#58,.F.);
#586=ORIENTED_EDGE('',*,*,#575,.F.);
#587=ORIENTED_EDGE('',*,*,#283,.F.);
#588=ORIENTED_EDGE('',*,*,#320,.F.);
#589=ORIENTED_EDGE('',*,*,#337,.F.);
#590=ORIENTED_EDGE('',*,*,#369,.F.);
#591=ORIENTED_EDGE('',*,*,#393,.F.);
#592=ORIENTED_EDGE('',*,*,#418,.F.);
#593=ORIENTED_EDGE('',*,*,#540,.F.);
#594=ORIENTED_EDGE('',*,*,#516,.F.);
#595=ORIENTED_EDGE('',*,*,#486,.F.);
#596=ORIENTED_EDGE('',*,*,#556,.F.);
#597=ORIENTED_EDGE('',*,*,#437,.F.);
#598=ORIENTED_EDGE('',*,*,#465,.F.);
#599=ORIENTED_EDGE('',*,*,#256,.F.);
#600=ORIENTED_EDGE('',*,*,#232,.F.);
#601=EDGE_LOOP('',(#585,#586,#587,#588,#589,#590,#591,#592,#593,#594,#595,#596,#597,#598,#599,#600));
#602=FACE_OUTER_BOUND('',#601,.T.);
#603=ADVANCED_FACE('',(#602),#584,.T.);
#604=CLOSED_SHELL('',(#85,#219,#243,#268,#300,#324,#349,#373,#398,#422,#454,#471,#503,#527,#545,#562,#579,#603));
#605=MANIFOLD_SOLID_BREP('',#604);
#606=COLOUR_RGB('Metall-AL-6061 (gleichm.)',0.847058832645416,0.839215695858002,0.839215695858002);
#607=FILL_AREA_STYLE_COLOUR('Metall-AL-6061 (gleichm.)',#606);
#608=FILL_AREA_STYLE('Metall-AL-6061 (gleichm.)',(#607));
#609=SURFACE_STYLE_FILL_AREA(#608);
#610=SURFACE_SIDE_STYLE('Metall-AL-6061 (gleichm.)',(#609));
#611=SURFACE_STYLE_USAGE(.BOTH.,#610);
#612=PRESENTATION_STYLE_ASSIGNMENT((#611));
#613=STYLED_ITEM('',(#612),#605);
#614=MECHANICAL_DESIGN_GEOMETRIC_PRESENTATION_REPRESENTATION('',(#613),#36);
#615=ADVANCED_BREP_SHAPE_REPRESENTATION('ABSR',(#605),#36);
#616=SHAPE_REPRESENTATION_RELATIONSHIP('SRR','None',#615,#41);
ENDSEC;
END-ISO-10303-21;
