                                                                        S      1
,,12HSP791_extern,27HNo Iges File Name specified,23HAutoDesk Inventor R1G      1
1.0,37HAutoDesk Inventor Iges Exporter R11.0,32,38,6,99,15,12HSP791_exteG      2
rn,1.0D0,2,2HMM,1,.08D0,15H20070910.120255,.01D0,10000.0D0,19HNo Author G      3
specified,25HNo Organization specified,11,0,,33HNo Application Protocol G      4
specified;                                                              G      5
     116       1       0       0       0       0       0       000010000D      1
     116       0       0       1       0                               0D      2
     123       2       0       0       0       0       0       000010200D      3
     123       0       0       1       0                               0D      4
     190       3       0       0       0       0       0       000010000D      5
     190       0       0       1       1                               0D      6
     123       4       0       0       0       0       0       000010200D      7
     123       0       0       1       0                               0D      8
     502       5       0       0       0       0       0       000010000D      9
     502       0       0       6       1                               0D     10
     110      11       0       0       0       0       0       000010000D     11
     110       0       0       1       0                               0D     12
     504      12       0       0       0       0       0       000010001D     13
     504       0       0       5       1                               0D     14
     110      17       0       0       0       0       0       000010000D     15
     110       0       0       1       0                               0D     16
     110      18       0       0       0       0       0       000010000D     17
     110       0       0       1       0                               0D     18
     110      19       0       0       0       0       0       000010000D     19
     110       0       0       1       0                               0D     20
     508      20       0       0       0       0       0       000010000D     21
     508       0       0       1       1                               0D     22
     510      21       0       0       0       0       0       000010001D     23
     510       0       0       1       1                               0D     24
     116      22       0       0       0       0       0       000010000D     25
     116       0       0       1       0                               0D     26
     123      23       0       0       0       0       0       000010200D     27
     123       0       0       1       0                               0D     28
     190      24       0       0       0       0       0       000010000D     29
     190       0       0       1       1                               0D     30
     123      25       0       0       0       0       0       000010200D     31
     123       0       0       1       0                               0D     32
     110      26       0       0       0       0       0       000010000D     33
     110       0       0       1       0                               0D     34
     110      27       0       0       0       0       0       000010000D     35
     110       0       0       1       0                               0D     36
     110      28       0       0       0       0       0       000010000D     37
     110       0       0       1       0                               0D     38
     508      29       0       0       0       0       0       000010000D     39
     508       0       0       1       1                               0D     40
     510      30       0       0       0       0       0       000010001D     41
     510       0       0       1       1                               0D     42
     116      31       0       0       0       0       0       000010000D     43
     116       0       0       1       0                               0D     44
     123      32       0       0       0       0       0       000010200D     45
     123       0       0       1       0                               0D     46
     190      33       0       0       0       0       0       000010000D     47
     190       0       0       1       1                               0D     48
     123      34       0       0       0       0       0       000010200D     49
     123       0       0       1       0                               0D     50
     110      35       0       0       0       0       0       000010000D     51
     110       0       0       1       0                               0D     52
     110      36       0       0       0       0       0       000010000D     53
     110       0       0       1       0                               0D     54
     110      37       0       0       0       0       0       000010000D     55
     110       0       0       1       0                               0D     56
     508      38       0       0       0       0       0       000010000D     57
     508       0       0       1       1                               0D     58
     510      39       0       0       0       0       0       000010001D     59
     510       0       0       1       1                               0D     60
     116      40       0       0       0       0       0       000010000D     61
     116       0       0       1       0                               0D     62
     123      41       0       0       0       0       0       000010200D     63
     123       0       0       1       0                               0D     64
     190      42       0       0       0       0       0       000010000D     65
     190       0       0       1       1                               0D     66
     123      43       0       0       0       0       0       000010200D     67
     123       0       0       1       0                               0D     68
     110      44       0       0       0       0       0       000010000D     69
     110       0       0       1       0                               0D     70
     110      45       0       0       0       0       0       000010000D     71
     110       0       0       1       0                               0D     72
     110      46       0       0       0       0       0       000010000D     73
     110       0       0       1       0                               0D     74
     110      47       0       0       0       0       0       000010000D     75
     110       0       0       1       0                               0D     76
     110      48       0       0       0       0       0       000010000D     77
     110       0       0       1       0                               0D     78
     508      49       0       0       0       0       0       000010000D     79
     508       0       0       2       1                               0D     80
     510      51       0       0       0       0       0       000010001D     81
     510       0       0       1       1                               0D     82
     116      52       0       0       0       0       0       000010000D     83
     116       0       0       1       0                               0D     84
     123      53       0       0       0       0       0       000010200D     85
     123       0       0       1       0                               0D     86
     190      54       0       0       0       0       0       000010000D     87
     190       0       0       1       1                               0D     88
     123      55       0       0       0       0       0       000010200D     89
     123       0       0       1       0                               0D     90
     110      56       0       0       0       0       0       000010000D     91
     110       0       0       1       0                               0D     92
     110      57       0       0       0       0       0       000010000D     93
     110       0       0       1       0                               0D     94
     508      58       0       0       0       0       0       000010000D     95
     508       0       0       1       1                               0D     96
     510      59       0       0       0       0       0       000010001D     97
     510       0       0       1       1                               0D     98
     116      60       0       0       0       0       0       000010000D     99
     116       0       0       1       0                               0D    100
     123      61       0       0       0       0       0       000010200D    101
     123       0       0       1       0                               0D    102
     190      62       0       0       0       0       0       000010000D    103
     190       0       0       1       1                               0D    104
     123      63       0       0       0       0       0       000010200D    105
     123       0       0       1       0                               0D    106
     110      64       0       0       0       0       0       000010000D    107
     110       0       0       1       0                               0D    108
     110      65       0       0       0       0       0       000010000D    109
     110       0       0       1       0                               0D    110
     508      66       0       0       0       0       0       000010000D    111
     508       0       0       1       1                               0D    112
     510      67       0       0       0       0       0       000010001D    113
     510       0       0       1       1                               0D    114
     116      68       0       0       0       0       0       000010000D    115
     116       0       0       1       0                               0D    116
     123      69       0       0       0       0       0       000010200D    117
     123       0       0       1       0                               0D    118
     190      70       0       0       0       0       0       000010000D    119
     190       0       0       1       1                               0D    120
     123      71       0       0       0       0       0       000010200D    121
     123       0       0       1       0                               0D    122
     110      72       0       0       0       0       0       000010000D    123
     110       0       0       1       0                               0D    124
     110      73       0       0       0       0       0       000010000D    125
     110       0       0       1       0                               0D    126
     508      74       0       0       0       0       0       000010000D    127
     508       0       0       1       1                               0D    128
     510      75       0       0       0       0       0       000010001D    129
     510       0       0       1       1                               0D    130
     116      76       0       0       0       0       0       000010000D    131
     116       0       0       1       0                               0D    132
     123      77       0       0       0       0       0       000010200D    133
     123       0       0       1       0                               0D    134
     190      78       0       0       0       0       0       000010000D    135
     190       0       0       1       1                               0D    136
     123      79       0       0       0       0       0       000010200D    137
     123       0       0       1       0                               0D    138
     110      80       0       0       0       0       0       000010000D    139
     110       0       0       1       0                               0D    140
     110      81       0       0       0       0       0       000010000D    141
     110       0       0       1       0                               0D    142
     508      82       0       0       0       0       0       000010000D    143
     508       0       0       1       1                               0D    144
     510      83       0       0       0       0       0       000010001D    145
     510       0       0       1       1                               0D    146
     116      84       0       0       0       0       0       000010000D    147
     116       0       0       1       0                               0D    148
     123      85       0       0       0       0       0       000010200D    149
     123       0       0       1       0                               0D    150
     190      86       0       0       0       0       0       000010000D    151
     190       0       0       1       1                               0D    152
     123      87       0       0       0       0       0       000010200D    153
     123       0       0       1       0                               0D    154
     110      88       0       0       0       0       0       000010000D    155
     110       0       0       1       0                               0D    156
     508      89       0       0       0       0       0       000010000D    157
     508       0       0       1       1                               0D    158
     510      90       0       0       0       0       0       000010001D    159
     510       0       0       1       1                               0D    160
     116      91       0       0       0       0       0       000010000D    161
     116       0       0       1       0                               0D    162
     123      92       0       0       0       0       0       000010200D    163
     123       0       0       1       0                               0D    164
     190      93       0       0       0       0       0       000010000D    165
     190       0       0       1       1                               0D    166
     123      94       0       0       0       0       0       000010200D    167
     123       0       0       1       0                               0D    168
     508      95       0       0       0       0       0       000010000D    169
     508       0       0       2       1                               0D    170
     510      97       0       0       0       0       0       000010001D    171
     510       0       0       1       1                               0D    172
     514      98       0       0       0       0       0       000010000D    173
     514       0       0       1       1                               0D    174
     186      99       0       0       1       0       0       000000000D    175
     186       0    -177       1       0                               0D    176
     314     100       0       0       0       0       0       000000200D    177
     314       0       0       2       0                               0D    178
116,-6.0D0,-1.0D0,0.0D0,0;                                             1P      1
123,1.0D0,0.0D0,0.0D0;                                                 3P      2
190,1,3,7;                                                             5P      3
123,0.0D0,0.0D0,-1.0D0;                                                7P      4
502,16,-6.0D0,-1.0D0,.5D0,-6.0D0,-3.9D0,.5D0,-6.0D0,-3.9D0,            9P      5
-.5D0,-6.0D0,-1.0D0,-.5D0,-7.0D0,-3.9D0,.5D0,-7.0D0,-3.9D0,            9P      6
-.5D0,-7.0D0,0.0D0,.5D0,-7.0D0,0.0D0,-.5D0,6.0D0,-1.0D0,-.5D0,         9P      7
7.0D0,0.0D0,-.5D0,7.0D0,-3.9D0,-.5D0,6.0D0,-3.9D0,-.5D0,7.0D0,         9P      8
0.0D0,.5D0,7.0D0,-3.9D0,.5D0,6.0D0,-3.9D0,.5D0,6.0D0,-1.0D0,           9P      9
.5D0;                                                                  9P     10
110,-6.0D0,-1.0D0,.5D0,-6.0D0,-3.9D0,.5D0;                            11P     11
504,24,11,9,1,9,2,15,9,3,9,2,17,9,3,9,4,19,9,4,9,1,33,9,2,9,5,        13P     12
35,9,6,9,5,37,9,6,9,3,51,9,5,9,7,53,9,8,9,7,55,9,8,9,6,69,9,4,9,      13P     13
9,71,9,10,9,8,73,9,11,9,10,75,9,12,9,11,77,9,9,9,12,91,9,7,9,13,      13P     14
93,9,10,9,13,107,9,13,9,14,109,9,11,9,14,123,9,14,9,15,125,9,12,      13P     15
9,15,139,9,15,9,16,141,9,9,9,16,155,9,16,9,1;                         13P     16
110,-6.0D0,-3.9D0,-.5D0,-6.0D0,-3.9D0,.5D0;                           15P     17
110,-6.0D0,-3.9D0,-.5D0,-6.0D0,-1.0D0,-.5D0;                          17P     18
110,-6.0D0,-1.0D0,-.5D0,-6.0D0,-1.0D0,.5D0;                           19P     19
508,4,0,13,1,1,0,0,13,2,0,0,0,13,3,1,0,0,13,4,1,0;                    21P     20
510,5,1,1,21;                                                         23P     21
116,-6.0D0,-3.9D0,0.0D0,0;                                            25P     22
123,0.0D0,-1.0D0,0.0D0;                                               27P     23
190,25,27,31;                                                         29P     24
123,0.0D0,0.0D0,-1.0D0;                                               31P     25
110,-6.0D0,-3.9D0,.5D0,-7.0D0,-3.9D0,.5D0;                            33P     26
110,-7.0D0,-3.9D0,-.5D0,-7.0D0,-3.9D0,.5D0;                           35P     27
110,-7.0D0,-3.9D0,-.5D0,-6.0D0,-3.9D0,-.5D0;                          37P     28
508,4,0,13,5,1,0,0,13,6,0,0,0,13,7,1,0,0,13,2,1,0;                    39P     29
510,29,1,1,39;                                                        41P     30
116,-7.0D0,-3.9D0,0.0D0,0;                                            43P     31
123,-1.0D0,0.0D0,0.0D0;                                               45P     32
190,43,45,49;                                                         47P     33
123,0.0D0,0.0D0,1.0D0;                                                49P     34
110,-7.0D0,-3.9D0,.5D0,-7.0D0,0.0D0,.5D0;                             51P     35
110,-7.0D0,0.0D0,-.5D0,-7.0D0,0.0D0,.5D0;                             53P     36
110,-7.0D0,0.0D0,-.5D0,-7.0D0,-3.9D0,-.5D0;                           55P     37
508,4,0,13,8,1,0,0,13,9,0,0,0,13,10,1,0,0,13,6,1,0;                   57P     38
510,47,1,1,57;                                                        59P     39
116,4.29816513761468D0,-1.15183486238532D0,-.5D0,0;                   61P     40
123,0.0D0,0.0D0,-1.0D0;                                               63P     41
190,61,63,67;                                                         65P     42
123,-1.0D0,0.0D0,0.0D0;                                               67P     43
110,-6.0D0,-1.0D0,-.5D0,6.0D0,-1.0D0,-.5D0;                           69P     44
110,7.0D0,0.0D0,-.5D0,-7.0D0,0.0D0,-.5D0;                             71P     45
110,7.0D0,-3.9D0,-.5D0,7.0D0,0.0D0,-.5D0;                             73P     46
110,6.0D0,-3.9D0,-.5D0,7.0D0,-3.9D0,-.5D0;                            75P     47
110,6.0D0,-1.0D0,-.5D0,6.0D0,-3.9D0,-.5D0;                            77P     48
508,8,0,13,11,0,0,0,13,3,0,0,0,13,7,0,0,0,13,10,0,0,0,13,12,0,0,      79P     49
0,13,13,0,0,0,13,14,0,0,0,13,15,0,0;                                  79P     50
510,65,1,1,79;                                                        81P     51
116,0.0D0,0.0D0,0.0D0,0;                                              83P     52
123,0.0D0,1.0D0,0.0D0;                                                85P     53
190,83,85,89;                                                         87P     54
123,0.0D0,0.0D0,1.0D0;                                                89P     55
110,-7.0D0,0.0D0,.5D0,7.0D0,0.0D0,.5D0;                               91P     56
110,7.0D0,0.0D0,-.5D0,7.0D0,0.0D0,.5D0;                               93P     57
508,4,0,13,16,1,0,0,13,17,0,0,0,13,12,1,0,0,13,9,1,0;                 95P     58
510,87,1,1,95;                                                        97P     59
116,7.0D0,0.0D0,0.0D0,0;                                              99P     60
123,1.0D0,0.0D0,0.0D0;                                               101P     61
190,99,101,105;                                                      103P     62
123,0.0D0,0.0D0,-1.0D0;                                              105P     63
110,7.0D0,0.0D0,.5D0,7.0D0,-3.9D0,.5D0;                              107P     64
110,7.0D0,-3.9D0,-.5D0,7.0D0,-3.9D0,.5D0;                            109P     65
508,4,0,13,18,1,0,0,13,19,0,0,0,13,13,1,0,0,13,17,1,0;               111P     66
510,103,1,1,111;                                                     113P     67
116,7.0D0,-3.9D0,0.0D0,0;                                            115P     68
123,0.0D0,-1.0D0,0.0D0;                                              117P     69
190,115,117,121;                                                     119P     70
123,0.0D0,0.0D0,-1.0D0;                                              121P     71
110,7.0D0,-3.9D0,.5D0,6.0D0,-3.9D0,.5D0;                             123P     72
110,6.0D0,-3.9D0,-.5D0,6.0D0,-3.9D0,.5D0;                            125P     73
508,4,0,13,20,1,0,0,13,21,0,0,0,13,14,1,0,0,13,19,1,0;               127P     74
510,119,1,1,127;                                                     129P     75
116,6.0D0,-3.9D0,0.0D0,0;                                            131P     76
123,-1.0D0,0.0D0,0.0D0;                                              133P     77
190,131,133,137;                                                     135P     78
123,0.0D0,0.0D0,1.0D0;                                               137P     79
110,6.0D0,-3.9D0,.5D0,6.0D0,-1.0D0,.5D0;                             139P     80
110,6.0D0,-1.0D0,-.5D0,6.0D0,-1.0D0,.5D0;                            141P     81
508,4,0,13,22,1,0,0,13,23,0,0,0,13,15,1,0,0,13,21,1,0;               143P     82
510,135,1,1,143;                                                     145P     83
116,6.0D0,-1.0D0,0.0D0,0;                                            147P     84
123,0.0D0,-1.0D0,0.0D0;                                              149P     85
190,147,149,153;                                                     151P     86
123,0.0D0,0.0D0,-1.0D0;                                              153P     87
110,6.0D0,-1.0D0,.5D0,-6.0D0,-1.0D0,.5D0;                            155P     88
508,4,0,13,24,1,0,0,13,4,0,0,0,13,11,1,0,0,13,23,1,0;                157P     89
510,151,1,1,157;                                                     159P     90
116,4.29816513761468D0,-1.15183486238532D0,.5D0,0;                   161P     91
123,0.0D0,0.0D0,1.0D0;                                               163P     92
190,161,163,167;                                                     165P     93
123,1.0D0,0.0D0,0.0D0;                                               167P     94
508,8,0,13,16,0,0,0,13,8,0,0,0,13,5,0,0,0,13,1,0,0,0,13,24,0,0,      169P     95
0,13,22,0,0,0,13,20,0,0,0,13,18,0,0;                                 169P     96
510,165,1,1,169;                                                     171P     97
514,10,23,1,41,1,59,1,81,1,97,1,113,1,129,1,145,1,159,1,171,1;       173P     98
186,173,1,0;                                                         175P     99
314,84.7058832645416D0,83.9215695858002D0,83.9215695858002D0,        177P    100
27HMetall-AL-6061 (gleichmäß.);                                      177P    101
S      1G      5D    178P    101                                        T      1
