                                                                        S      1
,,22HZuganker G 50 M12 kurz,9HSV7307V_A,22HAutodesk Inventor 2015,7HunknG      1
own,32,38,7,99,15,,1.,2,2HMM,1,0.08,15H20151127.085558,0.01,10000.,,,11,G      2
0,;                                                                     G      3
     186       1                                                00000000D      1
     186             -73       1       0                               0D      2
     514       2                                                00010000D      3
     514                       1       1                               0D      4
     510       3                                                00010000D      5
     510             -73       1       1                               0D      6
     510       4                                                00010000D      7
     510             -73       1       1                               0D      8
     510       5                                                00010000D      9
     510             -73       1       1                               0D     10
     510       6                                                00010000D     11
     510             -73       1       1                               0D     12
     510       7                                                00010000D     13
     510             -73       1       1                               0D     14
     510       8                                                00010000D     15
     510             -73       1       1                               0D     16
     508       9                                                00010000D     17
     508                       1       1                               0D     18
     508      10                                                00010000D     19
     508                       2       1                               0D     20
     508      12                                                00010000D     21
     508                       1       1                               0D     22
     508      13                                                00010000D     23
     508                       1       1                               0D     24
     508      14                                                00010000D     25
     508                       1       1                               0D     26
     508      15                                                00010000D     27
     508                       1       1                               0D     28
     508      16                                                00010000D     29
     508                       1       1                               0D     30
     126      17                                                00010000D     31
     126       0               9       0                               0D     32
     126      26                                                00010000D     33
     126       0               3       0                               0D     34
     126      29                                                00010000D     35
     126       0               5       0                               0D     36
     126      34                                                00010000D     37
     126       0               5       0                               0D     38
     126      39                                                00010000D     39
     126       0               3       0                               0D     40
     126      42                                                00010000D     41
     126       0               5       0                               0D     42
     126      47                                                00010000D     43
     126       0               5       0                               0D     44
     126      52                                                00010000D     45
     126       0              37       0                               0D     46
     126      89                                                00010000D     47
     126       0              38       0                               0D     48
     126     127                                                00010000D     49
     126       0               4       0                               0D     50
     126     131                                                00010000D     51
     126       0               9       0                               0D     52
     126     140                                                00010000D     53
     126       0               3       0                               0D     54
     128     143                                                00010000D     55
     128       0     -73      13       0                               0D     56
     128     156                                                00010000D     57
     128       0     -73      14       0                               0D     58
     128     170                                                00010000D     59
     128       0     -73       3       0                               0D     60
     128     173                                                00010000D     61
     128       0     -73      15       0                               0D     62
     128     188                                                00010000D     63
     128       0     -73       2       0                               0D     64
     128     190                                                00010000D     65
     128       0     -73      13       0                               0D     66
     502     203                                                00010000D     67
     502                       4       1                               0D     68
     504     207                                                00010001D     69
     504                       3       1                               0D     70
     406     210                                                00000000D     71
     406                       1      15                               0D     72
     314     211                                                00000200D     73
     314                       1       0                               0D     74
186,3,1,0,0,1,71;                                                      1P      1
514,6,5,1,7,1,9,1,11,1,13,1,15,1;                                      3P      2
510,55,1,1,17;                                                         5P      3
510,57,2,1,19,21;                                                      7P      4
510,59,1,1,23;                                                         9P      5
510,61,1,1,25;                                                        11P      6
510,63,1,1,27;                                                        13P      7
510,65,1,1,29;                                                        15P      8
508,5,0,69,1,1,0,0,69,2,1,0,0,69,3,1,0,0,69,4,1,0,0,69,2,0,0;         17P      9
508,6,0,69,3,0,0,0,69,4,0,0,0,69,5,1,0,0,69,6,0,0,0,69,7,0,0,0,       19P     10
69,5,0,0;                                                             19P     11
508,2,0,69,8,1,0,0,69,9,1,0;                                          21P     12
508,1,0,69,1,0,0;                                                     23P     13
508,5,0,69,6,1,0,0,69,7,1,0,0,69,10,1,0,0,69,11,1,0,0,69,10,0,0;      25P     14
508,1,0,69,11,0,0;                                                    27P     15
508,4,0,69,12,1,0,0,69,9,0,0,0,69,8,0,0,0,69,12,0,0;                  29P     16
126,8,2,0,1,0,0,-3.14159265358979,-3.14159265358979,                  31P     17
-3.14159265358979,-1.5707963267949,-1.5707963267949,0.,0.,            31P     18
1.5707963267949,1.5707963267949,3.14159265358979,                     31P     19
3.14159265358979,3.14159265358979,1.,0.707106781186548,1.,            31P     20
0.707106781186548,1.,0.707106781186548,1.,0.707106781186548,1.,       31P     21
-6.12323399573677D-16,5.,-43.,-5.,5.,-43.,-5.,                        31P     22
-3.06161699786839D-16,-43.,-5.,-5.,-43.,0.,-5.,-43.,5.,-5.,-43.,      31P     23
5.,-3.06161699786839D-16,-43.,5.,5.,-43.,6.12323399573677D-16,        31P     24
5.,-43.,-3.14159265358979,3.14159265358979,0.,0.,0.;                  31P     25
126,1,1,0,0,1,0,-0.128564869306645,-0.128564869306645,                33P     26
0.128564869306645,0.128564869306645,1.,1.,0.,5.,-43.,0.,6.,-42.,      33P     27
-0.128564869306645,0.128564869306645,0.,0.,0.;                        33P     28
126,4,2,0,0,0,0,-3.14159265358979,-3.14159265358979,                  35P     29
-3.14159265358979,-1.5707963267949,-1.5707963267949,0.,0.,0.,1.,      35P     30
0.707106781186548,1.,0.707106781186547,1.,7.34788079488412D-16,       35P     31
6.,-42.,6.,6.,-42.,6.,-3.67394039744206D-16,-42.,6.,-6.,-42.,0.,      35P     32
-6.,-42.,-3.14159265358979,0.,0.,0.,0.;                               35P     33
126,4,2,0,0,0,0,0.,0.,0.,1.5707963267949,1.5707963267949,             37P     34
3.14159265358979,3.14159265358979,3.14159265358979,1.,                37P     35
0.707106781186547,1.,0.707106781186548,1.,0.,-6.,-42.,-6.,-6.,        37P     36
-42.,-6.,-3.67394039744206D-16,-42.,-6.,6.,-42.,                      37P     37
-7.34788079488412D-16,6.,-42.,0.,3.14159265358979,0.,0.,0.;           37P     38
126,1,1,0,0,1,0,-1.58333333333333,-1.58333333333333,5.25,5.25,        39P     39
1.,1.,0.,-6.,-42.,0.,-6.,-1.00000000000001,-1.58333333333333,         39P     40
5.25,0.,0.,0.;                                                        39P     41
126,4,2,0,0,0,0,-3.14159265358979,-3.14159265358979,                  41P     42
-3.14159265358979,-1.5707963267949,-1.5707963267949,0.,0.,0.,1.,      41P     43
0.707106781186548,1.,0.707106781186547,1.,-7.34788079488412D-16,      41P     44
6.,-1.,-6.,6.,-1.,-6.,-3.67394039744206D-16,-1.,-6.,-6.,-1.,0.,       41P     45
-6.,-1.,-3.14159265358979,0.,0.,0.,0.;                                41P     46
126,4,2,0,0,0,0,0.,0.,0.,1.5707963267949,1.5707963267949,             43P     47
3.14159265358979,3.14159265358979,3.14159265358979,1.,                43P     48
0.707106781186547,1.,0.707106781186548,1.,0.,-6.,-1.,6.,-6.,-1.,      43P     49
6.,-3.67394039744206D-16,-1.,6.,6.,-1.,7.34788079488412D-16,6.,       43P     50
-1.,0.,3.14159265358979,0.,0.,0.;                                     43P     51
126,25,3,0,0,1,0,0.790643271536965,0.790643271536965,                 45P     52
0.790643271536965,0.790643271536965,0.886300370261807,                45P     53
0.886300370261807,0.981957468986649,0.981957468986649,                45P     54
1.09089511419826,1.09089511419826,1.19983275940987,                   45P     55
1.19983275940987,1.39075468736303,1.39075468736303,                   45P     56
1.58167661531619,1.58167661531619,1.77259854326934,                   45P     57
1.77259854326934,1.9635204712225,1.9635204712225,                     45P     58
2.07245811643411,2.07245811643411,2.18139576164572,                   45P     59
2.18139576164572,2.27705286037056,2.27705286037056,                   45P     60
2.37270995909541,2.37270995909541,2.37270995909541,                   45P     61
2.37270995909541,1.,1.,1.,1.,1.,1.,1.,1.,1.,1.,1.,1.,1.,1.,1.,        45P     62
1.,1.,1.,1.,1.,1.,1.,1.,1.,1.,1.,6.,-2.77555756156289D-16,-19.,       45P     63
6.,-0.318856995749474,-19.,5.97247876080392,-0.659581135600181,       45P     64
-18.9453305576781,5.86633898118755,-1.30062152532763,                 45P     65
-18.7300799728422,5.78850078199155,-1.601397891709,                   45P     66
-18.5704864095542,5.61201747597235,-2.14420702043316,                 45P     67
-18.1972411882743,5.49487867836402,-2.42533765204821,                 45P     68
-17.9434119030741,5.24940422435544,-2.91885404607907,                 45P     69
-17.3774909602401,5.1217924756341,-3.13196013099747,                  45P     70
-17.0657139677627,4.81150729805337,-3.60252612610597,                 45P     71
-16.2402717874572,4.60930464536533,-3.84714689481865,                 45P     72
-15.6217380995677,4.32211533736875,-4.16719881097873,                 45P     73
-14.3204092614629,4.24264068711929,-4.24264068711929,                 45P     74
-13.6364064265105,4.24264068711929,-4.24264068711929,                 45P     75
-12.3635935734895,4.32211533736875,-4.16719881097873,                 45P     76
-11.6795907385372,4.60930464536533,-3.84714689481865,                 45P     77
-10.3782619004323,4.81150729805337,-3.60252612610597,                 45P     78
-9.75972821254282,5.1217924756341,-3.13196013099747,                  45P     79
-8.93428603223736,5.24940422435543,-2.91885404607908,                 45P     80
-8.62250903975994,5.49487867836402,-2.42533765204821,                 45P     81
-8.05658809692588,5.61201747597235,-2.14420702043316,                 45P     82
-7.8027588117257,5.78850078199155,-1.601397891709,                    45P     83
-7.4295135904458,5.86633898118755,-1.30062152532763,                  45P     84
-7.2699200271578,5.97247876080392,-0.659581135600182,                 45P     85
-7.05466944232192,6.,-0.318856995749473,-7.,6.,                       45P     86
4.16333634234434D-16,-7.,0.790643271536965,2.37270995909541,0.,       45P     87
0.,0.;                                                                45P     88
126,26,3,0,0,1,0,2.37270995909541,2.37270995909541,                   47P     89
2.37270995909541,2.37270995909541,2.46836705782025,                   47P     90
2.46836705782025,2.56402415654509,2.56402415654509,                   47P     91
2.6729618017567,2.6729618017567,2.78189944696831,                     47P     92
2.78189944696831,2.97282137492147,2.97282137492147,                   47P     93
3.16374330287463,3.16374330287463,3.16374330287463,                   47P     94
3.3371496365259,3.3371496365259,3.51055597017718,                     47P     95
3.51055597017718,3.62832981113156,3.62832981113156,                   47P     96
3.74610365208595,3.74610365208595,3.85024511324877,                   47P     97
3.85024511324877,3.95438657441159,3.95438657441159,                   47P     98
3.95438657441159,3.95438657441159,1.,1.,1.,1.,1.,1.,1.,1.,1.,1.,      47P     99
1.,1.,1.,1.,1.,1.,1.,1.,1.,1.,1.,1.,1.,1.,1.,1.,1.,6.,                47P    100
6.93889390390723D-17,-7.,6.,0.318856995749474,-7.,                    47P    101
5.97247876080392,0.65958113560018,-7.05466944232192,                  47P    102
5.86633898118755,1.30062152532763,-7.2699200271578,                   47P    103
5.78850078199156,1.601397891709,-7.4295135904458,                     47P    104
5.61201747597235,2.14420702043316,-7.80275881172569,                  47P    105
5.49487867836402,2.4253376520482,-8.05658809692587,                   47P    106
5.24940422435544,2.91885404607907,-8.62250903975993,                  47P    107
5.1217924756341,3.13196013099747,-8.93428603223735,                   47P    108
4.81150729805337,3.60252612610597,-9.75972821254281,                  47P    109
4.60930464536533,3.84714689481865,-10.3782619004323,                  47P    110
4.32211533736875,4.16719881097873,-11.6795907385372,                  47P    111
4.24264068711929,4.24264068711929,-12.3635935734895,                  47P    112
4.24264068711929,4.24264068711929,-13.,4.24264068711929,              47P    113
4.24264068711929,-13.5780211121709,4.30792849396003,                  47P    114
4.18021636118486,-14.2019404890922,4.55097578491885,                  47P    115
3.91421474777324,-15.3981109056447,4.72469956284137,                  47P    116
3.71057064550477,-15.9711635544037,5.01734664937384,                  47P    117
3.29670516674158,-16.7988945119301,5.1545097481487,                   47P    118
3.08414522758289,-17.1476608367487,5.42318121078353,                  47P    119
2.58263992604044,-17.7840294873364,5.55383054836236,                  47P    120
2.29293228596228,-18.0713932180117,5.75406147472609,                  47P    121
1.7236523670641,-18.4991901171198,5.84390202980436,                   47P    122
1.40390056140837,-18.6842336180606,5.9673725457795,                   47P    123
0.715956249833293,-18.935250630376,6.,0.347138203876073,-19.,6.,      47P    124
-2.28983498828939D-15,-19.,2.37270995909541,3.95438657441159,0.,      47P    125
0.,0.;                                                                47P    126
126,1,1,0,0,1,0,-0.128564869306645,-0.128564869306645,                49P    127
0.128564869306645,0.128564869306645,1.,1.,0.,6.,-1.,0.,5.,            49P    128
-2.77555756156289D-16,-0.128564869306645,0.128564869306645,0.,        49P    129
0.,0.;                                                                49P    130
126,8,2,0,1,0,0,-3.14159265358979,-3.14159265358979,                  51P    131
-3.14159265358979,-1.5707963267949,-1.5707963267949,0.,0.,            51P    132
1.5707963267949,1.5707963267949,3.14159265358979,                     51P    133
3.14159265358979,3.14159265358979,1.,0.707106781186548,1.,            51P    134
0.707106781186548,1.,0.707106781186548,1.,0.707106781186548,1.,       51P    135
6.12323399573677D-16,5.,0.,5.,5.,0.,5.,-3.06161699786838D-16,0.,      51P    136
5.,-5.,0.,0.,-5.,0.,-5.,-5.,0.,-5.,-3.06161699786838D-16,0.,-5.,      51P    137
5.,0.,-6.12323399573677D-16,5.,0.,-3.14159265358979,                  51P    138
3.14159265358979,0.,0.,0.;                                            51P    139
126,1,1,0,0,1,0,-1.4142135623731,-1.4142135623731,                    53P    140
1.41421356237309,1.41421356237309,1.,1.,0.,0.,-13.,6.,0.,-19.,        53P    141
-1.4142135623731,1.41421356237309,0.,0.,0.;                           53P    142
128,1,8,1,2,0,1,0,0,0,-0.128564869306645,-0.128564869306645,          55P    143
0.128564869306645,0.128564869306645,-3.14159265358979,                55P    144
-3.14159265358979,-3.14159265358979,-1.5707963267949,                 55P    145
-1.5707963267949,0.,0.,1.5707963267949,1.5707963267949,               55P    146
3.14159265358979,3.14159265358979,3.14159265358979,1.,1.,             55P    147
0.707106781186548,0.707106781186548,1.,1.,0.707106781186548,          55P    148
0.707106781186548,1.,1.,0.707106781186548,0.707106781186548,1.,       55P    149
1.,0.707106781186548,0.707106781186548,1.,1.,0.,5.,-43.,0.,6.,        55P    150
-42.,5.,5.,-43.,6.,6.,-42.,5.,0.,-43.,6.,0.,-42.,5.,-5.,-43.,6.,      55P    151
-6.,-42.,0.,-5.,-43.,0.,-6.,-42.,-5.,-5.,-43.,-6.,-6.,-42.,-5.,       55P    152
0.,-43.,-6.,0.,-42.,-5.,5.,-43.,-6.,6.,-42.,0.,5.,-43.,0.,6.,         55P    153
-42.,-0.128564869306645,0.128564869306645,-3.14159265358979,          55P    154
3.14159265358979;                                                     55P    155
128,1,8,1,2,0,1,0,0,0,-5.25,-5.25,1.58333333333333,                   57P    156
1.58333333333333,-3.14159265358979,-3.14159265358979,                 57P    157
-3.14159265358979,-1.5707963267949,-1.5707963267949,0.,0.,            57P    158
1.5707963267949,1.5707963267949,3.14159265358979,                     57P    159
3.14159265358979,3.14159265358979,1.,1.,0.707106781186548,            57P    160
0.707106781186548,1.,1.,0.707106781186548,0.707106781186548,1.,       57P    161
1.,0.707106781186548,0.707106781186548,1.,1.,0.707106781186548,       57P    162
0.707106781186548,1.,1.,0.,-6.,-42.,0.,-6.,-1.00000000000001,         57P    163
-6.,-6.,-42.,-6.,-6.,-1.00000000000001,-6.,0.,-42.,-6.,0.,            57P    164
-1.00000000000001,-6.,6.,-42.,-6.,6.,-1.00000000000001,0.,6.,         57P    165
-42.,0.,6.,-1.00000000000001,6.,6.,-42.,6.,6.,-1.00000000000001,      57P    166
6.,0.,-42.,6.,0.,-1.00000000000001,6.,-6.,-42.,6.,-6.,                57P    167
-1.00000000000001,0.,-6.,-42.,0.,-6.,-1.00000000000001,-5.25,         57P    168
1.58333333333333,-3.14159265358979,3.14159265358979;                  57P    169
128,1,1,1,1,0,0,1,0,0,-0.5,-0.5,0.5,0.5,-0.800000000000001,           59P    170
-0.800000000000001,0.2,0.2,1.,1.,1.,1.,5.,-5.,-43.,-5.,-5.,-43.,      59P    171
5.,5.,-43.,-5.,5.,-43.,-0.5,0.5,-0.800000000000001,0.2;               59P    172
128,1,8,1,2,0,1,0,0,0,-0.128564869306645,-0.128564869306645,          61P    173
0.128564869306645,0.128564869306645,-3.14159265358979,                61P    174
-3.14159265358979,-3.14159265358979,-1.5707963267949,                 61P    175
-1.5707963267949,0.,0.,1.5707963267949,1.5707963267949,               61P    176
3.14159265358979,3.14159265358979,3.14159265358979,1.,1.,             61P    177
0.707106781186548,0.707106781186548,1.,1.,0.707106781186548,          61P    178
0.707106781186548,1.,1.,0.707106781186548,0.707106781186548,1.,       61P    179
1.,0.707106781186548,0.707106781186548,1.,1.,0.,6.,-1.,0.,5.,         61P    180
-2.77555756156289D-16,6.,6.,-1.,5.,5.,-2.77555756156289D-16,6.,       61P    181
0.,-1.,5.,0.,-2.77555756156289D-16,6.,-6.,-1.,5.,-5.,                 61P    182
-2.77555756156289D-16,0.,-6.,-1.,0.,-5.,-2.77555756156289D-16,        61P    183
-6.,-6.,-1.,-5.,-5.,-2.77555756156289D-16,-6.,0.,-1.,-5.,0.,          61P    184
-2.77555756156289D-16,-6.,6.,-1.,-5.,5.,-2.77555756156289D-16,        61P    185
0.,6.,-1.,0.,5.,-2.77555756156289D-16,-0.128564869306645,             61P    186
0.128564869306645,-3.14159265358979,3.14159265358979;                 61P    187
128,1,1,1,1,0,0,1,0,0,-0.5,-0.5,0.5,0.5,-0.8,-0.8,0.2,0.2,1.,1.,      63P    188
1.,1.,-5.,-5.,0.,5.,-5.,0.,-5.,5.,0.,5.,5.,0.,-0.5,0.5,-0.8,0.2;      63P    189
128,1,8,1,2,0,1,0,0,0,-1.4142135623731,-1.4142135623731,              65P    190
1.41421356237309,1.41421356237309,-3.14159265358979,                  65P    191
-3.14159265358979,-3.14159265358979,-1.5707963267949,                 65P    192
-1.5707963267949,0.,0.,1.5707963267949,1.5707963267949,               65P    193
3.14159265358979,3.14159265358979,3.14159265358979,1.,1.,             65P    194
0.707106781186548,0.707106781186548,1.,1.,0.707106781186548,          65P    195
0.707106781186548,1.,1.,0.707106781186548,0.707106781186548,1.,       65P    196
1.,0.707106781186548,0.707106781186548,1.,1.,0.,0.,-13.,6.,0.,        65P    197
-19.,0.,0.,-13.,6.,6.,-19.,0.,0.,-13.,6.,6.,-13.,0.,0.,-13.,6.,       65P    198
6.,-7.,0.,0.,-13.,6.,0.,-7.,0.,0.,-13.,6.,-6.,-7.,0.,0.,-13.,6.,      65P    199
-6.,-13.,0.,0.,-13.,6.,-6.,-19.,0.,0.,-13.,6.,0.,-19.,                65P    200
-1.4142135623731,1.41421356237309,-3.14159265358979,                  65P    201
3.14159265358979;                                                     65P    202
502,9,-6.12323399573677D-16,5.,-43.,7.34788079488412D-16,6.,          67P    203
-42.,0.,-6.,-42.,0.,-6.,-1.00000000000001,-7.34788079488412D-16,      67P    204
6.,-1.,6.00000000000001,0.,-19.,6.00000000000001,0.,-7.,              67P    205
6.12323399573677D-16,5.,0.,0.,0.,-13.;                                67P    206
504,12,31,67,1,67,1,33,67,1,67,2,35,67,2,67,3,37,67,3,67,2,39,        69P    207
67,3,67,4,41,67,5,67,4,43,67,4,67,5,45,67,6,67,7,47,67,7,67,6,        69P    208
49,67,5,67,8,51,67,8,67,8,53,67,9,67,6;                               69P    209
406,1,15HVolumenkörper1;                                             71P    210
314,63.921568627451,63.921568627451,68.6274509803922,;                73P    211
S      1G      3D     74P    211                                        T      1
