ISO-10303-21;
HEADER;
/****************************************************************
 * Generated by software with PDE/Lib inside                    *
 * PDElib Version v51a, created Tue 12/06/2005                  *
 * International Technegroup Inc. (www.iti-oh.com)              *
 ****************************************************************/
FILE_DESCRIPTION((''),'2;1');
FILE_NAME('U:\\Paletti Norm\\Paletti Artikel f. Palkat\\STEP\\SP672_extern.ipt.step','2007-09-10T15:11:21',(''),(''),'Autodesk Inventor 11','Autodesk Inventor 11','');
FILE_SCHEMA(('AUTOMOTIVE_DESIGN { 1 0 10303 214 1 1 1 1 }'));
ENDSEC;
DATA;
#5=APPLICATION_CONTEXT('automotive design');
#6=APPLICATION_PROTOCOL_DEFINITION('International Standard','automotive_design',2001,#5);
#7=PRODUCT_CONTEXT('',#5,'mechanical');
#8=PRODUCT('SP672_extern','SP672_extern',$,(#7));
#9=PRODUCT_RELATED_PRODUCT_CATEGORY('part',$,(#8));
#10=PRODUCT_DEFINITION_FORMATION('',$,#8);
#11=PRODUCT_DEFINITION_CONTEXT('part definition',#5,'design');
#12=PRODUCT_DEFINITION('',$,#10,#11);
#18=(NAMED_UNIT(*)PLANE_ANGLE_UNIT()SI_UNIT($,.RADIAN.));
#19=DIMENSIONAL_EXPONENTS(0.0,0.0,0.0,0.0,0.0,0.0,0.0);
#20=PLANE_ANGLE_MEASURE_WITH_UNIT(PLANE_ANGLE_MEASURE(0.017453292500000),#18);
#24=(CONVERSION_BASED_UNIT('DEGREE',#20)NAMED_UNIT(#19)PLANE_ANGLE_UNIT());
#28=(NAMED_UNIT(*)SI_UNIT($,.STERADIAN.)SOLID_ANGLE_UNIT());
#32=(LENGTH_UNIT()NAMED_UNIT(*)SI_UNIT(.MILLI.,.METRE.));
#34=UNCERTAINTY_MEASURE_WITH_UNIT(LENGTH_MEASURE(0.010000000000000),#32,'DISTANCE_ACCURACY_VALUE','');
#36=(GEOMETRIC_REPRESENTATION_CONTEXT(3)GLOBAL_UNCERTAINTY_ASSIGNED_CONTEXT((#34))GLOBAL_UNIT_ASSIGNED_CONTEXT((#24,#28,#32))REPRESENTATION_CONTEXT('None','None'));
#37=AXIS2_PLACEMENT_3D('',#38,#39,#40);
#38=CARTESIAN_POINT('',(0.0,0.0,0.0));
#39=DIRECTION('',(0.0,0.0,1.0));
#40=DIRECTION('',(1.0,0.0,0.0));
#41=SHAPE_REPRESENTATION('',(#37),#36);
#42=PRODUCT_DEFINITION_SHAPE('','',#12);
#43=SHAPE_DEFINITION_REPRESENTATION(#42,#41);
#44=CARTESIAN_POINT('',(12.999997714878653,12.999979364708219,0.0));
#45=DIRECTION('',(1.0,0.0,0.0));
#46=DIRECTION('',(0.0,0.0,-1.0));
#47=AXIS2_PLACEMENT_3D('',#44,#45,#46);
#48=PLANE('',#47);
#49=CARTESIAN_POINT('',(12.999997714878653,12.999979364708219,0.500000000000000));
#50=VERTEX_POINT('',#49);
#51=CARTESIAN_POINT('',(12.999997714878599,-13.000020635291776,0.500000000000000));
#52=VERTEX_POINT('',#51);
#53=CARTESIAN_POINT('',(12.999997714878653,12.999979364708219,0.500000000000000));
#54=DIRECTION('',(0.0,-1.0,0.0));
#55=VECTOR('',#54,25.999999999999993);
#56=LINE('',#53,#55);
#57=EDGE_CURVE('',#50,#52,#56,.T.);
#58=ORIENTED_EDGE('',*,*,#57,.F.);
#59=CARTESIAN_POINT('',(12.999997714878653,12.999979364708219,-0.500000000000000));
#60=VERTEX_POINT('',#59);
#61=CARTESIAN_POINT('',(12.999997714878653,12.999979364708219,0.500000000000000));
#62=DIRECTION('',(0.0,0.0,-1.0));
#63=VECTOR('',#62,1.0);
#64=LINE('',#61,#63);
#65=EDGE_CURVE('',#50,#60,#64,.T.);
#66=ORIENTED_EDGE('',*,*,#65,.T.);
#67=CARTESIAN_POINT('',(12.999997714878599,-13.000020635291776,-0.500000000000000));
#68=VERTEX_POINT('',#67);
#69=CARTESIAN_POINT('',(12.999997714878599,-13.000020635291776,-0.500000000000000));
#70=DIRECTION('',(0.0,1.0,0.0));
#71=VECTOR('',#70,25.999999999999993);
#72=LINE('',#69,#71);
#73=EDGE_CURVE('',#68,#60,#72,.T.);
#74=ORIENTED_EDGE('',*,*,#73,.F.);
#75=CARTESIAN_POINT('',(12.999997714878599,-13.000020635291776,0.500000000000000));
#76=DIRECTION('',(0.0,0.0,-1.0));
#77=VECTOR('',#76,1.0);
#78=LINE('',#75,#77);
#79=EDGE_CURVE('',#52,#68,#78,.T.);
#80=ORIENTED_EDGE('',*,*,#79,.F.);
#81=EDGE_LOOP('',(#58,#66,#74,#80));
#82=FACE_OUTER_BOUND('',#81,.T.);
#83=ADVANCED_FACE('',(#82),#48,.F.);
#84=CARTESIAN_POINT('',(12.999997714878599,-13.000020635291776,0.0));
#85=DIRECTION('',(0.0,-1.0,0.0));
#86=DIRECTION('',(0.0,0.0,-1.0));
#87=AXIS2_PLACEMENT_3D('',#84,#85,#86);
#88=PLANE('',#87);
#89=CARTESIAN_POINT('',(-13.000002285121397,-13.000020635291786,0.500000000000000));
#90=VERTEX_POINT('',#89);
#91=CARTESIAN_POINT('',(12.999997714878599,-13.000020635291776,0.500000000000000));
#92=DIRECTION('',(-1.0,0.0,0.0));
#93=VECTOR('',#92,25.999999999999996);
#94=LINE('',#91,#93);
#95=EDGE_CURVE('',#52,#90,#94,.T.);
#96=ORIENTED_EDGE('',*,*,#95,.F.);
#97=ORIENTED_EDGE('',*,*,#79,.T.);
#98=CARTESIAN_POINT('',(-13.000002285121397,-13.000020635291786,-0.500000000000000));
#99=VERTEX_POINT('',#98);
#100=CARTESIAN_POINT('',(-13.000002285121397,-13.000020635291786,-0.500000000000000));
#101=DIRECTION('',(1.0,0.0,0.0));
#102=VECTOR('',#101,25.999999999999996);
#103=LINE('',#100,#102);
#104=EDGE_CURVE('',#99,#68,#103,.T.);
#105=ORIENTED_EDGE('',*,*,#104,.F.);
#106=CARTESIAN_POINT('',(-13.000002285121397,-13.000020635291786,0.500000000000000));
#107=DIRECTION('',(0.0,0.0,-1.0));
#108=VECTOR('',#107,1.0);
#109=LINE('',#106,#108);
#110=EDGE_CURVE('',#90,#99,#109,.T.);
#111=ORIENTED_EDGE('',*,*,#110,.F.);
#112=EDGE_LOOP('',(#96,#97,#105,#111));
#113=FACE_OUTER_BOUND('',#112,.T.);
#114=ADVANCED_FACE('',(#113),#88,.F.);
#115=CARTESIAN_POINT('',(-13.000002285121397,-13.000020635291786,0.0));
#116=DIRECTION('',(-1.0,0.0,0.0));
#117=DIRECTION('',(0.0,0.0,1.0));
#118=AXIS2_PLACEMENT_3D('',#115,#116,#117);
#119=PLANE('',#118);
#120=CARTESIAN_POINT('',(-13.000002285121326,12.999979364708238,0.500000000000000));
#121=VERTEX_POINT('',#120);
#122=CARTESIAN_POINT('',(-13.000002285121397,-13.000020635291786,0.500000000000000));
#123=DIRECTION('',(0.0,1.0,0.0));
#124=VECTOR('',#123,26.000000000000025);
#125=LINE('',#122,#124);
#126=EDGE_CURVE('',#90,#121,#125,.T.);
#127=ORIENTED_EDGE('',*,*,#126,.F.);
#128=ORIENTED_EDGE('',*,*,#110,.T.);
#129=CARTESIAN_POINT('',(-13.000002285121326,12.999979364708238,-0.500000000000000));
#130=VERTEX_POINT('',#129);
#131=CARTESIAN_POINT('',(-13.000002285121326,12.999979364708238,-0.500000000000000));
#132=DIRECTION('',(0.0,-1.0,0.0));
#133=VECTOR('',#132,26.000000000000025);
#134=LINE('',#131,#133);
#135=EDGE_CURVE('',#130,#99,#134,.T.);
#136=ORIENTED_EDGE('',*,*,#135,.F.);
#137=CARTESIAN_POINT('',(-13.000002285121326,12.999979364708238,-0.500000000000000));
#138=DIRECTION('',(0.0,0.0,1.0));
#139=VECTOR('',#138,1.0);
#140=LINE('',#137,#139);
#141=EDGE_CURVE('',#130,#121,#140,.T.);
#142=ORIENTED_EDGE('',*,*,#141,.T.);
#143=EDGE_LOOP('',(#127,#128,#136,#142));
#144=FACE_OUTER_BOUND('',#143,.T.);
#145=ADVANCED_FACE('',(#144),#119,.F.);
#146=CARTESIAN_POINT('',(-13.000002285121326,12.999979364708238,0.0));
#147=DIRECTION('',(0.0,1.0,0.0));
#148=DIRECTION('',(0.0,0.0,1.0));
#149=AXIS2_PLACEMENT_3D('',#146,#147,#148);
#150=PLANE('',#149);
#151=CARTESIAN_POINT('',(-13.000002285121326,12.999979364708238,0.500000000000000));
#152=DIRECTION('',(1.0,0.0,0.0));
#153=VECTOR('',#152,25.999999999999979);
#154=LINE('',#151,#153);
#155=EDGE_CURVE('',#121,#50,#154,.T.);
#156=ORIENTED_EDGE('',*,*,#155,.F.);
#157=ORIENTED_EDGE('',*,*,#141,.F.);
#158=CARTESIAN_POINT('',(12.999997714878653,12.999979364708219,-0.500000000000000));
#159=DIRECTION('',(-1.0,0.0,0.0));
#160=VECTOR('',#159,25.999999999999979);
#161=LINE('',#158,#160);
#162=EDGE_CURVE('',#60,#130,#161,.T.);
#163=ORIENTED_EDGE('',*,*,#162,.F.);
#164=ORIENTED_EDGE('',*,*,#65,.F.);
#165=EDGE_LOOP('',(#156,#157,#163,#164));
#166=FACE_OUTER_BOUND('',#165,.T.);
#167=ADVANCED_FACE('',(#166),#150,.F.);
#168=CARTESIAN_POINT('',(-0.000002285121370,-0.000020635291763,-0.500000000000000));
#169=DIRECTION('',(0.0,0.0,1.0));
#170=DIRECTION('',(1.0,0.0,0.0));
#171=AXIS2_PLACEMENT_3D('',#168,#169,#170);
#172=PLANE('',#171);
#173=CARTESIAN_POINT('',(17.999997714878589,19.999979364708238,-0.500000000000000));
#174=VERTEX_POINT('',#173);
#175=CARTESIAN_POINT('',(-18.000002285121354,19.999979364708238,-0.500000000000000));
#176=VERTEX_POINT('',#175);
#177=CARTESIAN_POINT('',(17.999997714878589,19.999979364708238,-0.500000000000000));
#178=DIRECTION('',(-1.0,0.0,0.0));
#179=VECTOR('',#178,35.999999999999943);
#180=LINE('',#177,#179);
#181=EDGE_CURVE('',#174,#176,#180,.T.);
#182=ORIENTED_EDGE('',*,*,#181,.F.);
#183=CARTESIAN_POINT('',(19.999997714878617,17.999979364708238,-0.500000000000000));
#184=VERTEX_POINT('',#183);
#185=CARTESIAN_POINT('',(19.999997714878617,17.999979364708238,-0.500000000000000));
#186=DIRECTION('',(-0.707106781186553,0.707106781186542,0.0));
#187=VECTOR('',#186,2.828427124746210);
#188=LINE('',#185,#187);
#189=EDGE_CURVE('',#184,#174,#188,.T.);
#190=ORIENTED_EDGE('',*,*,#189,.F.);
#191=CARTESIAN_POINT('',(19.999997714878617,-18.000020635291762,-0.500000000000000));
#192=VERTEX_POINT('',#191);
#193=CARTESIAN_POINT('',(19.999997714878617,-18.000020635291762,-0.500000000000000));
#194=DIRECTION('',(0.0,1.0,0.0));
#195=VECTOR('',#194,36.0);
#196=LINE('',#193,#195);
#197=EDGE_CURVE('',#192,#184,#196,.T.);
#198=ORIENTED_EDGE('',*,*,#197,.F.);
#199=CARTESIAN_POINT('',(17.999997714878589,-20.000020635291765,-0.500000000000000));
#200=VERTEX_POINT('',#199);
#201=CARTESIAN_POINT('',(17.999997714878589,-20.000020635291765,-0.500000000000000));
#202=DIRECTION('',(0.707106781186552,0.707106781186543,0.0));
#203=VECTOR('',#202,2.828427124746213);
#204=LINE('',#201,#203);
#205=EDGE_CURVE('',#200,#192,#204,.T.);
#206=ORIENTED_EDGE('',*,*,#205,.F.);
#207=CARTESIAN_POINT('',(-18.000002285121354,-20.000020635291765,-0.500000000000000));
#208=VERTEX_POINT('',#207);
#209=CARTESIAN_POINT('',(-18.000002285121354,-20.000020635291765,-0.500000000000000));
#210=DIRECTION('',(1.0,0.0,0.0));
#211=VECTOR('',#210,35.999999999999943);
#212=LINE('',#209,#211);
#213=EDGE_CURVE('',#208,#200,#212,.T.);
#214=ORIENTED_EDGE('',*,*,#213,.F.);
#215=CARTESIAN_POINT('',(-20.000002285121354,-18.000020635291762,-0.500000000000000));
#216=VERTEX_POINT('',#215);
#217=CARTESIAN_POINT('',(-20.000002285121354,-18.000020635291762,-0.500000000000000));
#218=DIRECTION('',(0.707106781186547,-0.707106781186548,0.0));
#219=VECTOR('',#218,2.828427124746193);
#220=LINE('',#217,#219);
#221=EDGE_CURVE('',#216,#208,#220,.T.);
#222=ORIENTED_EDGE('',*,*,#221,.F.);
#223=CARTESIAN_POINT('',(-20.000002285121354,17.999979364708238,-0.500000000000000));
#224=VERTEX_POINT('',#223);
#225=CARTESIAN_POINT('',(-20.000002285121354,17.999979364708238,-0.500000000000000));
#226=DIRECTION('',(0.0,-1.0,0.0));
#227=VECTOR('',#226,36.0);
#228=LINE('',#225,#227);
#229=EDGE_CURVE('',#224,#216,#228,.T.);
#230=ORIENTED_EDGE('',*,*,#229,.F.);
#231=CARTESIAN_POINT('',(-18.000002285121354,19.999979364708238,-0.500000000000000));
#232=DIRECTION('',(-0.707106781186547,-0.707106781186547,0.0));
#233=VECTOR('',#232,2.828427124746190);
#234=LINE('',#231,#233);
#235=EDGE_CURVE('',#176,#224,#234,.T.);
#236=ORIENTED_EDGE('',*,*,#235,.F.);
#237=EDGE_LOOP('',(#182,#190,#198,#206,#214,#222,#230,#236));
#238=FACE_OUTER_BOUND('',#237,.T.);
#239=ORIENTED_EDGE('',*,*,#73,.T.);
#240=ORIENTED_EDGE('',*,*,#162,.T.);
#241=ORIENTED_EDGE('',*,*,#135,.T.);
#242=ORIENTED_EDGE('',*,*,#104,.T.);
#243=EDGE_LOOP('',(#239,#240,#241,#242));
#244=FACE_BOUND('',#243,.T.);
#245=ADVANCED_FACE('',(#238,#244),#172,.F.);
#246=CARTESIAN_POINT('',(19.999997714878617,17.999979364708238,0.0));
#247=DIRECTION('',(1.0,0.0,0.0));
#248=DIRECTION('',(0.0,0.0,-1.0));
#249=AXIS2_PLACEMENT_3D('',#246,#247,#248);
#250=PLANE('',#249);
#251=CARTESIAN_POINT('',(19.999997714878617,17.999979364708238,0.500000000000000));
#252=VERTEX_POINT('',#251);
#253=CARTESIAN_POINT('',(19.999997714878617,-18.000020635291762,0.500000000000000));
#254=VERTEX_POINT('',#253);
#255=CARTESIAN_POINT('',(19.999997714878617,17.999979364708238,0.500000000000000));
#256=DIRECTION('',(0.0,-1.0,0.0));
#257=VECTOR('',#256,36.0);
#258=LINE('',#255,#257);
#259=EDGE_CURVE('',#252,#254,#258,.T.);
#260=ORIENTED_EDGE('',*,*,#259,.T.);
#261=CARTESIAN_POINT('',(19.999997714878617,-18.000020635291762,0.500000000000000));
#262=DIRECTION('',(0.0,0.0,-1.0));
#263=VECTOR('',#262,1.0);
#264=LINE('',#261,#263);
#265=EDGE_CURVE('',#254,#192,#264,.T.);
#266=ORIENTED_EDGE('',*,*,#265,.T.);
#267=ORIENTED_EDGE('',*,*,#197,.T.);
#268=CARTESIAN_POINT('',(19.999997714878617,17.999979364708238,0.500000000000000));
#269=DIRECTION('',(0.0,0.0,-1.0));
#270=VECTOR('',#269,1.0);
#271=LINE('',#268,#270);
#272=EDGE_CURVE('',#252,#184,#271,.T.);
#273=ORIENTED_EDGE('',*,*,#272,.F.);
#274=EDGE_LOOP('',(#260,#266,#267,#273));
#275=FACE_OUTER_BOUND('',#274,.T.);
#276=ADVANCED_FACE('',(#275),#250,.T.);
#277=CARTESIAN_POINT('',(19.999997714878617,-18.000020635291762,0.0));
#278=DIRECTION('',(0.707106781186543,-0.707106781186552,0.0));
#279=DIRECTION('',(0.0,0.0,-1.0));
#280=AXIS2_PLACEMENT_3D('',#277,#278,#279);
#281=PLANE('',#280);
#282=CARTESIAN_POINT('',(17.999997714878589,-20.000020635291765,0.500000000000000));
#283=VERTEX_POINT('',#282);
#284=CARTESIAN_POINT('',(19.999997714878617,-18.000020635291762,0.500000000000000));
#285=DIRECTION('',(-0.707106781186552,-0.707106781186543,0.0));
#286=VECTOR('',#285,2.828427124746213);
#287=LINE('',#284,#286);
#288=EDGE_CURVE('',#254,#283,#287,.T.);
#289=ORIENTED_EDGE('',*,*,#288,.T.);
#290=CARTESIAN_POINT('',(17.999997714878589,-20.000020635291765,0.500000000000000));
#291=DIRECTION('',(0.0,0.0,-1.0));
#292=VECTOR('',#291,1.0);
#293=LINE('',#290,#292);
#294=EDGE_CURVE('',#283,#200,#293,.T.);
#295=ORIENTED_EDGE('',*,*,#294,.T.);
#296=ORIENTED_EDGE('',*,*,#205,.T.);
#297=ORIENTED_EDGE('',*,*,#265,.F.);
#298=EDGE_LOOP('',(#289,#295,#296,#297));
#299=FACE_OUTER_BOUND('',#298,.T.);
#300=ADVANCED_FACE('',(#299),#281,.T.);
#301=CARTESIAN_POINT('',(17.999997714878589,-20.000020635291765,0.0));
#302=DIRECTION('',(0.0,-1.0,0.0));
#303=DIRECTION('',(0.0,0.0,-1.0));
#304=AXIS2_PLACEMENT_3D('',#301,#302,#303);
#305=PLANE('',#304);
#306=CARTESIAN_POINT('',(-18.000002285121354,-20.000020635291765,0.500000000000000));
#307=VERTEX_POINT('',#306);
#308=CARTESIAN_POINT('',(17.999997714878589,-20.000020635291765,0.500000000000000));
#309=DIRECTION('',(-1.0,0.0,0.0));
#310=VECTOR('',#309,35.999999999999943);
#311=LINE('',#308,#310);
#312=EDGE_CURVE('',#283,#307,#311,.T.);
#313=ORIENTED_EDGE('',*,*,#312,.T.);
#314=CARTESIAN_POINT('',(-18.000002285121354,-20.000020635291765,0.500000000000000));
#315=DIRECTION('',(0.0,0.0,-1.0));
#316=VECTOR('',#315,1.0);
#317=LINE('',#314,#316);
#318=EDGE_CURVE('',#307,#208,#317,.T.);
#319=ORIENTED_EDGE('',*,*,#318,.T.);
#320=ORIENTED_EDGE('',*,*,#213,.T.);
#321=ORIENTED_EDGE('',*,*,#294,.F.);
#322=EDGE_LOOP('',(#313,#319,#320,#321));
#323=FACE_OUTER_BOUND('',#322,.T.);
#324=ADVANCED_FACE('',(#323),#305,.T.);
#325=CARTESIAN_POINT('',(-18.000002285121354,-20.000020635291765,0.0));
#326=DIRECTION('',(-0.707106781186548,-0.707106781186547,0.0));
#327=DIRECTION('',(0.0,0.0,1.0));
#328=AXIS2_PLACEMENT_3D('',#325,#326,#327);
#329=PLANE('',#328);
#330=CARTESIAN_POINT('',(-20.000002285121354,-18.000020635291762,0.500000000000000));
#331=VERTEX_POINT('',#330);
#332=CARTESIAN_POINT('',(-18.000002285121354,-20.000020635291765,0.500000000000000));
#333=DIRECTION('',(-0.707106781186547,0.707106781186548,0.0));
#334=VECTOR('',#333,2.828427124746193);
#335=LINE('',#332,#334);
#336=EDGE_CURVE('',#307,#331,#335,.T.);
#337=ORIENTED_EDGE('',*,*,#336,.T.);
#338=CARTESIAN_POINT('',(-20.000002285121354,-18.000020635291762,0.500000000000000));
#339=DIRECTION('',(0.0,0.0,-1.0));
#340=VECTOR('',#339,1.0);
#341=LINE('',#338,#340);
#342=EDGE_CURVE('',#331,#216,#341,.T.);
#343=ORIENTED_EDGE('',*,*,#342,.T.);
#344=ORIENTED_EDGE('',*,*,#221,.T.);
#345=ORIENTED_EDGE('',*,*,#318,.F.);
#346=EDGE_LOOP('',(#337,#343,#344,#345));
#347=FACE_OUTER_BOUND('',#346,.T.);
#348=ADVANCED_FACE('',(#347),#329,.T.);
#349=CARTESIAN_POINT('',(-20.000002285121354,-18.000020635291762,0.0));
#350=DIRECTION('',(-1.0,0.0,0.0));
#351=DIRECTION('',(0.0,0.0,1.0));
#352=AXIS2_PLACEMENT_3D('',#349,#350,#351);
#353=PLANE('',#352);
#354=CARTESIAN_POINT('',(-20.000002285121354,17.999979364708238,0.500000000000000));
#355=VERTEX_POINT('',#354);
#356=CARTESIAN_POINT('',(-20.000002285121354,-18.000020635291762,0.500000000000000));
#357=DIRECTION('',(0.0,1.0,0.0));
#358=VECTOR('',#357,36.0);
#359=LINE('',#356,#358);
#360=EDGE_CURVE('',#331,#355,#359,.T.);
#361=ORIENTED_EDGE('',*,*,#360,.T.);
#362=CARTESIAN_POINT('',(-20.000002285121354,17.999979364708238,0.500000000000000));
#363=DIRECTION('',(0.0,0.0,-1.0));
#364=VECTOR('',#363,1.0);
#365=LINE('',#362,#364);
#366=EDGE_CURVE('',#355,#224,#365,.T.);
#367=ORIENTED_EDGE('',*,*,#366,.T.);
#368=ORIENTED_EDGE('',*,*,#229,.T.);
#369=ORIENTED_EDGE('',*,*,#342,.F.);
#370=EDGE_LOOP('',(#361,#367,#368,#369));
#371=FACE_OUTER_BOUND('',#370,.T.);
#372=ADVANCED_FACE('',(#371),#353,.T.);
#373=CARTESIAN_POINT('',(-20.000002285121354,17.999979364708238,0.0));
#374=DIRECTION('',(-0.707106781186548,0.707106781186547,0.0));
#375=DIRECTION('',(0.0,0.0,1.0));
#376=AXIS2_PLACEMENT_3D('',#373,#374,#375);
#377=PLANE('',#376);
#378=CARTESIAN_POINT('',(-18.000002285121354,19.999979364708238,0.500000000000000));
#379=VERTEX_POINT('',#378);
#380=CARTESIAN_POINT('',(-20.000002285121354,17.999979364708238,0.500000000000000));
#381=DIRECTION('',(0.707106781186547,0.707106781186547,0.0));
#382=VECTOR('',#381,2.828427124746190);
#383=LINE('',#380,#382);
#384=EDGE_CURVE('',#355,#379,#383,.T.);
#385=ORIENTED_EDGE('',*,*,#384,.T.);
#386=CARTESIAN_POINT('',(-18.000002285121354,19.999979364708238,0.500000000000000));
#387=DIRECTION('',(0.0,0.0,-1.0));
#388=VECTOR('',#387,1.0);
#389=LINE('',#386,#388);
#390=EDGE_CURVE('',#379,#176,#389,.T.);
#391=ORIENTED_EDGE('',*,*,#390,.T.);
#392=ORIENTED_EDGE('',*,*,#235,.T.);
#393=ORIENTED_EDGE('',*,*,#366,.F.);
#394=EDGE_LOOP('',(#385,#391,#392,#393));
#395=FACE_OUTER_BOUND('',#394,.T.);
#396=ADVANCED_FACE('',(#395),#377,.T.);
#397=CARTESIAN_POINT('',(-18.000002285121354,19.999979364708238,0.0));
#398=DIRECTION('',(0.0,1.0,0.0));
#399=DIRECTION('',(0.0,0.0,1.0));
#400=AXIS2_PLACEMENT_3D('',#397,#398,#399);
#401=PLANE('',#400);
#402=CARTESIAN_POINT('',(17.999997714878589,19.999979364708238,0.500000000000000));
#403=VERTEX_POINT('',#402);
#404=CARTESIAN_POINT('',(-18.000002285121354,19.999979364708238,0.500000000000000));
#405=DIRECTION('',(1.0,0.0,0.0));
#406=VECTOR('',#405,35.999999999999943);
#407=LINE('',#404,#406);
#408=EDGE_CURVE('',#379,#403,#407,.T.);
#409=ORIENTED_EDGE('',*,*,#408,.T.);
#410=CARTESIAN_POINT('',(17.999997714878589,19.999979364708238,-0.500000000000000));
#411=DIRECTION('',(0.0,0.0,1.0));
#412=VECTOR('',#411,1.0);
#413=LINE('',#410,#412);
#414=EDGE_CURVE('',#174,#403,#413,.T.);
#415=ORIENTED_EDGE('',*,*,#414,.F.);
#416=ORIENTED_EDGE('',*,*,#181,.T.);
#417=ORIENTED_EDGE('',*,*,#390,.F.);
#418=EDGE_LOOP('',(#409,#415,#416,#417));
#419=FACE_OUTER_BOUND('',#418,.T.);
#420=ADVANCED_FACE('',(#419),#401,.T.);
#421=CARTESIAN_POINT('',(17.999997714878589,19.999979364708238,0.0));
#422=DIRECTION('',(0.707106781186543,0.707106781186552,0.0));
#423=DIRECTION('',(0.0,0.0,-1.0));
#424=AXIS2_PLACEMENT_3D('',#421,#422,#423);
#425=PLANE('',#424);
#426=CARTESIAN_POINT('',(17.999997714878589,19.999979364708238,0.500000000000000));
#427=DIRECTION('',(0.707106781186553,-0.707106781186542,0.0));
#428=VECTOR('',#427,2.828427124746210);
#429=LINE('',#426,#428);
#430=EDGE_CURVE('',#403,#252,#429,.T.);
#431=ORIENTED_EDGE('',*,*,#430,.T.);
#432=ORIENTED_EDGE('',*,*,#272,.T.);
#433=ORIENTED_EDGE('',*,*,#189,.T.);
#434=ORIENTED_EDGE('',*,*,#414,.T.);
#435=EDGE_LOOP('',(#431,#432,#433,#434));
#436=FACE_OUTER_BOUND('',#435,.T.);
#437=ADVANCED_FACE('',(#436),#425,.T.);
#438=CARTESIAN_POINT('',(-0.000002285121370,-0.000020635291762,0.500000000000000));
#439=DIRECTION('',(0.0,0.0,1.0));
#440=DIRECTION('',(1.0,0.0,0.0));
#441=AXIS2_PLACEMENT_3D('',#438,#439,#440);
#442=PLANE('',#441);
#443=ORIENTED_EDGE('',*,*,#259,.F.);
#444=ORIENTED_EDGE('',*,*,#430,.F.);
#445=ORIENTED_EDGE('',*,*,#408,.F.);
#446=ORIENTED_EDGE('',*,*,#384,.F.);
#447=ORIENTED_EDGE('',*,*,#360,.F.);
#448=ORIENTED_EDGE('',*,*,#336,.F.);
#449=ORIENTED_EDGE('',*,*,#312,.F.);
#450=ORIENTED_EDGE('',*,*,#288,.F.);
#451=EDGE_LOOP('',(#443,#444,#445,#446,#447,#448,#449,#450));
#452=FACE_OUTER_BOUND('',#451,.T.);
#453=ORIENTED_EDGE('',*,*,#57,.T.);
#454=ORIENTED_EDGE('',*,*,#95,.T.);
#455=ORIENTED_EDGE('',*,*,#126,.T.);
#456=ORIENTED_EDGE('',*,*,#155,.T.);
#457=EDGE_LOOP('',(#453,#454,#455,#456));
#458=FACE_BOUND('',#457,.T.);
#459=ADVANCED_FACE('',(#452,#458),#442,.T.);
#460=CLOSED_SHELL('',(#83,#114,#145,#167,#245,#276,#300,#324,#348,#372,#396,#420,#437,#459));
#461=MANIFOLD_SOLID_BREP('',#460);
#462=COLOUR_RGB('Aluminium (gleichmig)',0.847058832645416,0.839215695858002,0.839215695858002);
#463=FILL_AREA_STYLE_COLOUR('Aluminium (gleichmig)',#462);
#464=FILL_AREA_STYLE('Aluminium (gleichmig)',(#463));
#465=SURFACE_STYLE_FILL_AREA(#464);
#466=SURFACE_SIDE_STYLE('Aluminium (gleichmig)',(#465));
#467=SURFACE_STYLE_USAGE(.BOTH.,#466);
#468=PRESENTATION_STYLE_ASSIGNMENT((#467));
#469=STYLED_ITEM('',(#468),#461);
#470=MECHANICAL_DESIGN_GEOMETRIC_PRESENTATION_REPRESENTATION('',(#469),#36);
#471=ADVANCED_BREP_SHAPE_REPRESENTATION('ABSR',(#461),#36);
#472=SHAPE_REPRESENTATION_RELATIONSHIP('SRR','None',#471,#41);
ENDSEC;
END-ISO-10303-21;
