ISO-10303-21;
HEADER;
/****************************************************************
 * Generated by software with PDE/Lib inside                    *
 * PDElib Version v51a, created Tue 12/06/2005                  *
 * International Technegroup Inc. (www.iti-oh.com)              *
 ****************************************************************/
FILE_DESCRIPTION((''),'2;1');
FILE_NAME('U:\\Paletti Norm\\Paletti Artikel f. Palkat\\STEP\\SV4005V.ipt.step','2007-09-10T15:15:13',(''),(''),'Autodesk Inventor 11','Autodesk Inventor 11','');
FILE_SCHEMA(('AUTOMOTIVE_DESIGN { 1 0 10303 214 1 1 1 1 }'));
ENDSEC;
DATA;
#5=APPLICATION_CONTEXT('automotive design');
#6=APPLICATION_PROTOCOL_DEFINITION('International Standard','automotive_design',2001,#5);
#7=PRODUCT_CONTEXT('',#5,'mechanical');
#8=PRODUCT('SV4005V','SV4005V',$,(#7));
#9=PRODUCT_RELATED_PRODUCT_CATEGORY('part',$,(#8));
#10=PRODUCT_DEFINITION_FORMATION('',$,#8);
#11=PRODUCT_DEFINITION_CONTEXT('part definition',#5,'design');
#12=PRODUCT_DEFINITION('',$,#10,#11);
#18=(NAMED_UNIT(*)PLANE_ANGLE_UNIT()SI_UNIT($,.RADIAN.));
#19=DIMENSIONAL_EXPONENTS(0.0,0.0,0.0,0.0,0.0,0.0,0.0);
#20=PLANE_ANGLE_MEASURE_WITH_UNIT(PLANE_ANGLE_MEASURE(0.017453292500000),#18);
#24=(CONVERSION_BASED_UNIT('DEGREE',#20)NAMED_UNIT(#19)PLANE_ANGLE_UNIT());
#28=(NAMED_UNIT(*)SI_UNIT($,.STERADIAN.)SOLID_ANGLE_UNIT());
#32=(LENGTH_UNIT()NAMED_UNIT(*)SI_UNIT(.MILLI.,.METRE.));
#34=UNCERTAINTY_MEASURE_WITH_UNIT(LENGTH_MEASURE(0.010000000000000),#32,'DISTANCE_ACCURACY_VALUE','');
#36=(GEOMETRIC_REPRESENTATION_CONTEXT(3)GLOBAL_UNCERTAINTY_ASSIGNED_CONTEXT((#34))GLOBAL_UNIT_ASSIGNED_CONTEXT((#24,#28,#32))REPRESENTATION_CONTEXT('None','None'));
#37=AXIS2_PLACEMENT_3D('',#38,#39,#40);
#38=CARTESIAN_POINT('',(0.0,0.0,0.0));
#39=DIRECTION('',(0.0,0.0,1.0));
#40=DIRECTION('',(1.0,0.0,0.0));
#41=SHAPE_REPRESENTATION('',(#37),#36);
#42=PRODUCT_DEFINITION_SHAPE('','',#12);
#43=SHAPE_DEFINITION_REPRESENTATION(#42,#41);
#44=CARTESIAN_POINT('',(-10.000000000000004,-5.665498E-015,4.0));
#45=CARTESIAN_POINT('',(-10.000000000000004,-5.665498E-015,-4.0));
#46=CARTESIAN_POINT('',(-10.000000000000002,-10.000000000000005,4.0));
#47=CARTESIAN_POINT('',(-10.000000000000002,-10.000000000000005,-4.0));
#48=CARTESIAN_POINT('',(-3.216286E-015,-10.000000000000004,4.0));
#49=CARTESIAN_POINT('',(-3.216286E-015,-10.000000000000004,-4.0));
#50=CARTESIAN_POINT('',(9.999999999999995,-10.000000000000002,4.0));
#51=CARTESIAN_POINT('',(9.999999999999995,-10.000000000000002,-4.0));
#52=CARTESIAN_POINT('',(9.999999999999996,-3.216286E-015,4.0));
#53=CARTESIAN_POINT('',(9.999999999999996,-3.216286E-015,-4.0));
#54=CARTESIAN_POINT('',(9.999999999999993,9.999999999999995,4.0));
#55=CARTESIAN_POINT('',(9.999999999999993,9.999999999999995,-4.0));
#56=CARTESIAN_POINT('',(-5.665498E-015,9.999999999999996,4.0));
#57=CARTESIAN_POINT('',(-5.665498E-015,9.999999999999996,-4.0));
#58=CARTESIAN_POINT('',(-10.000000000000004,9.999999999999991,4.0));
#59=CARTESIAN_POINT('',(-10.000000000000004,9.999999999999991,-4.0));
#60=CARTESIAN_POINT('',(-10.000000000000004,-5.665498E-015,4.0));
#61=CARTESIAN_POINT('',(-10.000000000000004,-5.665498E-015,-4.0));
#69=(BOUNDED_SURFACE()B_SPLINE_SURFACE(1,2,((#44,#46,#48,#50,#52,#54,#56,#58,#60),(#45,#47,#49,#51,#53,#55,#57,#59,#61)),.UNSPECIFIED.,.F.,.T.,.U.)B_SPLINE_SURFACE_WITH_KNOTS((2,2),(3,2,2,2,3),(-4.595650117230425,-3.795650117230424),(0.0,15.707963267948966,31.415926535897931,47.123889803846893,62.831853071795862),.UNSPECIFIED.)GEOMETRIC_REPRESENTATION_ITEM()RATIONAL_B_SPLINE_SURFACE(((1.0,0.707106781186548,1.0,0.707106781186548,1.0,0.707106781186548,1.0,0.707106781186548,1.0),(1.0,0.707106781186548,1.0,0.707106781186548,1.0,0.707106781186548,1.0,0.707106781186548,1.0)))REPRESENTATION_ITEM('')SURFACE());
#70=CARTESIAN_POINT('',(-10.000000000000004,-5.665498E-015,-3.999999999999999));
#71=VERTEX_POINT('',#70);
#72=CARTESIAN_POINT('',(-4.440892E-015,-4.440892E-015,-3.999999999999999));
#73=DIRECTION('',(0.0,0.0,1.0));
#74=DIRECTION('',(1.0,0.0,0.0));
#75=AXIS2_PLACEMENT_3D('',#72,#73,#74);
#76=CIRCLE('',#75,10.0);
#77=EDGE_CURVE('',#71,#71,#76,.T.);
#78=ORIENTED_EDGE('',*,*,#77,.F.);
#79=EDGE_LOOP('',(#78));
#80=FACE_OUTER_BOUND('',#79,.T.);
#81=CARTESIAN_POINT('',(9.999999999999996,-4.440892E-015,4.0));
#82=VERTEX_POINT('',#81);
#83=CARTESIAN_POINT('',(-4.440892E-015,-4.440892E-015,4.000000000000004));
#84=DIRECTION('',(0.0,0.0,-1.0));
#85=DIRECTION('',(1.0,0.0,0.0));
#86=AXIS2_PLACEMENT_3D('',#83,#84,#85);
#87=CIRCLE('',#86,10.0);
#88=EDGE_CURVE('',#82,#82,#87,.T.);
#89=ORIENTED_EDGE('',*,*,#88,.F.);
#90=EDGE_LOOP('',(#89));
#91=FACE_BOUND('',#90,.T.);
#92=ADVANCED_FACE('',(#80,#91),#69,.F.);
#93=CARTESIAN_POINT('',(12.999999999999996,13.000000000000009,0.0));
#94=DIRECTION('',(0.707106781186547,0.707106781186548,0.0));
#95=DIRECTION('',(0.0,0.0,-1.0));
#96=AXIS2_PLACEMENT_3D('',#93,#94,#95);
#97=PLANE('',#96);
#98=CARTESIAN_POINT('',(15.999999999999996,10.000000000000011,-4.0));
#99=VERTEX_POINT('',#98);
#100=CARTESIAN_POINT('',(9.999999999999996,16.000000000000007,-4.0));
#101=VERTEX_POINT('',#100);
#102=CARTESIAN_POINT('',(15.999999999999996,10.000000000000011,-4.0));
#103=DIRECTION('',(-0.707106781186548,0.707106781186547,0.0));
#104=VECTOR('',#103,8.485281374238568);
#105=LINE('',#102,#104);
#106=EDGE_CURVE('',#99,#101,#105,.T.);
#107=ORIENTED_EDGE('',*,*,#106,.T.);
#108=CARTESIAN_POINT('',(9.999999999999996,16.000000000000007,4.0));
#109=VERTEX_POINT('',#108);
#110=CARTESIAN_POINT('',(9.999999999999996,16.000000000000007,-4.0));
#111=DIRECTION('',(0.0,0.0,1.0));
#112=VECTOR('',#111,8.0);
#113=LINE('',#110,#112);
#114=EDGE_CURVE('',#101,#109,#113,.T.);
#115=ORIENTED_EDGE('',*,*,#114,.T.);
#116=CARTESIAN_POINT('',(15.999999999999996,10.000000000000011,4.0));
#117=VERTEX_POINT('',#116);
#118=CARTESIAN_POINT('',(9.999999999999996,16.000000000000007,4.0));
#119=DIRECTION('',(0.707106781186548,-0.707106781186547,0.0));
#120=VECTOR('',#119,8.485281374238568);
#121=LINE('',#118,#120);
#122=EDGE_CURVE('',#109,#117,#121,.T.);
#123=ORIENTED_EDGE('',*,*,#122,.T.);
#124=CARTESIAN_POINT('',(15.999999999999996,10.000000000000011,4.0));
#125=DIRECTION('',(0.0,0.0,-1.0));
#126=VECTOR('',#125,8.0);
#127=LINE('',#124,#126);
#128=EDGE_CURVE('',#117,#99,#127,.T.);
#129=ORIENTED_EDGE('',*,*,#128,.T.);
#130=EDGE_LOOP('',(#107,#115,#123,#129));
#131=FACE_OUTER_BOUND('',#130,.T.);
#132=ADVANCED_FACE('',(#131),#97,.T.);
#133=CARTESIAN_POINT('',(-16.000000000000007,16.0,0.0));
#134=DIRECTION('',(0.0,1.0,0.0));
#135=DIRECTION('',(0.0,0.0,1.0));
#136=AXIS2_PLACEMENT_3D('',#133,#134,#135);
#137=PLANE('',#136);
#138=ORIENTED_EDGE('',*,*,#114,.F.);
#139=CARTESIAN_POINT('',(-10.000000000000004,16.000000000000004,-4.0));
#140=VERTEX_POINT('',#139);
#141=CARTESIAN_POINT('',(9.999999999999996,16.000000000000007,-4.0));
#142=DIRECTION('',(-1.0,0.0,0.0));
#143=VECTOR('',#142,20.0);
#144=LINE('',#141,#143);
#145=EDGE_CURVE('',#101,#140,#144,.T.);
#146=ORIENTED_EDGE('',*,*,#145,.T.);
#147=CARTESIAN_POINT('',(-10.000000000000004,16.000000000000004,4.0));
#148=VERTEX_POINT('',#147);
#149=CARTESIAN_POINT('',(-10.000000000000004,16.000000000000004,4.0));
#150=DIRECTION('',(0.0,0.0,-1.0));
#151=VECTOR('',#150,8.0);
#152=LINE('',#149,#151);
#153=EDGE_CURVE('',#148,#140,#152,.T.);
#154=ORIENTED_EDGE('',*,*,#153,.F.);
#155=CARTESIAN_POINT('',(-10.000000000000004,16.000000000000004,4.0));
#156=DIRECTION('',(1.0,0.0,0.0));
#157=VECTOR('',#156,20.0);
#158=LINE('',#155,#157);
#159=EDGE_CURVE('',#148,#109,#158,.T.);
#160=ORIENTED_EDGE('',*,*,#159,.T.);
#161=EDGE_LOOP('',(#138,#146,#154,#160));
#162=FACE_OUTER_BOUND('',#161,.T.);
#163=ADVANCED_FACE('',(#162),#137,.T.);
#164=CARTESIAN_POINT('',(-4.440892E-015,2.018587E-016,-4.0));
#165=DIRECTION('',(0.0,0.0,1.0));
#166=DIRECTION('',(1.0,0.0,0.0));
#167=AXIS2_PLACEMENT_3D('',#164,#165,#166);
#168=PLANE('',#167);
#169=ORIENTED_EDGE('',*,*,#106,.F.);
#170=CARTESIAN_POINT('',(15.999999999999996,-10.000000000000014,-4.0));
#171=VERTEX_POINT('',#170);
#172=CARTESIAN_POINT('',(15.999999999999996,-10.000000000000014,-4.0));
#173=DIRECTION('',(0.0,1.0,0.0));
#174=VECTOR('',#173,20.000000000000025);
#175=LINE('',#172,#174);
#176=EDGE_CURVE('',#171,#99,#175,.T.);
#177=ORIENTED_EDGE('',*,*,#176,.F.);
#178=CARTESIAN_POINT('',(9.999999999999996,-16.000000000000007,-4.0));
#179=VERTEX_POINT('',#178);
#180=CARTESIAN_POINT('',(9.999999999999996,-16.000000000000007,-4.0));
#181=DIRECTION('',(0.707106781186548,0.707106781186547,0.0));
#182=VECTOR('',#181,8.485281374238566);
#183=LINE('',#180,#182);
#184=EDGE_CURVE('',#179,#171,#183,.T.);
#185=ORIENTED_EDGE('',*,*,#184,.F.);
#186=CARTESIAN_POINT('',(-10.000000000000009,-16.000000000000004,-4.0));
#187=VERTEX_POINT('',#186);
#188=CARTESIAN_POINT('',(-10.000000000000009,-16.000000000000004,-4.0));
#189=DIRECTION('',(1.0,0.0,0.0));
#190=VECTOR('',#189,20.000000000000007);
#191=LINE('',#188,#190);
#192=EDGE_CURVE('',#187,#179,#191,.T.);
#193=ORIENTED_EDGE('',*,*,#192,.F.);
#194=CARTESIAN_POINT('',(-16.000000000000007,-9.999999999999998,-4.0));
#195=VERTEX_POINT('',#194);
#196=CARTESIAN_POINT('',(-16.000000000000007,-9.999999999999998,-4.0));
#197=DIRECTION('',(0.707106781186547,-0.707106781186548,0.0));
#198=VECTOR('',#197,8.485281374238573);
#199=LINE('',#196,#198);
#200=EDGE_CURVE('',#195,#187,#199,.T.);
#201=ORIENTED_EDGE('',*,*,#200,.F.);
#202=CARTESIAN_POINT('',(-16.000000000000007,10.0,-4.0));
#203=VERTEX_POINT('',#202);
#204=CARTESIAN_POINT('',(-16.000000000000007,10.0,-4.0));
#205=DIRECTION('',(0.0,-1.0,0.0));
#206=VECTOR('',#205,20.0);
#207=LINE('',#204,#206);
#208=EDGE_CURVE('',#203,#195,#207,.T.);
#209=ORIENTED_EDGE('',*,*,#208,.F.);
#210=CARTESIAN_POINT('',(-10.000000000000004,16.000000000000004,-4.0));
#211=DIRECTION('',(-0.707106781186548,-0.707106781186548,0.0));
#212=VECTOR('',#211,8.485281374238575);
#213=LINE('',#210,#212);
#214=EDGE_CURVE('',#140,#203,#213,.T.);
#215=ORIENTED_EDGE('',*,*,#214,.F.);
#216=ORIENTED_EDGE('',*,*,#145,.F.);
#217=EDGE_LOOP('',(#169,#177,#185,#193,#201,#209,#215,#216));
#218=FACE_OUTER_BOUND('',#217,.T.);
#219=ORIENTED_EDGE('',*,*,#77,.T.);
#220=EDGE_LOOP('',(#219));
#221=FACE_BOUND('',#220,.T.);
#222=ADVANCED_FACE('',(#218,#221),#168,.F.);
#223=CARTESIAN_POINT('',(-13.000000000000005,13.0,0.0));
#224=DIRECTION('',(-0.707106781186548,0.707106781186547,0.0));
#225=DIRECTION('',(0.0,0.0,1.0));
#226=AXIS2_PLACEMENT_3D('',#223,#224,#225);
#227=PLANE('',#226);
#228=ORIENTED_EDGE('',*,*,#214,.T.);
#229=CARTESIAN_POINT('',(-16.000000000000007,10.0,4.0));
#230=VERTEX_POINT('',#229);
#231=CARTESIAN_POINT('',(-16.000000000000007,10.0,-4.0));
#232=DIRECTION('',(0.0,0.0,1.0));
#233=VECTOR('',#232,8.0);
#234=LINE('',#231,#233);
#235=EDGE_CURVE('',#203,#230,#234,.T.);
#236=ORIENTED_EDGE('',*,*,#235,.T.);
#237=CARTESIAN_POINT('',(-16.000000000000007,10.0,4.0));
#238=DIRECTION('',(0.707106781186548,0.707106781186548,0.0));
#239=VECTOR('',#238,8.485281374238575);
#240=LINE('',#237,#239);
#241=EDGE_CURVE('',#230,#148,#240,.T.);
#242=ORIENTED_EDGE('',*,*,#241,.T.);
#243=ORIENTED_EDGE('',*,*,#153,.T.);
#244=EDGE_LOOP('',(#228,#236,#242,#243));
#245=FACE_OUTER_BOUND('',#244,.T.);
#246=ADVANCED_FACE('',(#245),#227,.T.);
#247=CARTESIAN_POINT('',(-16.000000000000007,-16.0,0.0));
#248=DIRECTION('',(-1.0,0.0,0.0));
#249=DIRECTION('',(0.0,0.0,1.0));
#250=AXIS2_PLACEMENT_3D('',#247,#248,#249);
#251=PLANE('',#250);
#252=ORIENTED_EDGE('',*,*,#235,.F.);
#253=ORIENTED_EDGE('',*,*,#208,.T.);
#254=CARTESIAN_POINT('',(-16.000000000000007,-9.999999999999998,4.0));
#255=VERTEX_POINT('',#254);
#256=CARTESIAN_POINT('',(-16.000000000000007,-9.999999999999998,4.0));
#257=DIRECTION('',(0.0,0.0,-1.0));
#258=VECTOR('',#257,8.0);
#259=LINE('',#256,#258);
#260=EDGE_CURVE('',#255,#195,#259,.T.);
#261=ORIENTED_EDGE('',*,*,#260,.F.);
#262=CARTESIAN_POINT('',(-16.000000000000007,-9.999999999999998,4.0));
#263=DIRECTION('',(0.0,1.0,0.0));
#264=VECTOR('',#263,20.0);
#265=LINE('',#262,#264);
#266=EDGE_CURVE('',#255,#230,#265,.T.);
#267=ORIENTED_EDGE('',*,*,#266,.T.);
#268=EDGE_LOOP('',(#252,#253,#261,#267));
#269=FACE_OUTER_BOUND('',#268,.T.);
#270=ADVANCED_FACE('',(#269),#251,.T.);
#271=CARTESIAN_POINT('',(12.999999999999996,-13.000000000000011,0.0));
#272=DIRECTION('',(0.707106781186547,-0.707106781186548,0.0));
#273=DIRECTION('',(0.0,0.0,-1.0));
#274=AXIS2_PLACEMENT_3D('',#271,#272,#273);
#275=PLANE('',#274);
#276=CARTESIAN_POINT('',(15.999999999999996,-10.000000000000014,4.0));
#277=VERTEX_POINT('',#276);
#278=CARTESIAN_POINT('',(9.999999999999996,-16.000000000000007,4.0));
#279=VERTEX_POINT('',#278);
#280=CARTESIAN_POINT('',(15.999999999999996,-10.000000000000014,4.0));
#281=DIRECTION('',(-0.707106781186548,-0.707106781186547,0.0));
#282=VECTOR('',#281,8.485281374238566);
#283=LINE('',#280,#282);
#284=EDGE_CURVE('',#277,#279,#283,.T.);
#285=ORIENTED_EDGE('',*,*,#284,.T.);
#286=CARTESIAN_POINT('',(9.999999999999996,-16.000000000000007,4.0));
#287=DIRECTION('',(0.0,0.0,-1.0));
#288=VECTOR('',#287,8.0);
#289=LINE('',#286,#288);
#290=EDGE_CURVE('',#279,#179,#289,.T.);
#291=ORIENTED_EDGE('',*,*,#290,.T.);
#292=ORIENTED_EDGE('',*,*,#184,.T.);
#293=CARTESIAN_POINT('',(15.999999999999996,-10.000000000000014,-4.0));
#294=DIRECTION('',(0.0,0.0,1.0));
#295=VECTOR('',#294,8.0);
#296=LINE('',#293,#295);
#297=EDGE_CURVE('',#171,#277,#296,.T.);
#298=ORIENTED_EDGE('',*,*,#297,.T.);
#299=EDGE_LOOP('',(#285,#291,#292,#298));
#300=FACE_OUTER_BOUND('',#299,.T.);
#301=ADVANCED_FACE('',(#300),#275,.T.);
#302=CARTESIAN_POINT('',(15.999999999999996,-16.000000000000011,0.0));
#303=DIRECTION('',(0.0,-1.0,0.0));
#304=DIRECTION('',(0.0,0.0,-1.0));
#305=AXIS2_PLACEMENT_3D('',#302,#303,#304);
#306=PLANE('',#305);
#307=ORIENTED_EDGE('',*,*,#290,.F.);
#308=CARTESIAN_POINT('',(-10.000000000000009,-16.000000000000004,4.0));
#309=VERTEX_POINT('',#308);
#310=CARTESIAN_POINT('',(9.999999999999996,-16.000000000000007,4.0));
#311=DIRECTION('',(-1.0,0.0,0.0));
#312=VECTOR('',#311,20.000000000000007);
#313=LINE('',#310,#312);
#314=EDGE_CURVE('',#279,#309,#313,.T.);
#315=ORIENTED_EDGE('',*,*,#314,.T.);
#316=CARTESIAN_POINT('',(-10.000000000000009,-16.000000000000004,-4.0));
#317=DIRECTION('',(0.0,0.0,1.0));
#318=VECTOR('',#317,8.0);
#319=LINE('',#316,#318);
#320=EDGE_CURVE('',#187,#309,#319,.T.);
#321=ORIENTED_EDGE('',*,*,#320,.F.);
#322=ORIENTED_EDGE('',*,*,#192,.T.);
#323=EDGE_LOOP('',(#307,#315,#321,#322));
#324=FACE_OUTER_BOUND('',#323,.T.);
#325=ADVANCED_FACE('',(#324),#306,.T.);
#326=CARTESIAN_POINT('',(-13.000000000000007,-13.0,0.0));
#327=DIRECTION('',(-0.707106781186548,-0.707106781186547,0.0));
#328=DIRECTION('',(0.0,0.0,1.0));
#329=AXIS2_PLACEMENT_3D('',#326,#327,#328);
#330=PLANE('',#329);
#331=ORIENTED_EDGE('',*,*,#200,.T.);
#332=ORIENTED_EDGE('',*,*,#320,.T.);
#333=CARTESIAN_POINT('',(-10.000000000000009,-16.000000000000004,4.0));
#334=DIRECTION('',(-0.707106781186547,0.707106781186548,0.0));
#335=VECTOR('',#334,8.485281374238573);
#336=LINE('',#333,#335);
#337=EDGE_CURVE('',#309,#255,#336,.T.);
#338=ORIENTED_EDGE('',*,*,#337,.T.);
#339=ORIENTED_EDGE('',*,*,#260,.T.);
#340=EDGE_LOOP('',(#331,#332,#338,#339));
#341=FACE_OUTER_BOUND('',#340,.T.);
#342=ADVANCED_FACE('',(#341),#330,.T.);
#343=CARTESIAN_POINT('',(15.999999999999996,16.000000000000011,0.0));
#344=DIRECTION('',(1.0,0.0,0.0));
#345=DIRECTION('',(0.0,0.0,-1.0));
#346=AXIS2_PLACEMENT_3D('',#343,#344,#345);
#347=PLANE('',#346);
#348=ORIENTED_EDGE('',*,*,#128,.F.);
#349=CARTESIAN_POINT('',(15.999999999999996,10.000000000000011,4.0));
#350=DIRECTION('',(0.0,-1.0,0.0));
#351=VECTOR('',#350,20.000000000000025);
#352=LINE('',#349,#351);
#353=EDGE_CURVE('',#117,#277,#352,.T.);
#354=ORIENTED_EDGE('',*,*,#353,.T.);
#355=ORIENTED_EDGE('',*,*,#297,.F.);
#356=ORIENTED_EDGE('',*,*,#176,.T.);
#357=EDGE_LOOP('',(#348,#354,#355,#356));
#358=FACE_OUTER_BOUND('',#357,.T.);
#359=ADVANCED_FACE('',(#358),#347,.T.);
#360=CARTESIAN_POINT('',(-4.996004E-015,-1.009294E-016,4.0));
#361=DIRECTION('',(0.0,0.0,1.0));
#362=DIRECTION('',(1.0,0.0,0.0));
#363=AXIS2_PLACEMENT_3D('',#360,#361,#362);
#364=PLANE('',#363);
#365=ORIENTED_EDGE('',*,*,#122,.F.);
#366=ORIENTED_EDGE('',*,*,#159,.F.);
#367=ORIENTED_EDGE('',*,*,#241,.F.);
#368=ORIENTED_EDGE('',*,*,#266,.F.);
#369=ORIENTED_EDGE('',*,*,#337,.F.);
#370=ORIENTED_EDGE('',*,*,#314,.F.);
#371=ORIENTED_EDGE('',*,*,#284,.F.);
#372=ORIENTED_EDGE('',*,*,#353,.F.);
#373=EDGE_LOOP('',(#365,#366,#367,#368,#369,#370,#371,#372));
#374=FACE_OUTER_BOUND('',#373,.T.);
#375=ORIENTED_EDGE('',*,*,#88,.T.);
#376=EDGE_LOOP('',(#375));
#377=FACE_BOUND('',#376,.T.);
#378=ADVANCED_FACE('',(#374,#377),#364,.T.);
#379=CLOSED_SHELL('',(#92,#132,#163,#222,#246,#270,#301,#325,#342,#359,#378));
#380=MANIFOLD_SOLID_BREP('',#379);
#381=COLOUR_RGB('Aluminium (gleichmig)',0.847058832645416,0.839215695858002,0.839215695858002);
#382=FILL_AREA_STYLE_COLOUR('Aluminium (gleichmig)',#381);
#383=FILL_AREA_STYLE('Aluminium (gleichmig)',(#382));
#384=SURFACE_STYLE_FILL_AREA(#383);
#385=SURFACE_SIDE_STYLE('Aluminium (gleichmig)',(#384));
#386=SURFACE_STYLE_USAGE(.BOTH.,#385);
#387=PRESENTATION_STYLE_ASSIGNMENT((#386));
#388=STYLED_ITEM('',(#387),#380);
#389=MECHANICAL_DESIGN_GEOMETRIC_PRESENTATION_REPRESENTATION('',(#388),#36);
#390=ADVANCED_BREP_SHAPE_REPRESENTATION('ABSR',(#380),#36);
#391=SHAPE_REPRESENTATION_RELATIONSHIP('SRR','None',#390,#41);
ENDSEC;
END-ISO-10303-21;
