ISO-10303-21;
HEADER;
/****************************************************************
 * Generated by software with PDE/Lib inside                    *
 * PDElib Version v51a, created Tue 12/06/2005                  *
 * International Technegroup Inc. (www.iti-oh.com)              *
 ****************************************************************/
FILE_DESCRIPTION((''),'2;1');
FILE_NAME('U:\\Paletti Norm\\Paletti Artikel f. Palkat\\STEP\\SP055_extern.ipt.step','2007-09-10T15:08:17',(''),(''),'Autodesk Inventor 11','Autodesk Inventor 11','');
FILE_SCHEMA(('AUTOMOTIVE_DESIGN { 1 0 10303 214 1 1 1 1 }'));
ENDSEC;
DATA;
#5=APPLICATION_CONTEXT('automotive design');
#6=APPLICATION_PROTOCOL_DEFINITION('International Standard','automotive_design',2001,#5);
#7=PRODUCT_CONTEXT('',#5,'mechanical');
#8=PRODUCT('SP055_extern','SP055_extern',$,(#7));
#9=PRODUCT_RELATED_PRODUCT_CATEGORY('part',$,(#8));
#10=PRODUCT_DEFINITION_FORMATION('',$,#8);
#11=PRODUCT_DEFINITION_CONTEXT('part definition',#5,'design');
#12=PRODUCT_DEFINITION('',$,#10,#11);
#18=(NAMED_UNIT(*)PLANE_ANGLE_UNIT()SI_UNIT($,.RADIAN.));
#19=DIMENSIONAL_EXPONENTS(0.0,0.0,0.0,0.0,0.0,0.0,0.0);
#20=PLANE_ANGLE_MEASURE_WITH_UNIT(PLANE_ANGLE_MEASURE(0.017453292500000),#18);
#24=(CONVERSION_BASED_UNIT('DEGREE',#20)NAMED_UNIT(#19)PLANE_ANGLE_UNIT());
#28=(NAMED_UNIT(*)SI_UNIT($,.STERADIAN.)SOLID_ANGLE_UNIT());
#32=(LENGTH_UNIT()NAMED_UNIT(*)SI_UNIT(.MILLI.,.METRE.));
#34=UNCERTAINTY_MEASURE_WITH_UNIT(LENGTH_MEASURE(0.010000000000000),#32,'DISTANCE_ACCURACY_VALUE','');
#36=(GEOMETRIC_REPRESENTATION_CONTEXT(3)GLOBAL_UNCERTAINTY_ASSIGNED_CONTEXT((#34))GLOBAL_UNIT_ASSIGNED_CONTEXT((#24,#28,#32))REPRESENTATION_CONTEXT('None','None'));
#37=AXIS2_PLACEMENT_3D('',#38,#39,#40);
#38=CARTESIAN_POINT('',(0.0,0.0,0.0));
#39=DIRECTION('',(0.0,0.0,1.0));
#40=DIRECTION('',(1.0,0.0,0.0));
#41=SHAPE_REPRESENTATION('',(#37),#36);
#42=PRODUCT_DEFINITION_SHAPE('','',#12);
#43=SHAPE_DEFINITION_REPRESENTATION(#42,#41);
#44=CARTESIAN_POINT('',(6.718753E-017,31.499999999999993,0.0));
#45=DIRECTION('',(0.0,0.0,1.0));
#46=DIRECTION('',(0.707106781186547,0.707106781186548,0.0));
#47=AXIS2_PLACEMENT_3D('',#44,#45,#46);
#48=CYLINDRICAL_SURFACE('',#47,2.0);
#49=CARTESIAN_POINT('',(0.0,33.500000000000000,0.500000000000000));
#50=VERTEX_POINT('',#49);
#51=CARTESIAN_POINT('',(2.0,31.499999999999993,0.500000000000000));
#52=VERTEX_POINT('',#51);
#53=CARTESIAN_POINT('',(6.718753E-017,31.499999999999993,0.500000000000000));
#54=DIRECTION('',(0.0,0.0,-1.000000000000000));
#55=DIRECTION('',(0.707106781186547,0.707106781186548,0.0));
#56=AXIS2_PLACEMENT_3D('',#53,#54,#55);
#57=CIRCLE('',#56,2.0);
#58=EDGE_CURVE('',#50,#52,#57,.T.);
#59=ORIENTED_EDGE('',*,*,#58,.T.);
#60=CARTESIAN_POINT('',(2.0,31.499999999999993,-0.500000000000000));
#61=VERTEX_POINT('',#60);
#62=CARTESIAN_POINT('',(2.0,31.499999999999993,0.500000000000000));
#63=DIRECTION('',(0.0,0.0,-1.0));
#64=VECTOR('',#63,1.0);
#65=LINE('',#62,#64);
#66=EDGE_CURVE('',#52,#61,#65,.T.);
#67=ORIENTED_EDGE('',*,*,#66,.T.);
#68=CARTESIAN_POINT('',(0.0,33.500000000000000,-0.500000000000000));
#69=VERTEX_POINT('',#68);
#70=CARTESIAN_POINT('',(6.718753E-017,31.499999999999993,-0.500000000000000));
#71=DIRECTION('',(0.0,0.0,1.000000000000000));
#72=DIRECTION('',(0.707106781186547,0.707106781186548,0.0));
#73=AXIS2_PLACEMENT_3D('',#70,#71,#72);
#74=CIRCLE('',#73,2.0);
#75=EDGE_CURVE('',#61,#69,#74,.T.);
#76=ORIENTED_EDGE('',*,*,#75,.T.);
#77=CARTESIAN_POINT('',(0.0,33.500000000000000,-0.500000000000000));
#78=DIRECTION('',(0.0,0.0,1.0));
#79=VECTOR('',#78,1.0);
#80=LINE('',#77,#79);
#81=EDGE_CURVE('',#69,#50,#80,.T.);
#82=ORIENTED_EDGE('',*,*,#81,.T.);
#83=EDGE_LOOP('',(#59,#67,#76,#82));
#84=FACE_OUTER_BOUND('',#83,.T.);
#85=ADVANCED_FACE('',(#84),#48,.T.);
#86=CARTESIAN_POINT('',(-2.0,33.500000000000000,0.0));
#87=DIRECTION('',(0.0,1.0,0.0));
#88=DIRECTION('',(0.0,0.0,1.0));
#89=AXIS2_PLACEMENT_3D('',#86,#87,#88);
#90=PLANE('',#89);
#91=ORIENTED_EDGE('',*,*,#81,.F.);
#92=CARTESIAN_POINT('',(-2.0,33.500000000000000,-0.500000000000000));
#93=VERTEX_POINT('',#92);
#94=CARTESIAN_POINT('',(0.0,33.500000000000000,-0.500000000000000));
#95=DIRECTION('',(-1.0,0.0,0.0));
#96=VECTOR('',#95,2.0);
#97=LINE('',#94,#96);
#98=EDGE_CURVE('',#69,#93,#97,.T.);
#99=ORIENTED_EDGE('',*,*,#98,.T.);
#100=CARTESIAN_POINT('',(-2.0,33.500000000000000,0.500000000000000));
#101=VERTEX_POINT('',#100);
#102=CARTESIAN_POINT('',(-2.0,33.500000000000000,-0.500000000000000));
#103=DIRECTION('',(0.0,0.0,1.0));
#104=VECTOR('',#103,1.0);
#105=LINE('',#102,#104);
#106=EDGE_CURVE('',#93,#101,#105,.T.);
#107=ORIENTED_EDGE('',*,*,#106,.T.);
#108=CARTESIAN_POINT('',(-2.0,33.500000000000000,0.500000000000000));
#109=DIRECTION('',(1.0,0.0,0.0));
#110=VECTOR('',#109,2.0);
#111=LINE('',#108,#110);
#112=EDGE_CURVE('',#101,#50,#111,.T.);
#113=ORIENTED_EDGE('',*,*,#112,.T.);
#114=EDGE_LOOP('',(#91,#99,#107,#113));
#115=FACE_OUTER_BOUND('',#114,.T.);
#116=ADVANCED_FACE('',(#115),#90,.T.);
#117=CARTESIAN_POINT('',(-0.219784736091918,13.940273908050674,-0.500000000000000));
#118=DIRECTION('',(0.0,0.0,1.0));
#119=DIRECTION('',(1.0,0.0,0.0));
#120=AXIS2_PLACEMENT_3D('',#117,#118,#119);
#121=PLANE('',#120);
#122=ORIENTED_EDGE('',*,*,#75,.F.);
#123=CARTESIAN_POINT('',(2.000000000000002,4.582575694955839,-0.500000000000000));
#124=VERTEX_POINT('',#123);
#125=CARTESIAN_POINT('',(2.000000000000002,4.582575694955839,-0.500000000000000));
#126=DIRECTION('',(0.0,1.0,0.0));
#127=VECTOR('',#126,26.917424305044154);
#128=LINE('',#125,#127);
#129=EDGE_CURVE('',#124,#61,#128,.T.);
#130=ORIENTED_EDGE('',*,*,#129,.F.);
#131=CARTESIAN_POINT('',(-2.0,4.582575694955840,-0.500000000000000));
#132=VERTEX_POINT('',#131);
#133=CARTESIAN_POINT('',(0.0,0.0,-0.500000000000000));
#134=DIRECTION('',(0.0,0.0,1.0));
#135=DIRECTION('',(-0.400000000000000,0.916515138991168,0.0));
#136=AXIS2_PLACEMENT_3D('',#133,#134,#135);
#137=CIRCLE('',#136,5.0);
#138=EDGE_CURVE('',#132,#124,#137,.T.);
#139=ORIENTED_EDGE('',*,*,#138,.F.);
#140=CARTESIAN_POINT('',(-2.0,14.500000000000000,-0.500000000000000));
#141=VERTEX_POINT('',#140);
#142=CARTESIAN_POINT('',(-2.0,14.500000000000000,-0.500000000000000));
#143=DIRECTION('',(0.0,-1.0,0.0));
#144=VECTOR('',#143,9.917424305044161);
#145=LINE('',#142,#144);
#146=EDGE_CURVE('',#141,#132,#145,.T.);
#147=ORIENTED_EDGE('',*,*,#146,.F.);
#148=CARTESIAN_POINT('',(-3.500000000000001,14.500000000000000,-0.500000000000000));
#149=VERTEX_POINT('',#148);
#150=CARTESIAN_POINT('',(-3.500000000000001,14.500000000000000,-0.500000000000000));
#151=DIRECTION('',(1.0,0.0,0.0));
#152=VECTOR('',#151,1.500000000000001);
#153=LINE('',#150,#152);
#154=EDGE_CURVE('',#149,#141,#153,.T.);
#155=ORIENTED_EDGE('',*,*,#154,.F.);
#156=CARTESIAN_POINT('',(-3.500000000000001,22.500000000000000,-0.500000000000000));
#157=VERTEX_POINT('',#156);
#158=CARTESIAN_POINT('',(-3.500000000000001,22.500000000000000,-0.500000000000000));
#159=DIRECTION('',(0.0,-1.0,0.0));
#160=VECTOR('',#159,8.0);
#161=LINE('',#158,#160);
#162=EDGE_CURVE('',#157,#149,#161,.T.);
#163=ORIENTED_EDGE('',*,*,#162,.F.);
#164=CARTESIAN_POINT('',(-2.0,22.500000000000000,-0.500000000000000));
#165=VERTEX_POINT('',#164);
#166=CARTESIAN_POINT('',(-2.0,22.500000000000000,-0.500000000000000));
#167=DIRECTION('',(-1.0,0.0,0.0));
#168=VECTOR('',#167,1.500000000000001);
#169=LINE('',#166,#168);
#170=EDGE_CURVE('',#165,#157,#169,.T.);
#171=ORIENTED_EDGE('',*,*,#170,.F.);
#172=CARTESIAN_POINT('',(-2.0,33.500000000000000,-0.500000000000000));
#173=DIRECTION('',(0.0,-1.0,0.0));
#174=VECTOR('',#173,11.0);
#175=LINE('',#172,#174);
#176=EDGE_CURVE('',#93,#165,#175,.T.);
#177=ORIENTED_EDGE('',*,*,#176,.F.);
#178=ORIENTED_EDGE('',*,*,#98,.F.);
#179=EDGE_LOOP('',(#122,#130,#139,#147,#155,#163,#171,#177,#178));
#180=FACE_OUTER_BOUND('',#179,.T.);
#181=CARTESIAN_POINT('',(3.000000000000000,3.673819E-016,-0.500000000000000));
#182=VERTEX_POINT('',#181);
#183=CARTESIAN_POINT('',(0.0,0.0,-0.500000000000000));
#184=DIRECTION('',(0.0,0.0,1.0));
#185=DIRECTION('',(-1.0,0.0,0.0));
#186=AXIS2_PLACEMENT_3D('',#183,#184,#185);
#187=CIRCLE('',#186,3.000000000000000);
#188=EDGE_CURVE('',#182,#182,#187,.T.);
#189=ORIENTED_EDGE('',*,*,#188,.T.);
#190=EDGE_LOOP('',(#189));
#191=FACE_BOUND('',#190,.T.);
#192=ADVANCED_FACE('',(#180,#191),#121,.F.);
#193=CARTESIAN_POINT('',(0.0,0.0,0.0));
#194=DIRECTION('',(0.0,0.0,1.0));
#195=DIRECTION('',(-1.0,0.0,0.0));
#196=AXIS2_PLACEMENT_3D('',#193,#194,#195);
#197=CYLINDRICAL_SURFACE('',#196,3.000000000000000);
#198=ORIENTED_EDGE('',*,*,#188,.F.);
#199=EDGE_LOOP('',(#198));
#200=FACE_OUTER_BOUND('',#199,.T.);
#201=CARTESIAN_POINT('',(3.000000000000000,3.673819E-016,0.500000000000000));
#202=VERTEX_POINT('',#201);
#203=CARTESIAN_POINT('',(0.0,0.0,0.500000000000000));
#204=DIRECTION('',(0.0,0.0,-1.0));
#205=DIRECTION('',(-1.0,0.0,0.0));
#206=AXIS2_PLACEMENT_3D('',#203,#204,#205);
#207=CIRCLE('',#206,3.000000000000000);
#208=EDGE_CURVE('',#202,#202,#207,.T.);
#209=ORIENTED_EDGE('',*,*,#208,.F.);
#210=EDGE_LOOP('',(#209));
#211=FACE_BOUND('',#210,.T.);
#212=ADVANCED_FACE('',(#200,#211),#197,.F.);
#213=CARTESIAN_POINT('',(-2.0,4.582575694955840,0.0));
#214=DIRECTION('',(-1.0,0.0,0.0));
#215=DIRECTION('',(0.0,0.0,1.0));
#216=AXIS2_PLACEMENT_3D('',#213,#214,#215);
#217=PLANE('',#216);
#218=CARTESIAN_POINT('',(-2.0,4.582575694955840,0.500000000000000));
#219=VERTEX_POINT('',#218);
#220=CARTESIAN_POINT('',(-2.0,14.500000000000000,0.500000000000000));
#221=VERTEX_POINT('',#220);
#222=CARTESIAN_POINT('',(-2.0,4.582575694955840,0.500000000000000));
#223=DIRECTION('',(0.0,1.0,0.0));
#224=VECTOR('',#223,9.917424305044161);
#225=LINE('',#222,#224);
#226=EDGE_CURVE('',#219,#221,#225,.T.);
#227=ORIENTED_EDGE('',*,*,#226,.T.);
#228=CARTESIAN_POINT('',(-2.0,14.500000000000000,-0.500000000000000));
#229=DIRECTION('',(0.0,0.0,1.0));
#230=VECTOR('',#229,1.0);
#231=LINE('',#228,#230);
#232=EDGE_CURVE('',#141,#221,#231,.T.);
#233=ORIENTED_EDGE('',*,*,#232,.F.);
#234=ORIENTED_EDGE('',*,*,#146,.T.);
#235=CARTESIAN_POINT('',(-2.0,4.582575694955840,0.500000000000000));
#236=DIRECTION('',(0.0,0.0,-1.0));
#237=VECTOR('',#236,1.0);
#238=LINE('',#235,#237);
#239=EDGE_CURVE('',#219,#132,#238,.T.);
#240=ORIENTED_EDGE('',*,*,#239,.F.);
#241=EDGE_LOOP('',(#227,#233,#234,#240));
#242=FACE_OUTER_BOUND('',#241,.T.);
#243=ADVANCED_FACE('',(#242),#217,.T.);
#244=CARTESIAN_POINT('',(-2.0,14.500000000000000,0.0));
#245=DIRECTION('',(0.0,-1.0,0.0));
#246=DIRECTION('',(0.0,0.0,-1.0));
#247=AXIS2_PLACEMENT_3D('',#244,#245,#246);
#248=PLANE('',#247);
#249=CARTESIAN_POINT('',(-3.500000000000001,14.500000000000000,0.500000000000000));
#250=VERTEX_POINT('',#249);
#251=CARTESIAN_POINT('',(-2.0,14.500000000000000,0.500000000000000));
#252=DIRECTION('',(-1.0,0.0,0.0));
#253=VECTOR('',#252,1.500000000000001);
#254=LINE('',#251,#253);
#255=EDGE_CURVE('',#221,#250,#254,.T.);
#256=ORIENTED_EDGE('',*,*,#255,.T.);
#257=CARTESIAN_POINT('',(-3.500000000000001,14.500000000000000,-0.500000000000000));
#258=DIRECTION('',(0.0,0.0,1.0));
#259=VECTOR('',#258,1.0);
#260=LINE('',#257,#259);
#261=EDGE_CURVE('',#149,#250,#260,.T.);
#262=ORIENTED_EDGE('',*,*,#261,.F.);
#263=ORIENTED_EDGE('',*,*,#154,.T.);
#264=ORIENTED_EDGE('',*,*,#232,.T.);
#265=EDGE_LOOP('',(#256,#262,#263,#264));
#266=FACE_OUTER_BOUND('',#265,.T.);
#267=ADVANCED_FACE('',(#266),#248,.T.);
#268=CARTESIAN_POINT('',(-3.500000000000001,14.500000000000000,0.0));
#269=DIRECTION('',(-1.0,0.0,0.0));
#270=DIRECTION('',(0.0,0.0,1.0));
#271=AXIS2_PLACEMENT_3D('',#268,#269,#270);
#272=PLANE('',#271);
#273=CARTESIAN_POINT('',(-3.500000000000001,22.500000000000000,0.500000000000000));
#274=VERTEX_POINT('',#273);
#275=CARTESIAN_POINT('',(-3.500000000000001,14.500000000000000,0.500000000000000));
#276=DIRECTION('',(0.0,1.0,0.0));
#277=VECTOR('',#276,8.0);
#278=LINE('',#275,#277);
#279=EDGE_CURVE('',#250,#274,#278,.T.);
#280=ORIENTED_EDGE('',*,*,#279,.T.);
#281=CARTESIAN_POINT('',(-3.500000000000001,22.500000000000000,-0.500000000000000));
#282=DIRECTION('',(0.0,0.0,1.0));
#283=VECTOR('',#282,1.0);
#284=LINE('',#281,#283);
#285=EDGE_CURVE('',#157,#274,#284,.T.);
#286=ORIENTED_EDGE('',*,*,#285,.F.);
#287=ORIENTED_EDGE('',*,*,#162,.T.);
#288=ORIENTED_EDGE('',*,*,#261,.T.);
#289=EDGE_LOOP('',(#280,#286,#287,#288));
#290=FACE_OUTER_BOUND('',#289,.T.);
#291=ADVANCED_FACE('',(#290),#272,.T.);
#292=CARTESIAN_POINT('',(-3.500000000000001,22.500000000000000,0.0));
#293=DIRECTION('',(0.0,1.0,0.0));
#294=DIRECTION('',(0.0,0.0,1.0));
#295=AXIS2_PLACEMENT_3D('',#292,#293,#294);
#296=PLANE('',#295);
#297=CARTESIAN_POINT('',(-2.0,22.500000000000000,0.500000000000000));
#298=VERTEX_POINT('',#297);
#299=CARTESIAN_POINT('',(-3.500000000000001,22.500000000000000,0.500000000000000));
#300=DIRECTION('',(1.0,0.0,0.0));
#301=VECTOR('',#300,1.500000000000001);
#302=LINE('',#299,#301);
#303=EDGE_CURVE('',#274,#298,#302,.T.);
#304=ORIENTED_EDGE('',*,*,#303,.T.);
#305=CARTESIAN_POINT('',(-2.0,22.500000000000000,-0.500000000000000));
#306=DIRECTION('',(0.0,0.0,1.0));
#307=VECTOR('',#306,1.0);
#308=LINE('',#305,#307);
#309=EDGE_CURVE('',#165,#298,#308,.T.);
#310=ORIENTED_EDGE('',*,*,#309,.F.);
#311=ORIENTED_EDGE('',*,*,#170,.T.);
#312=ORIENTED_EDGE('',*,*,#285,.T.);
#313=EDGE_LOOP('',(#304,#310,#311,#312));
#314=FACE_OUTER_BOUND('',#313,.T.);
#315=ADVANCED_FACE('',(#314),#296,.T.);
#316=CARTESIAN_POINT('',(-2.0,22.500000000000000,0.0));
#317=DIRECTION('',(-1.0,0.0,0.0));
#318=DIRECTION('',(0.0,0.0,1.0));
#319=AXIS2_PLACEMENT_3D('',#316,#317,#318);
#320=PLANE('',#319);
#321=CARTESIAN_POINT('',(-2.0,22.500000000000000,0.500000000000000));
#322=DIRECTION('',(0.0,1.0,0.0));
#323=VECTOR('',#322,11.0);
#324=LINE('',#321,#323);
#325=EDGE_CURVE('',#298,#101,#324,.T.);
#326=ORIENTED_EDGE('',*,*,#325,.T.);
#327=ORIENTED_EDGE('',*,*,#106,.F.);
#328=ORIENTED_EDGE('',*,*,#176,.T.);
#329=ORIENTED_EDGE('',*,*,#309,.T.);
#330=EDGE_LOOP('',(#326,#327,#328,#329));
#331=FACE_OUTER_BOUND('',#330,.T.);
#332=ADVANCED_FACE('',(#331),#320,.T.);
#333=CARTESIAN_POINT('',(2.0,33.500000000000000,0.0));
#334=DIRECTION('',(1.0,0.0,0.0));
#335=DIRECTION('',(0.0,0.0,-1.0));
#336=AXIS2_PLACEMENT_3D('',#333,#334,#335);
#337=PLANE('',#336);
#338=ORIENTED_EDGE('',*,*,#66,.F.);
#339=CARTESIAN_POINT('',(2.000000000000002,4.582575694955839,0.500000000000000));
#340=VERTEX_POINT('',#339);
#341=CARTESIAN_POINT('',(2.0,31.499999999999993,0.500000000000000));
#342=DIRECTION('',(0.0,-1.0,0.0));
#343=VECTOR('',#342,26.917424305044154);
#344=LINE('',#341,#343);
#345=EDGE_CURVE('',#52,#340,#344,.T.);
#346=ORIENTED_EDGE('',*,*,#345,.T.);
#347=CARTESIAN_POINT('',(2.000000000000002,4.582575694955839,-0.500000000000000));
#348=DIRECTION('',(0.0,0.0,1.0));
#349=VECTOR('',#348,1.0);
#350=LINE('',#347,#349);
#351=EDGE_CURVE('',#124,#340,#350,.T.);
#352=ORIENTED_EDGE('',*,*,#351,.F.);
#353=ORIENTED_EDGE('',*,*,#129,.T.);
#354=EDGE_LOOP('',(#338,#346,#352,#353));
#355=FACE_OUTER_BOUND('',#354,.T.);
#356=ADVANCED_FACE('',(#355),#337,.T.);
#357=CARTESIAN_POINT('',(0.0,0.0,0.0));
#358=DIRECTION('',(0.0,0.0,1.0));
#359=DIRECTION('',(-0.400000000000000,0.916515138991168,0.0));
#360=AXIS2_PLACEMENT_3D('',#357,#358,#359);
#361=CYLINDRICAL_SURFACE('',#360,5.0);
#362=CARTESIAN_POINT('',(0.0,0.0,0.500000000000000));
#363=DIRECTION('',(0.0,0.0,-1.0));
#364=DIRECTION('',(-0.400000000000000,0.916515138991168,0.0));
#365=AXIS2_PLACEMENT_3D('',#362,#363,#364);
#366=CIRCLE('',#365,5.0);
#367=EDGE_CURVE('',#340,#219,#366,.T.);
#368=ORIENTED_EDGE('',*,*,#367,.T.);
#369=ORIENTED_EDGE('',*,*,#239,.T.);
#370=ORIENTED_EDGE('',*,*,#138,.T.);
#371=ORIENTED_EDGE('',*,*,#351,.T.);
#372=EDGE_LOOP('',(#368,#369,#370,#371));
#373=FACE_OUTER_BOUND('',#372,.T.);
#374=ADVANCED_FACE('',(#373),#361,.T.);
#375=CARTESIAN_POINT('',(-0.219784736091918,13.940273908050669,0.500000000000000));
#376=DIRECTION('',(0.0,0.0,1.0));
#377=DIRECTION('',(1.0,0.0,0.0));
#378=AXIS2_PLACEMENT_3D('',#375,#376,#377);
#379=PLANE('',#378);
#380=ORIENTED_EDGE('',*,*,#58,.F.);
#381=ORIENTED_EDGE('',*,*,#112,.F.);
#382=ORIENTED_EDGE('',*,*,#325,.F.);
#383=ORIENTED_EDGE('',*,*,#303,.F.);
#384=ORIENTED_EDGE('',*,*,#279,.F.);
#385=ORIENTED_EDGE('',*,*,#255,.F.);
#386=ORIENTED_EDGE('',*,*,#226,.F.);
#387=ORIENTED_EDGE('',*,*,#367,.F.);
#388=ORIENTED_EDGE('',*,*,#345,.F.);
#389=EDGE_LOOP('',(#380,#381,#382,#383,#384,#385,#386,#387,#388));
#390=FACE_OUTER_BOUND('',#389,.T.);
#391=ORIENTED_EDGE('',*,*,#208,.T.);
#392=EDGE_LOOP('',(#391));
#393=FACE_BOUND('',#392,.T.);
#394=ADVANCED_FACE('',(#390,#393),#379,.T.);
#395=CLOSED_SHELL('',(#85,#116,#192,#212,#243,#267,#291,#315,#332,#356,#374,#394));
#396=MANIFOLD_SOLID_BREP('',#395);
#397=COLOUR_RGB('Metall-AL-6061 (gleichm.)',0.847058832645416,0.839215695858002,0.839215695858002);
#398=FILL_AREA_STYLE_COLOUR('Metall-AL-6061 (gleichm.)',#397);
#399=FILL_AREA_STYLE('Metall-AL-6061 (gleichm.)',(#398));
#400=SURFACE_STYLE_FILL_AREA(#399);
#401=SURFACE_SIDE_STYLE('Metall-AL-6061 (gleichm.)',(#400));
#402=SURFACE_STYLE_USAGE(.BOTH.,#401);
#403=PRESENTATION_STYLE_ASSIGNMENT((#402));
#404=STYLED_ITEM('',(#403),#396);
#405=MECHANICAL_DESIGN_GEOMETRIC_PRESENTATION_REPRESENTATION('',(#404),#36);
#406=ADVANCED_BREP_SHAPE_REPRESENTATION('ABSR',(#396),#36);
#407=SHAPE_REPRESENTATION_RELATIONSHIP('SRR','None',#406,#41);
ENDSEC;
END-ISO-10303-21;
