ISO-10303-21;
HEADER;
/* Generated by software containing ST-Developer
 * from STEP Tools, Inc. (www.steptools.com) 
 */

FILE_DESCRIPTION(
/* description */ ('Schwerlastd\X\FCbel  ZA B12-50  M8'),
/* implementation_level */ '2;1');

FILE_NAME(
/* name */ 'Q:\\ExterneArtikel_Webseite_Palkat\\SZ\\SZ1750V-A.stp',
/* time_stamp */ '2015-11-18T15:57:25+01:00',
/* author */ ('marina kaa'),
/* organization */ (''),
/* preprocessor_version */ 'ST-DEVELOPER v15.6',
/* originating_system */ 'Autodesk Inventor 2015',
/* authorisation */ '');

FILE_SCHEMA (('AUTOMOTIVE_DESIGN { 1 0 10303 214 3 1 1 }'));
ENDSEC;

DATA;
#10=MECHANICAL_DESIGN_GEOMETRIC_PRESENTATION_REPRESENTATION('',(#21),#479);
#11=ITEM_DEFINED_TRANSFORMATION($,$,#279,#311);
#12=ITEM_DEFINED_TRANSFORMATION($,$,#279,#312);
#13=(
REPRESENTATION_RELATIONSHIP($,$,#492,#493)
REPRESENTATION_RELATIONSHIP_WITH_TRANSFORMATION(#11)
SHAPE_REPRESENTATION_RELATIONSHIP()
);
#14=(
REPRESENTATION_RELATIONSHIP($,$,#492,#493)
REPRESENTATION_RELATIONSHIP_WITH_TRANSFORMATION(#12)
SHAPE_REPRESENTATION_RELATIONSHIP()
);
#15=CONTEXT_DEPENDENT_SHAPE_REPRESENTATION(#13,#490);
#16=CONTEXT_DEPENDENT_SHAPE_REPRESENTATION(#14,#491);
#17=NEXT_ASSEMBLY_USAGE_OCCURRENCE('SZ9010N#6#0001#A:1',$,$,#496,#495,$);
#18=NEXT_ASSEMBLY_USAGE_OCCURRENCE('SZ9010N#6#0001#A:2',$,$,#496,#495,$);
#19=SHAPE_REPRESENTATION_RELATIONSHIP('SRR','None',#492,#20);
#20=ADVANCED_BREP_SHAPE_REPRESENTATION($,(#22),#477);
#21=STYLED_ITEM('',(#506),#22);
#22=MANIFOLD_SOLID_BREP('Volumenk\X\F6rper1',#278);
#23=CONICAL_SURFACE('',#296,3.5,45.);
#24=CONICAL_SURFACE('',#303,5.57894360129747,10.4375171024009);
#25=CONICAL_SURFACE('',#305,5.07894360129747,5.25866571360377);
#26=CYLINDRICAL_SURFACE('',#282,10.);
#27=CYLINDRICAL_SURFACE('',#294,4.);
#28=CYLINDRICAL_SURFACE('',#298,4.);
#29=CYLINDRICAL_SURFACE('',#307,5.50000000000001);
#30=FACE_BOUND('',#97,.T.);
#31=FACE_BOUND('',#99,.T.);
#32=FACE_BOUND('',#101,.T.);
#33=FACE_BOUND('',#103,.T.);
#34=FACE_BOUND('',#111,.T.);
#35=FACE_BOUND('',#113,.T.);
#36=FACE_BOUND('',#115,.T.);
#37=FACE_BOUND('',#119,.T.);
#38=FACE_BOUND('',#121,.T.);
#39=FACE_BOUND('',#123,.T.);
#40=FACE_BOUND('',#125,.T.);
#41=LINE('',#405,#59);
#42=LINE('',#407,#60);
#43=LINE('',#409,#61);
#44=LINE('',#411,#62);
#45=LINE('',#413,#63);
#46=LINE('',#414,#64);
#47=LINE('',#424,#65);
#48=LINE('',#426,#66);
#49=LINE('',#428,#67);
#50=LINE('',#430,#68);
#51=LINE('',#432,#69);
#52=LINE('',#433,#70);
#53=LINE('',#437,#71);
#54=LINE('',#438,#72);
#55=LINE('',#440,#73);
#56=LINE('',#442,#74);
#57=LINE('',#444,#75);
#58=LINE('',#446,#76);
#59=VECTOR('',#319,6.92820323027551);
#60=VECTOR('',#320,6.92820323027551);
#61=VECTOR('',#321,6.92820323027551);
#62=VECTOR('',#322,6.92820323027551);
#63=VECTOR('',#323,6.92820323027552);
#64=VECTOR('',#324,6.92820323027551);
#65=VECTOR('',#335,6.92820323027551);
#66=VECTOR('',#336,6.92820323027551);
#67=VECTOR('',#337,6.92820323027551);
#68=VECTOR('',#338,6.92820323027552);
#69=VECTOR('',#339,6.92820323027551);
#70=VECTOR('',#340,6.92820323027551);
#71=VECTOR('',#345,5.99999999999998);
#72=VECTOR('',#346,5.99999999999998);
#73=VECTOR('',#349,5.99999999999998);
#74=VECTOR('',#352,5.99999999999998);
#75=VECTOR('',#355,5.99999999999998);
#76=VECTOR('',#358,5.99999999999998);
#77=FACE_OUTER_BOUND('',#96,.T.);
#78=FACE_OUTER_BOUND('',#98,.T.);
#79=FACE_OUTER_BOUND('',#100,.T.);
#80=FACE_OUTER_BOUND('',#102,.T.);
#81=FACE_OUTER_BOUND('',#104,.T.);
#82=FACE_OUTER_BOUND('',#105,.T.);
#83=FACE_OUTER_BOUND('',#106,.T.);
#84=FACE_OUTER_BOUND('',#107,.T.);
#85=FACE_OUTER_BOUND('',#108,.T.);
#86=FACE_OUTER_BOUND('',#109,.T.);
#87=FACE_OUTER_BOUND('',#110,.T.);
#88=FACE_OUTER_BOUND('',#112,.T.);
#89=FACE_OUTER_BOUND('',#114,.T.);
#90=FACE_OUTER_BOUND('',#116,.T.);
#91=FACE_OUTER_BOUND('',#117,.T.);
#92=FACE_OUTER_BOUND('',#118,.T.);
#93=FACE_OUTER_BOUND('',#120,.T.);
#94=FACE_OUTER_BOUND('',#122,.T.);
#95=FACE_OUTER_BOUND('',#124,.T.);
#96=EDGE_LOOP('',(#189));
#97=EDGE_LOOP('',(#190,#191,#192,#193,#194,#195));
#98=EDGE_LOOP('',(#196));
#99=EDGE_LOOP('',(#197));
#100=EDGE_LOOP('',(#198));
#101=EDGE_LOOP('',(#199));
#102=EDGE_LOOP('',(#200,#201,#202,#203,#204,#205));
#103=EDGE_LOOP('',(#206));
#104=EDGE_LOOP('',(#207,#208,#209,#210));
#105=EDGE_LOOP('',(#211,#212,#213,#214));
#106=EDGE_LOOP('',(#215,#216,#217,#218));
#107=EDGE_LOOP('',(#219,#220,#221,#222));
#108=EDGE_LOOP('',(#223,#224,#225,#226));
#109=EDGE_LOOP('',(#227,#228,#229,#230));
#110=EDGE_LOOP('',(#231));
#111=EDGE_LOOP('',(#232));
#112=EDGE_LOOP('',(#233));
#113=EDGE_LOOP('',(#234));
#114=EDGE_LOOP('',(#235));
#115=EDGE_LOOP('',(#236));
#116=EDGE_LOOP('',(#237));
#117=EDGE_LOOP('',(#238));
#118=EDGE_LOOP('',(#239));
#119=EDGE_LOOP('',(#240));
#120=EDGE_LOOP('',(#241));
#121=EDGE_LOOP('',(#242));
#122=EDGE_LOOP('',(#243));
#123=EDGE_LOOP('',(#244));
#124=EDGE_LOOP('',(#245));
#125=EDGE_LOOP('',(#246));
#126=CIRCLE('',#281,10.);
#127=CIRCLE('',#283,10.);
#128=CIRCLE('',#285,4.);
#129=CIRCLE('',#287,4.);
#130=CIRCLE('',#295,4.);
#131=CIRCLE('',#297,3.);
#132=CIRCLE('',#299,4.);
#133=CIRCLE('',#302,6.5);
#134=CIRCLE('',#304,4.65788720259495);
#135=CIRCLE('',#306,5.5);
#136=CIRCLE('',#308,5.50000000000001);
#137=VERTEX_POINT('',#401);
#138=VERTEX_POINT('',#403);
#139=VERTEX_POINT('',#404);
#140=VERTEX_POINT('',#406);
#141=VERTEX_POINT('',#408);
#142=VERTEX_POINT('',#410);
#143=VERTEX_POINT('',#412);
#144=VERTEX_POINT('',#416);
#145=VERTEX_POINT('',#419);
#146=VERTEX_POINT('',#422);
#147=VERTEX_POINT('',#423);
#148=VERTEX_POINT('',#425);
#149=VERTEX_POINT('',#427);
#150=VERTEX_POINT('',#429);
#151=VERTEX_POINT('',#431);
#152=VERTEX_POINT('',#434);
#153=VERTEX_POINT('',#449);
#154=VERTEX_POINT('',#452);
#155=VERTEX_POINT('',#455);
#156=VERTEX_POINT('',#459);
#157=VERTEX_POINT('',#462);
#158=VERTEX_POINT('',#465);
#159=VERTEX_POINT('',#468);
#160=EDGE_CURVE('',#137,#137,#126,.T.);
#161=EDGE_CURVE('',#138,#139,#41,.T.);
#162=EDGE_CURVE('',#140,#138,#42,.T.);
#163=EDGE_CURVE('',#141,#140,#43,.T.);
#164=EDGE_CURVE('',#142,#141,#44,.T.);
#165=EDGE_CURVE('',#143,#142,#45,.T.);
#166=EDGE_CURVE('',#139,#143,#46,.T.);
#167=EDGE_CURVE('',#144,#144,#127,.T.);
#168=EDGE_CURVE('',#145,#145,#128,.T.);
#169=EDGE_CURVE('',#146,#147,#47,.T.);
#170=EDGE_CURVE('',#147,#148,#48,.T.);
#171=EDGE_CURVE('',#148,#149,#49,.T.);
#172=EDGE_CURVE('',#149,#150,#50,.T.);
#173=EDGE_CURVE('',#150,#151,#51,.T.);
#174=EDGE_CURVE('',#151,#146,#52,.T.);
#175=EDGE_CURVE('',#152,#152,#129,.T.);
#176=EDGE_CURVE('',#148,#139,#53,.T.);
#177=EDGE_CURVE('',#147,#138,#54,.T.);
#178=EDGE_CURVE('',#149,#143,#55,.T.);
#179=EDGE_CURVE('',#150,#142,#56,.T.);
#180=EDGE_CURVE('',#151,#141,#57,.T.);
#181=EDGE_CURVE('',#146,#140,#58,.T.);
#182=EDGE_CURVE('',#153,#153,#130,.T.);
#183=EDGE_CURVE('',#154,#154,#131,.T.);
#184=EDGE_CURVE('',#155,#155,#132,.T.);
#185=EDGE_CURVE('',#156,#156,#133,.T.);
#186=EDGE_CURVE('',#157,#157,#134,.T.);
#187=EDGE_CURVE('',#158,#158,#135,.T.);
#188=EDGE_CURVE('',#159,#159,#136,.T.);
#189=ORIENTED_EDGE('',*,*,#160,.T.);
#190=ORIENTED_EDGE('',*,*,#161,.F.);
#191=ORIENTED_EDGE('',*,*,#162,.F.);
#192=ORIENTED_EDGE('',*,*,#163,.F.);
#193=ORIENTED_EDGE('',*,*,#164,.F.);
#194=ORIENTED_EDGE('',*,*,#165,.F.);
#195=ORIENTED_EDGE('',*,*,#166,.F.);
#196=ORIENTED_EDGE('',*,*,#167,.T.);
#197=ORIENTED_EDGE('',*,*,#160,.F.);
#198=ORIENTED_EDGE('',*,*,#167,.F.);
#199=ORIENTED_EDGE('',*,*,#168,.F.);
#200=ORIENTED_EDGE('',*,*,#169,.T.);
#201=ORIENTED_EDGE('',*,*,#170,.T.);
#202=ORIENTED_EDGE('',*,*,#171,.T.);
#203=ORIENTED_EDGE('',*,*,#172,.T.);
#204=ORIENTED_EDGE('',*,*,#173,.T.);
#205=ORIENTED_EDGE('',*,*,#174,.T.);
#206=ORIENTED_EDGE('',*,*,#175,.F.);
#207=ORIENTED_EDGE('',*,*,#161,.T.);
#208=ORIENTED_EDGE('',*,*,#176,.F.);
#209=ORIENTED_EDGE('',*,*,#170,.F.);
#210=ORIENTED_EDGE('',*,*,#177,.T.);
#211=ORIENTED_EDGE('',*,*,#166,.T.);
#212=ORIENTED_EDGE('',*,*,#178,.F.);
#213=ORIENTED_EDGE('',*,*,#171,.F.);
#214=ORIENTED_EDGE('',*,*,#176,.T.);
#215=ORIENTED_EDGE('',*,*,#165,.T.);
#216=ORIENTED_EDGE('',*,*,#179,.F.);
#217=ORIENTED_EDGE('',*,*,#172,.F.);
#218=ORIENTED_EDGE('',*,*,#178,.T.);
#219=ORIENTED_EDGE('',*,*,#164,.T.);
#220=ORIENTED_EDGE('',*,*,#180,.F.);
#221=ORIENTED_EDGE('',*,*,#173,.F.);
#222=ORIENTED_EDGE('',*,*,#179,.T.);
#223=ORIENTED_EDGE('',*,*,#163,.T.);
#224=ORIENTED_EDGE('',*,*,#181,.F.);
#225=ORIENTED_EDGE('',*,*,#174,.F.);
#226=ORIENTED_EDGE('',*,*,#180,.T.);
#227=ORIENTED_EDGE('',*,*,#162,.T.);
#228=ORIENTED_EDGE('',*,*,#177,.F.);
#229=ORIENTED_EDGE('',*,*,#169,.F.);
#230=ORIENTED_EDGE('',*,*,#181,.T.);
#231=ORIENTED_EDGE('',*,*,#182,.F.);
#232=ORIENTED_EDGE('',*,*,#175,.T.);
#233=ORIENTED_EDGE('',*,*,#182,.T.);
#234=ORIENTED_EDGE('',*,*,#183,.T.);
#235=ORIENTED_EDGE('',*,*,#168,.T.);
#236=ORIENTED_EDGE('',*,*,#184,.T.);
#237=ORIENTED_EDGE('',*,*,#183,.F.);
#238=ORIENTED_EDGE('',*,*,#185,.F.);
#239=ORIENTED_EDGE('',*,*,#186,.F.);
#240=ORIENTED_EDGE('',*,*,#185,.T.);
#241=ORIENTED_EDGE('',*,*,#187,.F.);
#242=ORIENTED_EDGE('',*,*,#186,.T.);
#243=ORIENTED_EDGE('',*,*,#187,.T.);
#244=ORIENTED_EDGE('',*,*,#188,.F.);
#245=ORIENTED_EDGE('',*,*,#188,.T.);
#246=ORIENTED_EDGE('',*,*,#184,.F.);
#247=PLANE('',#280);
#248=PLANE('',#284);
#249=PLANE('',#286);
#250=PLANE('',#288);
#251=PLANE('',#289);
#252=PLANE('',#290);
#253=PLANE('',#291);
#254=PLANE('',#292);
#255=PLANE('',#293);
#256=PLANE('',#300);
#257=PLANE('',#301);
#258=PLANE('',#309);
#259=ADVANCED_FACE('',(#77,#30),#247,.T.);
#260=ADVANCED_FACE('',(#78,#31),#26,.T.);
#261=ADVANCED_FACE('',(#79,#32),#248,.F.);
#262=ADVANCED_FACE('',(#80,#33),#249,.T.);
#263=ADVANCED_FACE('',(#81),#250,.T.);
#264=ADVANCED_FACE('',(#82),#251,.T.);
#265=ADVANCED_FACE('',(#83),#252,.T.);
#266=ADVANCED_FACE('',(#84),#253,.T.);
#267=ADVANCED_FACE('',(#85),#254,.T.);
#268=ADVANCED_FACE('',(#86),#255,.T.);
#269=ADVANCED_FACE('',(#87,#34),#27,.T.);
#270=ADVANCED_FACE('',(#88,#35),#23,.T.);
#271=ADVANCED_FACE('',(#89,#36),#28,.T.);
#272=ADVANCED_FACE('',(#90),#256,.T.);
#273=ADVANCED_FACE('',(#91),#257,.T.);
#274=ADVANCED_FACE('',(#92,#37),#24,.T.);
#275=ADVANCED_FACE('',(#93,#38),#25,.T.);
#276=ADVANCED_FACE('',(#94,#39),#29,.T.);
#277=ADVANCED_FACE('',(#95,#40),#258,.T.);
#278=CLOSED_SHELL('',(#259,#260,#261,#262,#263,#264,#265,#266,#267,#268,
#269,#270,#271,#272,#273,#274,#275,#276,#277));
#279=AXIS2_PLACEMENT_3D('placement',#399,#313,#314);
#280=AXIS2_PLACEMENT_3D('',#400,#315,#316);
#281=AXIS2_PLACEMENT_3D('',#402,#317,#318);
#282=AXIS2_PLACEMENT_3D('',#415,#325,#326);
#283=AXIS2_PLACEMENT_3D('',#417,#327,#328);
#284=AXIS2_PLACEMENT_3D('',#418,#329,#330);
#285=AXIS2_PLACEMENT_3D('',#420,#331,#332);
#286=AXIS2_PLACEMENT_3D('',#421,#333,#334);
#287=AXIS2_PLACEMENT_3D('',#435,#341,#342);
#288=AXIS2_PLACEMENT_3D('',#436,#343,#344);
#289=AXIS2_PLACEMENT_3D('',#439,#347,#348);
#290=AXIS2_PLACEMENT_3D('',#441,#350,#351);
#291=AXIS2_PLACEMENT_3D('',#443,#353,#354);
#292=AXIS2_PLACEMENT_3D('',#445,#356,#357);
#293=AXIS2_PLACEMENT_3D('',#447,#359,#360);
#294=AXIS2_PLACEMENT_3D('',#448,#361,#362);
#295=AXIS2_PLACEMENT_3D('',#450,#363,#364);
#296=AXIS2_PLACEMENT_3D('',#451,#365,#366);
#297=AXIS2_PLACEMENT_3D('',#453,#367,#368);
#298=AXIS2_PLACEMENT_3D('',#454,#369,#370);
#299=AXIS2_PLACEMENT_3D('',#456,#371,#372);
#300=AXIS2_PLACEMENT_3D('',#457,#373,#374);
#301=AXIS2_PLACEMENT_3D('',#458,#375,#376);
#302=AXIS2_PLACEMENT_3D('',#460,#377,#378);
#303=AXIS2_PLACEMENT_3D('',#461,#379,#380);
#304=AXIS2_PLACEMENT_3D('',#463,#381,#382);
#305=AXIS2_PLACEMENT_3D('',#464,#383,#384);
#306=AXIS2_PLACEMENT_3D('',#466,#385,#386);
#307=AXIS2_PLACEMENT_3D('',#467,#387,#388);
#308=AXIS2_PLACEMENT_3D('',#469,#389,#390);
#309=AXIS2_PLACEMENT_3D('',#470,#391,#392);
#310=AXIS2_PLACEMENT_3D('placement',#471,#393,#394);
#311=AXIS2_PLACEMENT_3D('',#472,#395,#396);
#312=AXIS2_PLACEMENT_3D('',#473,#397,#398);
#313=DIRECTION('axis',(0.,0.,1.));
#314=DIRECTION('refdir',(1.,0.,0.));
#315=DIRECTION('center_axis',(-2.29625180328804E-31,9.84107915694875E-31,
1.));
#316=DIRECTION('ref_axis',(1.,0.,0.));
#317=DIRECTION('center_axis',(-2.29625180328804E-31,9.84107915694875E-31,
1.));
#318=DIRECTION('ref_axis',(1.,2.25975957604439E-61,2.29625180328804E-31));
#319=DIRECTION('',(1.,4.80740671595891E-16,0.));
#320=DIRECTION('',(0.500000000000001,-0.866025403784438,0.));
#321=DIRECTION('',(-0.499999999999999,-0.866025403784439,0.));
#322=DIRECTION('',(-1.,-9.61481343191782E-16,0.));
#323=DIRECTION('',(-0.500000000000001,0.866025403784438,0.));
#324=DIRECTION('',(0.5,0.866025403784439,0.));
#325=DIRECTION('center_axis',(0.,-9.86076131526268E-31,-1.));
#326=DIRECTION('ref_axis',(1.,-4.51951915209756E-64,0.));
#327=DIRECTION('center_axis',(-2.29625180328804E-31,9.84107915694875E-31,
1.));
#328=DIRECTION('ref_axis',(1.,2.25975957604439E-61,2.29625180328804E-31));
#329=DIRECTION('center_axis',(-2.29625180328804E-31,9.84107915694875E-31,
1.));
#330=DIRECTION('ref_axis',(1.,0.,0.));
#331=DIRECTION('center_axis',(2.29625180328804E-31,-9.84107915694875E-31,
-1.));
#332=DIRECTION('ref_axis',(0.,-1.,0.));
#333=DIRECTION('center_axis',(1.04971511007453E-30,9.51304318505046E-31,
1.));
#334=DIRECTION('ref_axis',(1.,0.,0.));
#335=DIRECTION('',(0.500000000000001,-0.866025403784438,0.));
#336=DIRECTION('',(1.,4.80740671595891E-16,0.));
#337=DIRECTION('',(0.5,0.866025403784439,0.));
#338=DIRECTION('',(-0.500000000000001,0.866025403784438,0.));
#339=DIRECTION('',(-1.,-9.61481343191782E-16,0.));
#340=DIRECTION('',(-0.499999999999999,-0.866025403784439,0.));
#341=DIRECTION('center_axis',(1.04971511007453E-30,9.51304318505046E-31,
1.));
#342=DIRECTION('ref_axis',(0.,-1.,0.));
#343=DIRECTION('center_axis',(4.80740671595891E-16,-1.,0.));
#344=DIRECTION('ref_axis',(0.,0.,-1.));
#345=DIRECTION('',(0.,0.,-1.));
#346=DIRECTION('',(0.,0.,-1.));
#347=DIRECTION('center_axis',(0.866025403784439,-0.5,0.));
#348=DIRECTION('ref_axis',(0.,0.,-1.));
#349=DIRECTION('',(0.,0.,-1.));
#350=DIRECTION('center_axis',(0.866025403784438,0.500000000000001,0.));
#351=DIRECTION('ref_axis',(0.,0.,-1.));
#352=DIRECTION('',(0.,0.,-1.));
#353=DIRECTION('center_axis',(-9.61481343191782E-16,1.,0.));
#354=DIRECTION('ref_axis',(0.,0.,1.));
#355=DIRECTION('',(0.,0.,-1.));
#356=DIRECTION('center_axis',(-0.866025403784439,0.499999999999999,0.));
#357=DIRECTION('ref_axis',(0.,0.,1.));
#358=DIRECTION('',(0.,0.,-1.));
#359=DIRECTION('center_axis',(-0.866025403784438,-0.500000000000001,0.));
#360=DIRECTION('ref_axis',(0.,0.,1.));
#361=DIRECTION('center_axis',(0.,0.,1.));
#362=DIRECTION('ref_axis',(0.,-1.,0.));
#363=DIRECTION('center_axis',(0.,0.,1.));
#364=DIRECTION('ref_axis',(0.,1.,0.));
#365=DIRECTION('center_axis',(0.,0.,-1.));
#366=DIRECTION('ref_axis',(0.,1.,0.));
#367=DIRECTION('center_axis',(0.,0.,-1.));
#368=DIRECTION('ref_axis',(0.,1.,0.));
#369=DIRECTION('center_axis',(0.,0.,1.));
#370=DIRECTION('ref_axis',(0.,-1.,0.));
#371=DIRECTION('center_axis',(0.,0.,1.));
#372=DIRECTION('ref_axis',(0.,-1.,0.));
#373=DIRECTION('center_axis',(0.,0.,1.));
#374=DIRECTION('ref_axis',(1.,0.,0.));
#375=DIRECTION('center_axis',(0.,0.,-1.));
#376=DIRECTION('ref_axis',(-1.,0.,0.));
#377=DIRECTION('center_axis',(0.,0.,1.));
#378=DIRECTION('ref_axis',(0.,-1.,0.));
#379=DIRECTION('center_axis',(0.,0.,-1.));
#380=DIRECTION('ref_axis',(0.,-1.,0.));
#381=DIRECTION('center_axis',(0.,0.,1.));
#382=DIRECTION('ref_axis',(0.,-1.,0.));
#383=DIRECTION('center_axis',(0.,0.,1.));
#384=DIRECTION('ref_axis',(0.,-1.,0.));
#385=DIRECTION('center_axis',(0.,0.,1.));
#386=DIRECTION('ref_axis',(0.,-1.,0.));
#387=DIRECTION('center_axis',(0.,0.,1.));
#388=DIRECTION('ref_axis',(0.,-1.,0.));
#389=DIRECTION('center_axis',(0.,0.,1.));
#390=DIRECTION('ref_axis',(0.,-1.,0.));
#391=DIRECTION('center_axis',(0.,0.,1.));
#392=DIRECTION('ref_axis',(1.,0.,0.));
#393=DIRECTION('axis',(0.,0.,1.));
#394=DIRECTION('refdir',(1.,0.,0.));
#395=DIRECTION('',(0.,0.,1.));
#396=DIRECTION('',(1.,0.,0.));
#397=DIRECTION('',(1.24145147950234E-16,-1.66533453693774E-16,1.));
#398=DIRECTION('',(1.,-2.77555756156282E-17,-1.24145147950234E-16));
#399=CARTESIAN_POINT('',(0.,0.,0.));
#400=CARTESIAN_POINT('Origin',(0.,1.75162308040602E-45,51.));
#401=CARTESIAN_POINT('',(-10.,1.22460635382238E-15,51.));
#402=CARTESIAN_POINT('Origin',(0.,1.75162308040602E-45,51.));
#403=CARTESIAN_POINT('',(-3.46410161513775,-6.,51.));
#404=CARTESIAN_POINT('',(3.46410161513776,-6.,51.));
#405=CARTESIAN_POINT('',(-3.46410161513775,-6.,51.));
#406=CARTESIAN_POINT('',(-6.92820323027551,-6.20602803233733E-15,51.));
#407=CARTESIAN_POINT('',(-6.92820323027551,-6.66133814775094E-15,51.));
#408=CARTESIAN_POINT('',(-3.46410161513776,6.,51.));
#409=CARTESIAN_POINT('',(-3.46410161513776,6.,51.));
#410=CARTESIAN_POINT('',(3.46410161513775,6.00000000000001,51.));
#411=CARTESIAN_POINT('',(3.46410161513775,6.00000000000001,51.));
#412=CARTESIAN_POINT('',(6.92820323027551,1.48758017768042E-15,51.));
#413=CARTESIAN_POINT('',(6.92820323027551,1.11022302462516E-15,51.));
#414=CARTESIAN_POINT('',(3.46410161513776,-6.,51.));
#415=CARTESIAN_POINT('Origin',(0.,1.75162308040602E-45,51.));
#416=CARTESIAN_POINT('',(-10.,1.22460635382238E-15,50.));
#417=CARTESIAN_POINT('Origin',(0.,-9.86076131526263E-31,50.));
#418=CARTESIAN_POINT('Origin',(0.,-9.86076131526263E-31,50.));
#419=CARTESIAN_POINT('',(-4.,4.8984254152895E-16,50.));
#420=CARTESIAN_POINT('Origin',(0.,0.,50.));
#421=CARTESIAN_POINT('Origin',(-9.71445146547012E-16,4.85722573273506E-16,
57.));
#422=CARTESIAN_POINT('',(-6.92820323027551,-6.20602803233733E-15,57.));
#423=CARTESIAN_POINT('',(-3.46410161513775,-6.,57.));
#424=CARTESIAN_POINT('',(-6.92820323027551,-6.66133814775094E-15,57.));
#425=CARTESIAN_POINT('',(3.46410161513776,-6.,57.));
#426=CARTESIAN_POINT('',(-3.46410161513775,-6.,57.));
#427=CARTESIAN_POINT('',(6.92820323027551,1.48758017768042E-15,57.));
#428=CARTESIAN_POINT('',(3.46410161513776,-6.,57.));
#429=CARTESIAN_POINT('',(3.46410161513775,6.00000000000001,57.));
#430=CARTESIAN_POINT('',(6.92820323027551,1.11022302462516E-15,57.));
#431=CARTESIAN_POINT('',(-3.46410161513776,6.,57.));
#432=CARTESIAN_POINT('',(3.46410161513775,6.00000000000001,57.));
#433=CARTESIAN_POINT('',(-3.46410161513776,6.,57.));
#434=CARTESIAN_POINT('',(-4.89842541528951E-16,4.,57.));
#435=CARTESIAN_POINT('Origin',(0.,0.,57.));
#436=CARTESIAN_POINT('Origin',(-3.46410161513775,-6.,57.));
#437=CARTESIAN_POINT('',(3.46410161513776,-6.,57.));
#438=CARTESIAN_POINT('',(-3.46410161513775,-6.,57.));
#439=CARTESIAN_POINT('Origin',(3.46410161513776,-6.,57.));
#440=CARTESIAN_POINT('',(6.92820323027551,1.48758017768042E-15,57.));
#441=CARTESIAN_POINT('Origin',(6.92820323027551,1.48758017768042E-15,57.));
#442=CARTESIAN_POINT('',(3.46410161513775,6.00000000000001,57.));
#443=CARTESIAN_POINT('Origin',(3.46410161513775,6.00000000000001,57.));
#444=CARTESIAN_POINT('',(-3.46410161513776,6.,57.));
#445=CARTESIAN_POINT('Origin',(-3.46410161513776,6.,57.));
#446=CARTESIAN_POINT('',(-6.92820323027551,-6.20602803233733E-15,57.));
#447=CARTESIAN_POINT('Origin',(-6.92820323027551,-6.20602803233733E-15,
57.));
#448=CARTESIAN_POINT('Origin',(0.,0.,52.5));
#449=CARTESIAN_POINT('',(4.89842541528951E-16,-4.,59.));
#450=CARTESIAN_POINT('Origin',(0.,0.,59.));
#451=CARTESIAN_POINT('Origin',(0.,0.,59.5));
#452=CARTESIAN_POINT('',(-3.67381906146714E-16,-3.,60.));
#453=CARTESIAN_POINT('Origin',(0.,0.,60.));
#454=CARTESIAN_POINT('Origin',(0.,0.,52.5));
#455=CARTESIAN_POINT('',(0.,-4.,45.));
#456=CARTESIAN_POINT('Origin',(0.,0.,45.));
#457=CARTESIAN_POINT('Origin',(0.,-2.,60.));
#458=CARTESIAN_POINT('Origin',(0.,-3.25,-50.));
#459=CARTESIAN_POINT('',(0.,-6.5,-50.));
#460=CARTESIAN_POINT('Origin',(0.,0.,-50.));
#461=CARTESIAN_POINT('Origin',(0.,0.,-45.));
#462=CARTESIAN_POINT('',(0.,-4.65788720259495,-40.));
#463=CARTESIAN_POINT('Origin',(0.,0.,-40.));
#464=CARTESIAN_POINT('Origin',(0.,0.,-35.4252699337757));
#465=CARTESIAN_POINT('',(0.,-5.5,-30.8505398675515));
#466=CARTESIAN_POINT('Origin',(0.,0.,-30.8505398675515));
#467=CARTESIAN_POINT('Origin',(0.,0.,22.5));
#468=CARTESIAN_POINT('',(0.,-5.50000000000001,45.));
#469=CARTESIAN_POINT('Origin',(0.,0.,45.));
#470=CARTESIAN_POINT('Origin',(0.,-4.75,45.));
#471=CARTESIAN_POINT('',(0.,0.,0.));
#472=CARTESIAN_POINT('',(0.,0.,0.));
#473=CARTESIAN_POINT('',(-150.,-139.,-1.33226762955019E-14));
#474=UNCERTAINTY_MEASURE_WITH_UNIT(LENGTH_MEASURE(0.01),#480,
'DISTANCE_ACCURACY_VALUE',
'Maximum model space distance between geometric entities at asserted c
onnectivities');
#475=UNCERTAINTY_MEASURE_WITH_UNIT(LENGTH_MEASURE(0.01),#480,
'DISTANCE_ACCURACY_VALUE',
'Maximum model space distance between geometric entities at asserted c
onnectivities');
#476=UNCERTAINTY_MEASURE_WITH_UNIT(LENGTH_MEASURE(1.E-6),#480,
'DISTANCE_ACCURACY_VALUE',
'Maximum model space distance between geometric entities at asserted c
onnectivities');
#477=(
GEOMETRIC_REPRESENTATION_CONTEXT(3)
GLOBAL_UNCERTAINTY_ASSIGNED_CONTEXT((#474))
GLOBAL_UNIT_ASSIGNED_CONTEXT((#480,#483,#481))
REPRESENTATION_CONTEXT('','3D')
);
#478=(
GEOMETRIC_REPRESENTATION_CONTEXT(3)
GLOBAL_UNCERTAINTY_ASSIGNED_CONTEXT((#475))
GLOBAL_UNIT_ASSIGNED_CONTEXT((#480,#483,#481))
REPRESENTATION_CONTEXT('','3D')
);
#479=(
GEOMETRIC_REPRESENTATION_CONTEXT(3)
GLOBAL_UNCERTAINTY_ASSIGNED_CONTEXT((#476))
GLOBAL_UNIT_ASSIGNED_CONTEXT((#480,#483,#481))
REPRESENTATION_CONTEXT('','3D')
);
#480=(
LENGTH_UNIT()
NAMED_UNIT(*)
SI_UNIT(.MILLI.,.METRE.)
);
#481=(
NAMED_UNIT(*)
SI_UNIT($,.STERADIAN.)
SOLID_ANGLE_UNIT()
);
#482=DIMENSIONAL_EXPONENTS(0.,0.,0.,0.,0.,0.,0.);
#483=(
CONVERSION_BASED_UNIT('degree',#485)
NAMED_UNIT(#482)
PLANE_ANGLE_UNIT()
);
#484=(
NAMED_UNIT(*)
PLANE_ANGLE_UNIT()
SI_UNIT($,.RADIAN.)
);
#485=PLANE_ANGLE_MEASURE_WITH_UNIT(PLANE_ANGLE_MEASURE(0.01745329252),#484);
#486=SHAPE_DEFINITION_REPRESENTATION(#488,#492);
#487=SHAPE_DEFINITION_REPRESENTATION(#489,#493);
#488=PRODUCT_DEFINITION_SHAPE('',$,#495);
#489=PRODUCT_DEFINITION_SHAPE('',$,#496);
#490=PRODUCT_DEFINITION_SHAPE($,$,#17);
#491=PRODUCT_DEFINITION_SHAPE($,$,#18);
#492=SHAPE_REPRESENTATION('',(#279),#477);
#493=SHAPE_REPRESENTATION('',(#310,#311,#312),#478);
#494=PRODUCT_DEFINITION_CONTEXT('part definition',#502,'design');
#495=PRODUCT_DEFINITION('SZ9010N#6#0001#A','SZ9010N#6#0001#A',#497,#494);
#496=PRODUCT_DEFINITION('SZ1750V-A','SZ1750V-A',#498,#494);
#497=PRODUCT_DEFINITION_FORMATION('',$,#504);
#498=PRODUCT_DEFINITION_FORMATION('',$,#505);
#499=PRODUCT_RELATED_PRODUCT_CATEGORY('SZ9010N#6#0001#A',
'SZ9010N#6#0001#A',(#504));
#500=PRODUCT_RELATED_PRODUCT_CATEGORY('SZ1750V-A','SZ1750V-A',(#505));
#501=APPLICATION_PROTOCOL_DEFINITION('international standard',
'automotive_design',2009,#502);
#502=APPLICATION_CONTEXT(
'Core Data for Automotive Mechanical Design Process');
#503=PRODUCT_CONTEXT('part definition',#502,'mechanical');
#504=PRODUCT('SZ9010N#6#0001#A','SZ9010N#6#0001#A',$,(#503));
#505=PRODUCT('SZ1750V-A','SZ1750V-A',$,(#503));
#506=PRESENTATION_STYLE_ASSIGNMENT((#507));
#507=SURFACE_STYLE_USAGE(.BOTH.,#508);
#508=SURFACE_SIDE_STYLE($,(#509));
#509=SURFACE_STYLE_FILL_AREA(#510);
#510=FILL_AREA_STYLE($,(#511));
#511=FILL_AREA_STYLE_COLOUR($,#512);
#512=COLOUR_RGB('',0.63921568627451,0.63921568627451,0.686274509803922);
ENDSEC;
END-ISO-10303-21;
