ISO-10303-21;
HEADER;
/****************************************************************
 * Generated by software with PDE/Lib inside                    *
 * PDElib Version v51a, created Tue 12/06/2005                  *
 * International Technegroup Inc. (www.iti-oh.com)              *
 ****************************************************************/
FILE_DESCRIPTION((''),'2;1');
FILE_NAME('U:\\Paletti Norm\\Paletti Artikel f. Palkat\\STEP\\SP780_extern.ipt.step','2007-09-10T15:12:05',(''),(''),'Autodesk Inventor 11','Autodesk Inventor 11','');
FILE_SCHEMA(('AUTOMOTIVE_DESIGN { 1 0 10303 214 1 1 1 1 }'));
ENDSEC;
DATA;
#5=APPLICATION_CONTEXT('automotive design');
#6=APPLICATION_PROTOCOL_DEFINITION('International Standard','automotive_design',2001,#5);
#7=PRODUCT_CONTEXT('',#5,'mechanical');
#8=PRODUCT('SP780_extern','SP780_extern',$,(#7));
#9=PRODUCT_RELATED_PRODUCT_CATEGORY('part',$,(#8));
#10=PRODUCT_DEFINITION_FORMATION('',$,#8);
#11=PRODUCT_DEFINITION_CONTEXT('part definition',#5,'design');
#12=PRODUCT_DEFINITION('',$,#10,#11);
#18=(NAMED_UNIT(*)PLANE_ANGLE_UNIT()SI_UNIT($,.RADIAN.));
#19=DIMENSIONAL_EXPONENTS(0.0,0.0,0.0,0.0,0.0,0.0,0.0);
#20=PLANE_ANGLE_MEASURE_WITH_UNIT(PLANE_ANGLE_MEASURE(0.017453292500000),#18);
#24=(CONVERSION_BASED_UNIT('DEGREE',#20)NAMED_UNIT(#19)PLANE_ANGLE_UNIT());
#28=(NAMED_UNIT(*)SI_UNIT($,.STERADIAN.)SOLID_ANGLE_UNIT());
#32=(LENGTH_UNIT()NAMED_UNIT(*)SI_UNIT(.MILLI.,.METRE.));
#34=UNCERTAINTY_MEASURE_WITH_UNIT(LENGTH_MEASURE(0.010000000000000),#32,'DISTANCE_ACCURACY_VALUE','');
#36=(GEOMETRIC_REPRESENTATION_CONTEXT(3)GLOBAL_UNCERTAINTY_ASSIGNED_CONTEXT((#34))GLOBAL_UNIT_ASSIGNED_CONTEXT((#24,#28,#32))REPRESENTATION_CONTEXT('None','None'));
#37=AXIS2_PLACEMENT_3D('',#38,#39,#40);
#38=CARTESIAN_POINT('',(0.0,0.0,0.0));
#39=DIRECTION('',(0.0,0.0,1.0));
#40=DIRECTION('',(1.0,0.0,0.0));
#41=SHAPE_REPRESENTATION('',(#37),#36);
#42=PRODUCT_DEFINITION_SHAPE('','',#12);
#43=SHAPE_DEFINITION_REPRESENTATION(#42,#41);
#44=CARTESIAN_POINT('',(46.0,46.000000000000021,0.0));
#45=DIRECTION('',(0.0,0.0,1.0));
#46=DIRECTION('',(-0.707106781186547,-0.707106781186548,0.0));
#47=AXIS2_PLACEMENT_3D('',#44,#45,#46);
#48=CYLINDRICAL_SURFACE('',#47,26.0);
#49=CARTESIAN_POINT('',(46.000000000000014,20.000000000000007,-0.500000000000000));
#50=VERTEX_POINT('',#49);
#51=CARTESIAN_POINT('',(19.999999999999996,46.000000000000014,-0.500000000000000));
#52=VERTEX_POINT('',#51);
#53=CARTESIAN_POINT('',(46.0,46.000000000000021,-0.500000000000000));
#54=DIRECTION('',(0.0,0.0,-1.0));
#55=DIRECTION('',(-0.707106781186547,-0.707106781186548,0.0));
#56=AXIS2_PLACEMENT_3D('',#53,#54,#55);
#57=CIRCLE('',#56,26.0);
#58=EDGE_CURVE('',#50,#52,#57,.T.);
#59=ORIENTED_EDGE('',*,*,#58,.T.);
#60=CARTESIAN_POINT('',(19.999999999999996,46.000000000000014,0.500000000000000));
#61=VERTEX_POINT('',#60);
#62=CARTESIAN_POINT('',(19.999999999999996,46.000000000000014,-0.500000000000000));
#63=DIRECTION('',(0.0,0.0,1.0));
#64=VECTOR('',#63,1.0);
#65=LINE('',#62,#64);
#66=EDGE_CURVE('',#52,#61,#65,.T.);
#67=ORIENTED_EDGE('',*,*,#66,.T.);
#68=CARTESIAN_POINT('',(46.000000000000014,20.000000000000007,0.500000000000000));
#69=VERTEX_POINT('',#68);
#70=CARTESIAN_POINT('',(46.0,46.000000000000021,0.500000000000000));
#71=DIRECTION('',(0.0,0.0,1.0));
#72=DIRECTION('',(-0.707106781186547,-0.707106781186548,0.0));
#73=AXIS2_PLACEMENT_3D('',#70,#71,#72);
#74=CIRCLE('',#73,26.0);
#75=EDGE_CURVE('',#61,#69,#74,.T.);
#76=ORIENTED_EDGE('',*,*,#75,.T.);
#77=CARTESIAN_POINT('',(46.000000000000014,20.000000000000007,0.500000000000000));
#78=DIRECTION('',(0.0,0.0,-1.0));
#79=VECTOR('',#78,1.0);
#80=LINE('',#77,#79);
#81=EDGE_CURVE('',#69,#50,#80,.T.);
#82=ORIENTED_EDGE('',*,*,#81,.T.);
#83=EDGE_LOOP('',(#59,#67,#76,#82));
#84=FACE_OUTER_BOUND('',#83,.T.);
#85=ADVANCED_FACE('',(#84),#48,.F.);
#86=CARTESIAN_POINT('',(19.999999999999972,120.0,0.0));
#87=DIRECTION('',(1.0,0.0,0.0));
#88=DIRECTION('',(0.0,0.0,-1.0));
#89=AXIS2_PLACEMENT_3D('',#86,#87,#88);
#90=PLANE('',#89);
#91=ORIENTED_EDGE('',*,*,#66,.F.);
#92=CARTESIAN_POINT('',(19.999999999999972,118.0,-0.500000000000000));
#93=VERTEX_POINT('',#92);
#94=CARTESIAN_POINT('',(19.999999999999996,46.000000000000014,-0.500000000000000));
#95=DIRECTION('',(0.0,1.0,0.0));
#96=VECTOR('',#95,71.999999999999986);
#97=LINE('',#94,#96);
#98=EDGE_CURVE('',#52,#93,#97,.T.);
#99=ORIENTED_EDGE('',*,*,#98,.T.);
#100=CARTESIAN_POINT('',(19.999999999999972,118.0,0.500000000000000));
#101=VERTEX_POINT('',#100);
#102=CARTESIAN_POINT('',(19.999999999999972,118.0,0.500000000000000));
#103=DIRECTION('',(0.0,0.0,-1.0));
#104=VECTOR('',#103,1.0);
#105=LINE('',#102,#104);
#106=EDGE_CURVE('',#101,#93,#105,.T.);
#107=ORIENTED_EDGE('',*,*,#106,.F.);
#108=CARTESIAN_POINT('',(19.999999999999972,118.0,0.500000000000000));
#109=DIRECTION('',(0.0,-1.0,0.0));
#110=VECTOR('',#109,71.999999999999986);
#111=LINE('',#108,#110);
#112=EDGE_CURVE('',#101,#61,#111,.T.);
#113=ORIENTED_EDGE('',*,*,#112,.T.);
#114=EDGE_LOOP('',(#91,#99,#107,#113));
#115=FACE_OUTER_BOUND('',#114,.T.);
#116=ADVANCED_FACE('',(#115),#90,.T.);
#117=CARTESIAN_POINT('',(2.000000000000002,2.0,0.0));
#118=DIRECTION('',(0.0,0.0,-1.0));
#119=DIRECTION('',(-0.707106781186548,-0.707106781186547,0.0));
#120=AXIS2_PLACEMENT_3D('',#117,#118,#119);
#121=CYLINDRICAL_SURFACE('',#120,2.0);
#122=CARTESIAN_POINT('',(-4.502391E-016,1.999999999999993,-0.500000000000000));
#123=VERTEX_POINT('',#122);
#124=CARTESIAN_POINT('',(2.000000000000002,0.0,-0.500000000000000));
#125=VERTEX_POINT('',#124);
#126=CARTESIAN_POINT('',(2.000000000000002,2.0,-0.500000000000000));
#127=DIRECTION('',(0.0,0.0,1.0));
#128=DIRECTION('',(-0.707106781186548,-0.707106781186547,0.0));
#129=AXIS2_PLACEMENT_3D('',#126,#127,#128);
#130=CIRCLE('',#129,2.0);
#131=EDGE_CURVE('',#123,#125,#130,.T.);
#132=ORIENTED_EDGE('',*,*,#131,.T.);
#133=CARTESIAN_POINT('',(2.000000000000002,0.0,0.500000000000000));
#134=VERTEX_POINT('',#133);
#135=CARTESIAN_POINT('',(2.000000000000002,0.0,-0.500000000000000));
#136=DIRECTION('',(0.0,0.0,1.0));
#137=VECTOR('',#136,1.0);
#138=LINE('',#135,#137);
#139=EDGE_CURVE('',#125,#134,#138,.T.);
#140=ORIENTED_EDGE('',*,*,#139,.T.);
#141=CARTESIAN_POINT('',(-4.502391E-016,1.999999999999993,0.500000000000000));
#142=VERTEX_POINT('',#141);
#143=CARTESIAN_POINT('',(2.000000000000002,2.0,0.500000000000000));
#144=DIRECTION('',(0.0,0.0,-1.0));
#145=DIRECTION('',(-0.707106781186548,-0.707106781186547,0.0));
#146=AXIS2_PLACEMENT_3D('',#143,#144,#145);
#147=CIRCLE('',#146,2.0);
#148=EDGE_CURVE('',#134,#142,#147,.T.);
#149=ORIENTED_EDGE('',*,*,#148,.T.);
#150=CARTESIAN_POINT('',(-4.502391E-016,1.999999999999993,0.500000000000000));
#151=DIRECTION('',(0.0,0.0,-1.0));
#152=VECTOR('',#151,1.0);
#153=LINE('',#150,#152);
#154=EDGE_CURVE('',#142,#123,#153,.T.);
#155=ORIENTED_EDGE('',*,*,#154,.T.);
#156=EDGE_LOOP('',(#132,#140,#149,#155));
#157=FACE_OUTER_BOUND('',#156,.T.);
#158=ADVANCED_FACE('',(#157),#121,.T.);
#159=CARTESIAN_POINT('',(60.000000000000007,0.0,0.0));
#160=DIRECTION('',(0.0,-1.0,0.0));
#161=DIRECTION('',(0.0,0.0,-1.0));
#162=AXIS2_PLACEMENT_3D('',#159,#160,#161);
#163=PLANE('',#162);
#164=ORIENTED_EDGE('',*,*,#139,.F.);
#165=CARTESIAN_POINT('',(58.000000000000007,0.0,-0.500000000000000));
#166=VERTEX_POINT('',#165);
#167=CARTESIAN_POINT('',(2.000000000000002,0.0,-0.500000000000000));
#168=DIRECTION('',(1.0,0.0,0.0));
#169=VECTOR('',#168,56.000000000000007);
#170=LINE('',#167,#169);
#171=EDGE_CURVE('',#125,#166,#170,.T.);
#172=ORIENTED_EDGE('',*,*,#171,.T.);
#173=CARTESIAN_POINT('',(58.000000000000007,0.0,0.500000000000000));
#174=VERTEX_POINT('',#173);
#175=CARTESIAN_POINT('',(58.000000000000007,0.0,0.500000000000000));
#176=DIRECTION('',(0.0,0.0,-1.0));
#177=VECTOR('',#176,1.0);
#178=LINE('',#175,#177);
#179=EDGE_CURVE('',#174,#166,#178,.T.);
#180=ORIENTED_EDGE('',*,*,#179,.F.);
#181=CARTESIAN_POINT('',(58.000000000000007,0.0,0.500000000000000));
#182=DIRECTION('',(-1.0,0.0,0.0));
#183=VECTOR('',#182,56.000000000000007);
#184=LINE('',#181,#183);
#185=EDGE_CURVE('',#174,#134,#184,.T.);
#186=ORIENTED_EDGE('',*,*,#185,.T.);
#187=EDGE_LOOP('',(#164,#172,#180,#186));
#188=FACE_OUTER_BOUND('',#187,.T.);
#189=ADVANCED_FACE('',(#188),#163,.T.);
#190=CARTESIAN_POINT('',(18.888888888888886,48.888888888888886,-0.500000000000000));
#191=DIRECTION('',(0.0,0.0,1.0));
#192=DIRECTION('',(1.0,0.0,0.0));
#193=AXIS2_PLACEMENT_3D('',#190,#191,#192);
#194=PLANE('',#193);
#195=ORIENTED_EDGE('',*,*,#131,.F.);
#196=CARTESIAN_POINT('',(-2.656411E-014,118.0,-0.500000000000000));
#197=VERTEX_POINT('',#196);
#198=CARTESIAN_POINT('',(-2.656411E-014,118.0,-0.500000000000000));
#199=DIRECTION('',(0.0,-1.0,0.0));
#200=VECTOR('',#199,116.0);
#201=LINE('',#198,#200);
#202=EDGE_CURVE('',#197,#123,#201,.T.);
#203=ORIENTED_EDGE('',*,*,#202,.F.);
#204=CARTESIAN_POINT('',(1.999999999999973,120.0,-0.500000000000000));
#205=VERTEX_POINT('',#204);
#206=CARTESIAN_POINT('',(1.999999999999973,118.0,-0.500000000000000));
#207=DIRECTION('',(0.0,0.0,1.0));
#208=DIRECTION('',(-0.707106781186549,0.707106781186546,0.0));
#209=AXIS2_PLACEMENT_3D('',#206,#207,#208);
#210=CIRCLE('',#209,2.0);
#211=EDGE_CURVE('',#205,#197,#210,.T.);
#212=ORIENTED_EDGE('',*,*,#211,.F.);
#213=CARTESIAN_POINT('',(17.999999999999975,120.0,-0.500000000000000));
#214=VERTEX_POINT('',#213);
#215=CARTESIAN_POINT('',(17.999999999999975,120.0,-0.500000000000000));
#216=DIRECTION('',(-1.0,0.0,0.0));
#217=VECTOR('',#216,16.000000000000004);
#218=LINE('',#215,#217);
#219=EDGE_CURVE('',#214,#205,#218,.T.);
#220=ORIENTED_EDGE('',*,*,#219,.F.);
#221=CARTESIAN_POINT('',(17.999999999999975,118.0,-0.500000000000000));
#222=DIRECTION('',(0.0,0.0,1.000000000000000));
#223=DIRECTION('',(0.707106781186548,0.707106781186547,0.0));
#224=AXIS2_PLACEMENT_3D('',#221,#222,#223);
#225=CIRCLE('',#224,2.000000000000000);
#226=EDGE_CURVE('',#93,#214,#225,.T.);
#227=ORIENTED_EDGE('',*,*,#226,.F.);
#228=ORIENTED_EDGE('',*,*,#98,.F.);
#229=ORIENTED_EDGE('',*,*,#58,.F.);
#230=CARTESIAN_POINT('',(58.0,20.000000000000018,-0.500000000000000));
#231=VERTEX_POINT('',#230);
#232=CARTESIAN_POINT('',(58.0,20.000000000000018,-0.500000000000000));
#233=DIRECTION('',(-1.0,0.0,0.0));
#234=VECTOR('',#233,11.999999999999986);
#235=LINE('',#232,#234);
#236=EDGE_CURVE('',#231,#50,#235,.T.);
#237=ORIENTED_EDGE('',*,*,#236,.F.);
#238=CARTESIAN_POINT('',(60.0,18.000000000000014,-0.500000000000000));
#239=VERTEX_POINT('',#238);
#240=CARTESIAN_POINT('',(58.0,18.000000000000014,-0.500000000000000));
#241=DIRECTION('',(0.0,0.0,1.0));
#242=DIRECTION('',(0.707106781186549,0.707106781186546,0.0));
#243=AXIS2_PLACEMENT_3D('',#240,#241,#242);
#244=CIRCLE('',#243,2.000000000000000);
#245=EDGE_CURVE('',#239,#231,#244,.T.);
#246=ORIENTED_EDGE('',*,*,#245,.F.);
#247=CARTESIAN_POINT('',(60.000000000000007,2.000000000000001,-0.500000000000000));
#248=VERTEX_POINT('',#247);
#249=CARTESIAN_POINT('',(60.000000000000007,2.000000000000001,-0.500000000000000));
#250=DIRECTION('',(0.0,1.0,0.0));
#251=VECTOR('',#250,16.000000000000014);
#252=LINE('',#249,#251);
#253=EDGE_CURVE('',#248,#239,#252,.T.);
#254=ORIENTED_EDGE('',*,*,#253,.F.);
#255=CARTESIAN_POINT('',(58.000000000000007,2.000000000000001,-0.500000000000000));
#256=DIRECTION('',(0.0,0.0,1.0));
#257=DIRECTION('',(0.707106781186546,-0.707106781186549,0.0));
#258=AXIS2_PLACEMENT_3D('',#255,#256,#257);
#259=CIRCLE('',#258,2.0);
#260=EDGE_CURVE('',#166,#248,#259,.T.);
#261=ORIENTED_EDGE('',*,*,#260,.F.);
#262=ORIENTED_EDGE('',*,*,#171,.F.);
#263=EDGE_LOOP('',(#195,#203,#212,#220,#227,#228,#229,#237,#246,#254,#261,#262));
#264=FACE_OUTER_BOUND('',#263,.T.);
#265=ADVANCED_FACE('',(#264),#194,.F.);
#266=CARTESIAN_POINT('',(17.999999999999975,118.0,0.0));
#267=DIRECTION('',(0.0,0.0,1.0));
#268=DIRECTION('',(0.707106781186548,0.707106781186547,0.0));
#269=AXIS2_PLACEMENT_3D('',#266,#267,#268);
#270=CYLINDRICAL_SURFACE('',#269,2.000000000000000);
#271=CARTESIAN_POINT('',(17.999999999999975,120.0,0.500000000000000));
#272=VERTEX_POINT('',#271);
#273=CARTESIAN_POINT('',(17.999999999999975,118.0,0.500000000000000));
#274=DIRECTION('',(0.0,0.0,-1.000000000000000));
#275=DIRECTION('',(0.707106781186548,0.707106781186547,0.0));
#276=AXIS2_PLACEMENT_3D('',#273,#274,#275);
#277=CIRCLE('',#276,2.000000000000000);
#278=EDGE_CURVE('',#272,#101,#277,.T.);
#279=ORIENTED_EDGE('',*,*,#278,.T.);
#280=ORIENTED_EDGE('',*,*,#106,.T.);
#281=ORIENTED_EDGE('',*,*,#226,.T.);
#282=CARTESIAN_POINT('',(17.999999999999975,120.0,-0.500000000000000));
#283=DIRECTION('',(0.0,0.0,1.0));
#284=VECTOR('',#283,1.0);
#285=LINE('',#282,#284);
#286=EDGE_CURVE('',#214,#272,#285,.T.);
#287=ORIENTED_EDGE('',*,*,#286,.T.);
#288=EDGE_LOOP('',(#279,#280,#281,#287));
#289=FACE_OUTER_BOUND('',#288,.T.);
#290=ADVANCED_FACE('',(#289),#270,.T.);
#291=CARTESIAN_POINT('',(-2.701435E-014,120.0,0.0));
#292=DIRECTION('',(0.0,1.0,0.0));
#293=DIRECTION('',(0.0,0.0,1.0));
#294=AXIS2_PLACEMENT_3D('',#291,#292,#293);
#295=PLANE('',#294);
#296=ORIENTED_EDGE('',*,*,#286,.F.);
#297=ORIENTED_EDGE('',*,*,#219,.T.);
#298=CARTESIAN_POINT('',(1.999999999999973,120.0,0.500000000000000));
#299=VERTEX_POINT('',#298);
#300=CARTESIAN_POINT('',(1.999999999999973,120.0,0.500000000000000));
#301=DIRECTION('',(0.0,0.0,-1.0));
#302=VECTOR('',#301,1.0);
#303=LINE('',#300,#302);
#304=EDGE_CURVE('',#299,#205,#303,.T.);
#305=ORIENTED_EDGE('',*,*,#304,.F.);
#306=CARTESIAN_POINT('',(1.999999999999973,120.0,0.500000000000000));
#307=DIRECTION('',(1.0,0.0,0.0));
#308=VECTOR('',#307,16.000000000000004);
#309=LINE('',#306,#308);
#310=EDGE_CURVE('',#299,#272,#309,.T.);
#311=ORIENTED_EDGE('',*,*,#310,.T.);
#312=EDGE_LOOP('',(#296,#297,#305,#311));
#313=FACE_OUTER_BOUND('',#312,.T.);
#314=ADVANCED_FACE('',(#313),#295,.T.);
#315=CARTESIAN_POINT('',(1.999999999999973,118.0,0.0));
#316=DIRECTION('',(0.0,0.0,1.0));
#317=DIRECTION('',(-0.707106781186549,0.707106781186546,0.0));
#318=AXIS2_PLACEMENT_3D('',#315,#316,#317);
#319=CYLINDRICAL_SURFACE('',#318,2.0);
#320=CARTESIAN_POINT('',(-2.656411E-014,118.0,0.500000000000000));
#321=VERTEX_POINT('',#320);
#322=CARTESIAN_POINT('',(1.999999999999973,118.0,0.500000000000000));
#323=DIRECTION('',(0.0,0.0,-1.0));
#324=DIRECTION('',(-0.707106781186549,0.707106781186546,0.0));
#325=AXIS2_PLACEMENT_3D('',#322,#323,#324);
#326=CIRCLE('',#325,2.0);
#327=EDGE_CURVE('',#321,#299,#326,.T.);
#328=ORIENTED_EDGE('',*,*,#327,.T.);
#329=ORIENTED_EDGE('',*,*,#304,.T.);
#330=ORIENTED_EDGE('',*,*,#211,.T.);
#331=CARTESIAN_POINT('',(-2.656411E-014,118.0,-0.500000000000000));
#332=DIRECTION('',(0.0,0.0,1.0));
#333=VECTOR('',#332,1.0);
#334=LINE('',#331,#333);
#335=EDGE_CURVE('',#197,#321,#334,.T.);
#336=ORIENTED_EDGE('',*,*,#335,.T.);
#337=EDGE_LOOP('',(#328,#329,#330,#336));
#338=FACE_OUTER_BOUND('',#337,.T.);
#339=ADVANCED_FACE('',(#338),#319,.T.);
#340=CARTESIAN_POINT('',(0.0,0.0,0.0));
#341=DIRECTION('',(-1.0,0.0,0.0));
#342=DIRECTION('',(0.0,0.0,1.0));
#343=AXIS2_PLACEMENT_3D('',#340,#341,#342);
#344=PLANE('',#343);
#345=ORIENTED_EDGE('',*,*,#154,.F.);
#346=CARTESIAN_POINT('',(-4.502391E-016,1.999999999999993,0.500000000000000));
#347=DIRECTION('',(0.0,1.0,0.0));
#348=VECTOR('',#347,116.0);
#349=LINE('',#346,#348);
#350=EDGE_CURVE('',#142,#321,#349,.T.);
#351=ORIENTED_EDGE('',*,*,#350,.T.);
#352=ORIENTED_EDGE('',*,*,#335,.F.);
#353=ORIENTED_EDGE('',*,*,#202,.T.);
#354=EDGE_LOOP('',(#345,#351,#352,#353));
#355=FACE_OUTER_BOUND('',#354,.T.);
#356=ADVANCED_FACE('',(#355),#344,.T.);
#357=CARTESIAN_POINT('',(58.0,18.000000000000014,0.0));
#358=DIRECTION('',(0.0,0.0,1.0));
#359=DIRECTION('',(0.707106781186549,0.707106781186546,0.0));
#360=AXIS2_PLACEMENT_3D('',#357,#358,#359);
#361=CYLINDRICAL_SURFACE('',#360,2.000000000000000);
#362=CARTESIAN_POINT('',(58.0,20.000000000000018,0.500000000000000));
#363=VERTEX_POINT('',#362);
#364=CARTESIAN_POINT('',(60.0,18.000000000000014,0.500000000000000));
#365=VERTEX_POINT('',#364);
#366=CARTESIAN_POINT('',(58.0,18.000000000000014,0.500000000000000));
#367=DIRECTION('',(0.0,0.0,-1.0));
#368=DIRECTION('',(0.707106781186549,0.707106781186546,0.0));
#369=AXIS2_PLACEMENT_3D('',#366,#367,#368);
#370=CIRCLE('',#369,2.000000000000000);
#371=EDGE_CURVE('',#363,#365,#370,.T.);
#372=ORIENTED_EDGE('',*,*,#371,.T.);
#373=CARTESIAN_POINT('',(60.0,18.000000000000014,0.500000000000000));
#374=DIRECTION('',(0.0,0.0,-1.0));
#375=VECTOR('',#374,1.0);
#376=LINE('',#373,#375);
#377=EDGE_CURVE('',#365,#239,#376,.T.);
#378=ORIENTED_EDGE('',*,*,#377,.T.);
#379=ORIENTED_EDGE('',*,*,#245,.T.);
#380=CARTESIAN_POINT('',(58.0,20.000000000000018,-0.500000000000000));
#381=DIRECTION('',(0.0,0.0,1.0));
#382=VECTOR('',#381,1.0);
#383=LINE('',#380,#382);
#384=EDGE_CURVE('',#231,#363,#383,.T.);
#385=ORIENTED_EDGE('',*,*,#384,.T.);
#386=EDGE_LOOP('',(#372,#378,#379,#385));
#387=FACE_OUTER_BOUND('',#386,.T.);
#388=ADVANCED_FACE('',(#387),#361,.T.);
#389=CARTESIAN_POINT('',(60.0,20.000000000000018,0.0));
#390=DIRECTION('',(1.0,0.0,0.0));
#391=DIRECTION('',(0.0,0.0,-1.0));
#392=AXIS2_PLACEMENT_3D('',#389,#390,#391);
#393=PLANE('',#392);
#394=ORIENTED_EDGE('',*,*,#377,.F.);
#395=CARTESIAN_POINT('',(60.000000000000007,2.000000000000001,0.500000000000000));
#396=VERTEX_POINT('',#395);
#397=CARTESIAN_POINT('',(60.0,18.000000000000014,0.500000000000000));
#398=DIRECTION('',(0.0,-1.0,0.0));
#399=VECTOR('',#398,16.000000000000014);
#400=LINE('',#397,#399);
#401=EDGE_CURVE('',#365,#396,#400,.T.);
#402=ORIENTED_EDGE('',*,*,#401,.T.);
#403=CARTESIAN_POINT('',(60.000000000000007,2.000000000000001,-0.500000000000000));
#404=DIRECTION('',(0.0,0.0,1.0));
#405=VECTOR('',#404,1.0);
#406=LINE('',#403,#405);
#407=EDGE_CURVE('',#248,#396,#406,.T.);
#408=ORIENTED_EDGE('',*,*,#407,.F.);
#409=ORIENTED_EDGE('',*,*,#253,.T.);
#410=EDGE_LOOP('',(#394,#402,#408,#409));
#411=FACE_OUTER_BOUND('',#410,.T.);
#412=ADVANCED_FACE('',(#411),#393,.T.);
#413=CARTESIAN_POINT('',(58.000000000000007,2.000000000000001,0.0));
#414=DIRECTION('',(0.0,0.0,1.0));
#415=DIRECTION('',(0.707106781186546,-0.707106781186549,0.0));
#416=AXIS2_PLACEMENT_3D('',#413,#414,#415);
#417=CYLINDRICAL_SURFACE('',#416,2.0);
#418=CARTESIAN_POINT('',(58.000000000000007,2.000000000000001,0.500000000000000));
#419=DIRECTION('',(0.0,0.0,-1.0));
#420=DIRECTION('',(0.707106781186546,-0.707106781186549,0.0));
#421=AXIS2_PLACEMENT_3D('',#418,#419,#420);
#422=CIRCLE('',#421,2.0);
#423=EDGE_CURVE('',#396,#174,#422,.T.);
#424=ORIENTED_EDGE('',*,*,#423,.T.);
#425=ORIENTED_EDGE('',*,*,#179,.T.);
#426=ORIENTED_EDGE('',*,*,#260,.T.);
#427=ORIENTED_EDGE('',*,*,#407,.T.);
#428=EDGE_LOOP('',(#424,#425,#426,#427));
#429=FACE_OUTER_BOUND('',#428,.T.);
#430=ADVANCED_FACE('',(#429),#417,.T.);
#431=CARTESIAN_POINT('',(19.999999999999996,19.999999999999996,0.0));
#432=DIRECTION('',(0.0,1.0,0.0));
#433=DIRECTION('',(0.0,0.0,1.0));
#434=AXIS2_PLACEMENT_3D('',#431,#432,#433);
#435=PLANE('',#434);
#436=ORIENTED_EDGE('',*,*,#81,.F.);
#437=CARTESIAN_POINT('',(46.000000000000014,20.000000000000007,0.500000000000000));
#438=DIRECTION('',(1.0,0.0,0.0));
#439=VECTOR('',#438,11.999999999999986);
#440=LINE('',#437,#439);
#441=EDGE_CURVE('',#69,#363,#440,.T.);
#442=ORIENTED_EDGE('',*,*,#441,.T.);
#443=ORIENTED_EDGE('',*,*,#384,.F.);
#444=ORIENTED_EDGE('',*,*,#236,.T.);
#445=EDGE_LOOP('',(#436,#442,#443,#444));
#446=FACE_OUTER_BOUND('',#445,.T.);
#447=ADVANCED_FACE('',(#446),#435,.T.);
#448=CARTESIAN_POINT('',(18.888888888888886,48.888888888888893,0.500000000000000));
#449=DIRECTION('',(0.0,0.0,1.0));
#450=DIRECTION('',(1.0,0.0,0.0));
#451=AXIS2_PLACEMENT_3D('',#448,#449,#450);
#452=PLANE('',#451);
#453=ORIENTED_EDGE('',*,*,#148,.F.);
#454=ORIENTED_EDGE('',*,*,#185,.F.);
#455=ORIENTED_EDGE('',*,*,#423,.F.);
#456=ORIENTED_EDGE('',*,*,#401,.F.);
#457=ORIENTED_EDGE('',*,*,#371,.F.);
#458=ORIENTED_EDGE('',*,*,#441,.F.);
#459=ORIENTED_EDGE('',*,*,#75,.F.);
#460=ORIENTED_EDGE('',*,*,#112,.F.);
#461=ORIENTED_EDGE('',*,*,#278,.F.);
#462=ORIENTED_EDGE('',*,*,#310,.F.);
#463=ORIENTED_EDGE('',*,*,#327,.F.);
#464=ORIENTED_EDGE('',*,*,#350,.F.);
#465=EDGE_LOOP('',(#453,#454,#455,#456,#457,#458,#459,#460,#461,#462,#463,#464));
#466=FACE_OUTER_BOUND('',#465,.T.);
#467=ADVANCED_FACE('',(#466),#452,.T.);
#468=CLOSED_SHELL('',(#85,#116,#158,#189,#265,#290,#314,#339,#356,#388,#412,#430,#447,#467));
#469=MANIFOLD_SOLID_BREP('',#468);
#470=COLOUR_RGB('Metall-AL-6061 (gleichm.)',0.847058832645416,0.839215695858002,0.839215695858002);
#471=FILL_AREA_STYLE_COLOUR('Metall-AL-6061 (gleichm.)',#470);
#472=FILL_AREA_STYLE('Metall-AL-6061 (gleichm.)',(#471));
#473=SURFACE_STYLE_FILL_AREA(#472);
#474=SURFACE_SIDE_STYLE('Metall-AL-6061 (gleichm.)',(#473));
#475=SURFACE_STYLE_USAGE(.BOTH.,#474);
#476=PRESENTATION_STYLE_ASSIGNMENT((#475));
#477=STYLED_ITEM('',(#476),#469);
#478=MECHANICAL_DESIGN_GEOMETRIC_PRESENTATION_REPRESENTATION('',(#477),#36);
#479=ADVANCED_BREP_SHAPE_REPRESENTATION('ABSR',(#469),#36);
#480=SHAPE_REPRESENTATION_RELATIONSHIP('SRR','None',#479,#41);
ENDSEC;
END-ISO-10303-21;
