ISO-10303-21;
HEADER;
/* Generated by software containing ST-Developer
 * from STEP Tools, Inc. (www.steptools.com) 
 */

FILE_DESCRIPTION(
/* description */ ('Absteckh\X\FClse \X\D820'),
/* implementation_level */ '2;1');

FILE_NAME(
/* name */ 'Q:\\ExterneArtikel_Webseite_Palkat\\SV\\SV_step\\SV1450N_A.
stp',
/* time_stamp */ '2015-11-30T14:44:19+01:00',
/* author */ ('Marina Kaa'),
/* organization */ (''),
/* preprocessor_version */ 'ST-DEVELOPER v15.6',
/* originating_system */ 'Autodesk Inventor 2015',
/* authorisation */ '');

FILE_SCHEMA (('AUTOMOTIVE_DESIGN { 1 0 10303 214 3 1 1 }'));
ENDSEC;

DATA;
#10=MECHANICAL_DESIGN_GEOMETRIC_PRESENTATION_REPRESENTATION('',(#13),#223);
#11=SHAPE_REPRESENTATION_RELATIONSHIP('SRR','None',#232,#12);
#12=ADVANCED_BREP_SHAPE_REPRESENTATION($,(#14),#222);
#13=STYLED_ITEM('',(#241),#14);
#14=MANIFOLD_SOLID_BREP('Volumenk\X\F6rper1',#125);
#15=PLANE('',#132);
#16=PLANE('',#139);
#17=PLANE('',#141);
#18=PLANE('',#145);
#19=CYLINDRICAL_SURFACE('',#130,10.);
#20=CYLINDRICAL_SURFACE('',#137,10.);
#21=CYLINDRICAL_SURFACE('',#143,9.2);
#22=CYLINDRICAL_SURFACE('',#146,6.);
#23=FACE_BOUND('',#44,.T.);
#24=FACE_BOUND('',#46,.T.);
#25=FACE_BOUND('',#48,.T.);
#26=FACE_BOUND('',#50,.T.);
#27=FACE_BOUND('',#52,.T.);
#28=FACE_BOUND('',#54,.T.);
#29=FACE_BOUND('',#56,.T.);
#30=FACE_BOUND('',#58,.T.);
#31=FACE_BOUND('',#60,.T.);
#32=FACE_BOUND('',#62,.T.);
#33=FACE_OUTER_BOUND('',#43,.T.);
#34=FACE_OUTER_BOUND('',#45,.T.);
#35=FACE_OUTER_BOUND('',#47,.T.);
#36=FACE_OUTER_BOUND('',#49,.T.);
#37=FACE_OUTER_BOUND('',#51,.T.);
#38=FACE_OUTER_BOUND('',#53,.T.);
#39=FACE_OUTER_BOUND('',#55,.T.);
#40=FACE_OUTER_BOUND('',#57,.T.);
#41=FACE_OUTER_BOUND('',#59,.T.);
#42=FACE_OUTER_BOUND('',#61,.T.);
#43=EDGE_LOOP('',(#93));
#44=EDGE_LOOP('',(#94));
#45=EDGE_LOOP('',(#95));
#46=EDGE_LOOP('',(#96));
#47=EDGE_LOOP('',(#97));
#48=EDGE_LOOP('',(#98));
#49=EDGE_LOOP('',(#99));
#50=EDGE_LOOP('',(#100));
#51=EDGE_LOOP('',(#101));
#52=EDGE_LOOP('',(#102));
#53=EDGE_LOOP('',(#103));
#54=EDGE_LOOP('',(#104));
#55=EDGE_LOOP('',(#105));
#56=EDGE_LOOP('',(#106));
#57=EDGE_LOOP('',(#107));
#58=EDGE_LOOP('',(#108));
#59=EDGE_LOOP('',(#109));
#60=EDGE_LOOP('',(#110));
#61=EDGE_LOOP('',(#111));
#62=EDGE_LOOP('',(#112));
#63=CIRCLE('',#128,9.);
#64=CIRCLE('',#129,10.);
#65=CIRCLE('',#131,10.);
#66=CIRCLE('',#133,6.);
#67=CIRCLE('',#135,9.);
#68=CIRCLE('',#136,10.);
#69=CIRCLE('',#138,10.);
#70=CIRCLE('',#140,6.);
#71=CIRCLE('',#142,9.2);
#72=CIRCLE('',#144,9.2);
#73=VERTEX_POINT('',#191);
#74=VERTEX_POINT('',#193);
#75=VERTEX_POINT('',#196);
#76=VERTEX_POINT('',#199);
#77=VERTEX_POINT('',#202);
#78=VERTEX_POINT('',#204);
#79=VERTEX_POINT('',#207);
#80=VERTEX_POINT('',#210);
#81=VERTEX_POINT('',#213);
#82=VERTEX_POINT('',#216);
#83=EDGE_CURVE('',#73,#73,#63,.T.);
#84=EDGE_CURVE('',#74,#74,#64,.T.);
#85=EDGE_CURVE('',#75,#75,#65,.T.);
#86=EDGE_CURVE('',#76,#76,#66,.T.);
#87=EDGE_CURVE('',#77,#77,#67,.T.);
#88=EDGE_CURVE('',#78,#78,#68,.T.);
#89=EDGE_CURVE('',#79,#79,#69,.T.);
#90=EDGE_CURVE('',#80,#80,#70,.T.);
#91=EDGE_CURVE('',#81,#81,#71,.T.);
#92=EDGE_CURVE('',#82,#82,#72,.T.);
#93=ORIENTED_EDGE('',*,*,#83,.T.);
#94=ORIENTED_EDGE('',*,*,#84,.T.);
#95=ORIENTED_EDGE('',*,*,#85,.T.);
#96=ORIENTED_EDGE('',*,*,#84,.F.);
#97=ORIENTED_EDGE('',*,*,#83,.F.);
#98=ORIENTED_EDGE('',*,*,#86,.T.);
#99=ORIENTED_EDGE('',*,*,#87,.T.);
#100=ORIENTED_EDGE('',*,*,#88,.T.);
#101=ORIENTED_EDGE('',*,*,#89,.T.);
#102=ORIENTED_EDGE('',*,*,#88,.F.);
#103=ORIENTED_EDGE('',*,*,#87,.F.);
#104=ORIENTED_EDGE('',*,*,#90,.T.);
#105=ORIENTED_EDGE('',*,*,#89,.F.);
#106=ORIENTED_EDGE('',*,*,#91,.T.);
#107=ORIENTED_EDGE('',*,*,#92,.T.);
#108=ORIENTED_EDGE('',*,*,#91,.F.);
#109=ORIENTED_EDGE('',*,*,#85,.F.);
#110=ORIENTED_EDGE('',*,*,#92,.F.);
#111=ORIENTED_EDGE('',*,*,#86,.F.);
#112=ORIENTED_EDGE('',*,*,#90,.F.);
#113=CONICAL_SURFACE('',#127,9.5,45.);
#114=CONICAL_SURFACE('',#134,9.5,45.);
#115=ADVANCED_FACE('',(#33,#23),#113,.T.);
#116=ADVANCED_FACE('',(#34,#24),#19,.T.);
#117=ADVANCED_FACE('',(#35,#25),#15,.T.);
#118=ADVANCED_FACE('',(#36,#26),#114,.T.);
#119=ADVANCED_FACE('',(#37,#27),#20,.T.);
#120=ADVANCED_FACE('',(#38,#28),#16,.F.);
#121=ADVANCED_FACE('',(#39,#29),#17,.F.);
#122=ADVANCED_FACE('',(#40,#30),#21,.T.);
#123=ADVANCED_FACE('',(#41,#31),#18,.F.);
#124=ADVANCED_FACE('',(#42,#32),#22,.F.);
#125=CLOSED_SHELL('',(#115,#116,#117,#118,#119,#120,#121,#122,#123,#124));
#126=AXIS2_PLACEMENT_3D('placement',#189,#147,#148);
#127=AXIS2_PLACEMENT_3D('',#190,#149,#150);
#128=AXIS2_PLACEMENT_3D('',#192,#151,#152);
#129=AXIS2_PLACEMENT_3D('',#194,#153,#154);
#130=AXIS2_PLACEMENT_3D('',#195,#155,#156);
#131=AXIS2_PLACEMENT_3D('',#197,#157,#158);
#132=AXIS2_PLACEMENT_3D('',#198,#159,#160);
#133=AXIS2_PLACEMENT_3D('',#200,#161,#162);
#134=AXIS2_PLACEMENT_3D('',#201,#163,#164);
#135=AXIS2_PLACEMENT_3D('',#203,#165,#166);
#136=AXIS2_PLACEMENT_3D('',#205,#167,#168);
#137=AXIS2_PLACEMENT_3D('',#206,#169,#170);
#138=AXIS2_PLACEMENT_3D('',#208,#171,#172);
#139=AXIS2_PLACEMENT_3D('',#209,#173,#174);
#140=AXIS2_PLACEMENT_3D('',#211,#175,#176);
#141=AXIS2_PLACEMENT_3D('',#212,#177,#178);
#142=AXIS2_PLACEMENT_3D('',#214,#179,#180);
#143=AXIS2_PLACEMENT_3D('',#215,#181,#182);
#144=AXIS2_PLACEMENT_3D('',#217,#183,#184);
#145=AXIS2_PLACEMENT_3D('',#218,#185,#186);
#146=AXIS2_PLACEMENT_3D('',#219,#187,#188);
#147=DIRECTION('axis',(0.,0.,1.));
#148=DIRECTION('refdir',(1.,0.,0.));
#149=DIRECTION('center_axis',(0.,0.,1.));
#150=DIRECTION('ref_axis',(-1.,0.,0.));
#151=DIRECTION('center_axis',(0.,0.,1.));
#152=DIRECTION('ref_axis',(-1.,0.,0.));
#153=DIRECTION('center_axis',(0.,0.,-1.));
#154=DIRECTION('ref_axis',(-1.,0.,0.));
#155=DIRECTION('center_axis',(0.,0.,1.));
#156=DIRECTION('ref_axis',(-1.,0.,0.));
#157=DIRECTION('center_axis',(0.,0.,-1.));
#158=DIRECTION('ref_axis',(-1.,0.,0.));
#159=DIRECTION('center_axis',(0.,0.,-1.));
#160=DIRECTION('ref_axis',(-1.,0.,0.));
#161=DIRECTION('center_axis',(0.,0.,1.));
#162=DIRECTION('ref_axis',(-1.,0.,0.));
#163=DIRECTION('center_axis',(0.,0.,-1.));
#164=DIRECTION('ref_axis',(-1.,0.,0.));
#165=DIRECTION('center_axis',(0.,0.,-1.));
#166=DIRECTION('ref_axis',(-1.,0.,0.));
#167=DIRECTION('center_axis',(0.,0.,1.));
#168=DIRECTION('ref_axis',(-1.,0.,0.));
#169=DIRECTION('center_axis',(0.,0.,1.));
#170=DIRECTION('ref_axis',(-1.,0.,0.));
#171=DIRECTION('center_axis',(0.,0.,1.));
#172=DIRECTION('ref_axis',(-1.,0.,0.));
#173=DIRECTION('center_axis',(0.,0.,-1.));
#174=DIRECTION('ref_axis',(-1.,0.,0.));
#175=DIRECTION('center_axis',(0.,0.,-1.));
#176=DIRECTION('ref_axis',(-1.,0.,0.));
#177=DIRECTION('center_axis',(0.,0.,1.));
#178=DIRECTION('ref_axis',(1.,0.,0.));
#179=DIRECTION('center_axis',(0.,0.,1.));
#180=DIRECTION('ref_axis',(-1.,0.,-4.16374605495614E-17));
#181=DIRECTION('center_axis',(0.,0.,1.));
#182=DIRECTION('ref_axis',(-1.,0.,-4.16374605495614E-17));
#183=DIRECTION('center_axis',(0.,0.,1.));
#184=DIRECTION('ref_axis',(-1.,0.,-4.16374605495614E-17));
#185=DIRECTION('center_axis',(0.,0.,-1.));
#186=DIRECTION('ref_axis',(-1.,0.,0.));
#187=DIRECTION('center_axis',(0.,0.,1.));
#188=DIRECTION('ref_axis',(-1.,0.,0.));
#189=CARTESIAN_POINT('',(0.,0.,0.));
#190=CARTESIAN_POINT('Origin',(0.,0.,-8.5));
#191=CARTESIAN_POINT('',(9.,1.10214571844014E-15,-9.));
#192=CARTESIAN_POINT('Origin',(0.,0.,-9.));
#193=CARTESIAN_POINT('',(10.,-1.22460635382238E-15,-8.));
#194=CARTESIAN_POINT('Origin',(0.,0.,-8.));
#195=CARTESIAN_POINT('Origin',(0.,0.,0.));
#196=CARTESIAN_POINT('',(-10.,0.,-0.8));
#197=CARTESIAN_POINT('Origin',(0.,0.,-0.8));
#198=CARTESIAN_POINT('Origin',(0.,0.,-9.));
#199=CARTESIAN_POINT('',(6.,7.34763812293426E-16,-9.));
#200=CARTESIAN_POINT('Origin',(0.,0.,-9.));
#201=CARTESIAN_POINT('Origin',(0.,0.,8.5));
#202=CARTESIAN_POINT('',(9.,-1.10214571844014E-15,9.));
#203=CARTESIAN_POINT('Origin',(0.,0.,9.));
#204=CARTESIAN_POINT('',(10.,1.22460635382238E-15,8.));
#205=CARTESIAN_POINT('Origin',(0.,0.,8.));
#206=CARTESIAN_POINT('Origin',(0.,0.,0.));
#207=CARTESIAN_POINT('',(-10.,0.,0.8));
#208=CARTESIAN_POINT('Origin',(0.,0.,0.8));
#209=CARTESIAN_POINT('Origin',(0.,0.,9.));
#210=CARTESIAN_POINT('',(6.,7.34763812293426E-16,9.));
#211=CARTESIAN_POINT('Origin',(0.,0.,9.));
#212=CARTESIAN_POINT('Origin',(-9.6,0.,0.8));
#213=CARTESIAN_POINT('',(-9.2,0.,0.8));
#214=CARTESIAN_POINT('Origin',(0.,0.,0.8));
#215=CARTESIAN_POINT('Origin',(0.,0.,0.));
#216=CARTESIAN_POINT('',(-9.2,0.,-0.8));
#217=CARTESIAN_POINT('Origin',(0.,0.,-0.8));
#218=CARTESIAN_POINT('Origin',(-9.6,0.,-0.8));
#219=CARTESIAN_POINT('Origin',(0.,0.,0.));
#220=UNCERTAINTY_MEASURE_WITH_UNIT(LENGTH_MEASURE(0.01),#224,
'DISTANCE_ACCURACY_VALUE',
'Maximum model space distance between geometric entities at asserted c
onnectivities');
#221=UNCERTAINTY_MEASURE_WITH_UNIT(LENGTH_MEASURE(1.E-6),#224,
'DISTANCE_ACCURACY_VALUE',
'Maximum model space distance between geometric entities at asserted c
onnectivities');
#222=(
GEOMETRIC_REPRESENTATION_CONTEXT(3)
GLOBAL_UNCERTAINTY_ASSIGNED_CONTEXT((#220))
GLOBAL_UNIT_ASSIGNED_CONTEXT((#224,#227,#225))
REPRESENTATION_CONTEXT('','3D')
);
#223=(
GEOMETRIC_REPRESENTATION_CONTEXT(3)
GLOBAL_UNCERTAINTY_ASSIGNED_CONTEXT((#221))
GLOBAL_UNIT_ASSIGNED_CONTEXT((#224,#227,#225))
REPRESENTATION_CONTEXT('','3D')
);
#224=(
LENGTH_UNIT()
NAMED_UNIT(*)
SI_UNIT(.MILLI.,.METRE.)
);
#225=(
NAMED_UNIT(*)
SI_UNIT($,.STERADIAN.)
SOLID_ANGLE_UNIT()
);
#226=DIMENSIONAL_EXPONENTS(0.,0.,0.,0.,0.,0.,0.);
#227=(
CONVERSION_BASED_UNIT('degree',#229)
NAMED_UNIT(#226)
PLANE_ANGLE_UNIT()
);
#228=(
NAMED_UNIT(*)
PLANE_ANGLE_UNIT()
SI_UNIT($,.RADIAN.)
);
#229=PLANE_ANGLE_MEASURE_WITH_UNIT(PLANE_ANGLE_MEASURE(0.01745329252),#228);
#230=SHAPE_DEFINITION_REPRESENTATION(#231,#232);
#231=PRODUCT_DEFINITION_SHAPE('',$,#234);
#232=SHAPE_REPRESENTATION('',(#126),#222);
#233=PRODUCT_DEFINITION_CONTEXT('part definition',#238,'design');
#234=PRODUCT_DEFINITION('SV1450N_A','SV1450N_A',#235,#233);
#235=PRODUCT_DEFINITION_FORMATION('',$,#240);
#236=PRODUCT_RELATED_PRODUCT_CATEGORY('SV1450N_A','SV1450N_A',(#240));
#237=APPLICATION_PROTOCOL_DEFINITION('international standard',
'automotive_design',2009,#238);
#238=APPLICATION_CONTEXT(
'Core Data for Automotive Mechanical Design Process');
#239=PRODUCT_CONTEXT('part definition',#238,'mechanical');
#240=PRODUCT('SV1450N_A','SV1450N_A',$,(#239));
#241=PRESENTATION_STYLE_ASSIGNMENT((#242));
#242=SURFACE_STYLE_USAGE(.BOTH.,#243);
#243=SURFACE_SIDE_STYLE($,(#244));
#244=SURFACE_STYLE_FILL_AREA(#245);
#245=FILL_AREA_STYLE($,(#246));
#246=FILL_AREA_STYLE_COLOUR($,#247);
#247=COLOUR_RGB('',0.847058823529412,0.83921568627451,0.83921568627451);
ENDSEC;
END-ISO-10303-21;
