  0
SECTION
  2
HEADER
  9
$ACADVER
  1
AC1014
  9
$ACADMAINTVER
 70
     9
  9
$DWGCODEPAGE
  3
ANSI_1252
  9
$INSBASE
 10
0.0
 20
0.0
 30
0.0
  9
$EXTMIN
 10
-75.905132
 20
-29.732507
 30
0.0
  9
$EXTMAX
 10
77.364107
 20
13.48823
 30
0.0
  9
$LIMMIN
 10
0.0
 20
0.0
  9
$LIMMAX
 10
210.0
 20
297.0
  9
$ORTHOMODE
 70
     0
  9
$REGENMODE
 70
     1
  9
$FILLMODE
 70
     1
  9
$QTEXTMODE
 70
     0
  9
$MIRRTEXT
 70
     1
  9
$DRAGMODE
 70
     2
  9
$LTSCALE
 40
5.0
  9
$OSMODE
 70
    35
  9
$ATTMODE
 70
     1
  9
$TEXTSIZE
 40
3.5
  9
$TRACEWID
 40
1.0
  9
$TEXTSTYLE
  7
STANDARD
  9
$CLAYER
  8
2D_PROFILE
  9
$CELTYPE
  6
BYLAYER
  9
$CECOLOR
 62
   256
  9
$CELTSCALE
 40
1.0
  9
$DELOBJ
 70
     1
  9
$DISPSILH
 70
     0
  9
$DIMSCALE
 40
1.0
  9
$DIMASZ
 40
4.0
  9
$DIMEXO
 40
1.0
  9
$DIMDLI
 40
0.0
  9
$DIMRND
 40
0.0
  9
$DIMDLE
 40
0.0
  9
$DIMEXE
 40
1.0
  9
$DIMTP
 40
0.2
  9
$DIMTM
 40
0.2
  9
$DIMTXT
 40
5.0
  9
$DIMCEN
 40
0.0
  9
$DIMTSZ
 40
0.0
  9
$DIMTOL
 70
     0
  9
$DIMLIM
 70
     0
  9
$DIMTIH
 70
     0
  9
$DIMTOH
 70
     0
  9
$DIMSE1
 70
     0
  9
$DIMSE2
 70
     0
  9
$DIMTAD
 70
     1
  9
$DIMZIN
 70
     8
  9
$DIMBLK
  1

  9
$DIMASO
 70
     1
  9
$DIMSHO
 70
     1
  9
$DIMPOST
  1

  9
$DIMAPOST
  1

  9
$DIMALT
 70
     0
  9
$DIMALTD
 70
     2
  9
$DIMALTF
 40
25.4
  9
$DIMLFAC
 40
1.0
  9
$DIMTOFL
 70
     1
  9
$DIMTVP
 40
0.0
  9
$DIMTIX
 70
     0
  9
$DIMSOXD
 70
     0
  9
$DIMSAH
 70
     0
  9
$DIMBLK1
  1

  9
$DIMBLK2
  1

  9
$DIMSTYLE
  2
PALETTI
  9
$DIMCLRD
 70
   256
  9
$DIMCLRE
 70
   256
  9
$DIMCLRT
 70
   256
  9
$DIMTFAC
 40
0.5
  9
$DIMGAP
 40
0.6
  9
$DIMJUST
 70
     0
  9
$DIMSD1
 70
     0
  9
$DIMSD2
 70
     0
  9
$DIMTOLJ
 70
     1
  9
$DIMTZIN
 70
     8
  9
$DIMALTZ
 70
     8
  9
$DIMALTTZ
 70
     8
  9
$DIMFIT
 70
     5
  9
$DIMUPT
 70
     0
  9
$DIMUNIT
 70
     2
  9
$DIMDEC
 70
     4
  9
$DIMTDEC
 70
     4
  9
$DIMALTU
 70
     2
  9
$DIMALTTD
 70
     2
  9
$DIMTXSTY
  7
STANDARD
  9
$DIMAUNIT
 70
     0
  9
$LUNITS
 70
     2
  9
$LUPREC
 70
     4
  9
$SKETCHINC
 40
1.0
  9
$FILLETRAD
 40
0.3
  9
$AUNITS
 70
     0
  9
$AUPREC
 70
     0
  9
$MENU
  1
acad
  9
$ELEVATION
 40
0.0
  9
$PELEVATION
 40
0.0
  9
$THICKNESS
 40
0.0
  9
$LIMCHECK
 70
     0
  9
$BLIPMODE
 70
     0
  9
$CHAMFERA
 40
10.0
  9
$CHAMFERB
 40
10.0
  9
$CHAMFERC
 40
0.0
  9
$CHAMFERD
 40
0.0
  9
$SKPOLY
 70
     0
  9
$TDCREATE
 40
2451229.679747233
  9
$TDUPDATE
 40
2451229.679747233
  9
$TDINDWG
 40
0.0000000000
  9
$TDUSRTIMER
 40
0.0000000000
  9
$USRTIMER
 70
     1
  9
$ANGBASE
 50
0.0
  9
$ANGDIR
 70
     0
  9
$PDMODE
 70
     0
  9
$PDSIZE
 40
0.0
  9
$PLINEWID
 40
0.0
  9
$COORDS
 70
     1
  9
$SPLFRAME
 70
     0
  9
$SPLINETYPE
 70
     6
  9
$SPLINESEGS
 70
     8
  9
$ATTDIA
 70
     1
  9
$ATTREQ
 70
     1
  9
$HANDLING
 70
     1
  9
$HANDSEED
  5
E0
  9
$SURFTAB1
 70
     6
  9
$SURFTAB2
 70
     6
  9
$SURFTYPE
 70
     6
  9
$SURFU
 70
     6
  9
$SURFV
 70
     6
  9
$UCSNAME
  2

  9
$UCSORG
 10
0.0
 20
0.0
 30
0.0
  9
$UCSXDIR
 10
1.0
 20
0.0
 30
0.0
  9
$UCSYDIR
 10
0.0
 20
1.0
 30
0.0
  9
$PUCSNAME
  2

  9
$PUCSORG
 10
0.0
 20
0.0
 30
0.0
  9
$PUCSXDIR
 10
1.0
 20
0.0
 30
0.0
  9
$PUCSYDIR
 10
0.0
 20
1.0
 30
0.0
  9
$USERI1
 70
     0
  9
$USERI2
 70
     0
  9
$USERI3
 70
     0
  9
$USERI4
 70
     0
  9
$USERI5
 70
     0
  9
$USERR1
 40
1.0
  9
$USERR2
 40
0.0
  9
$USERR3
 40
0.0
  9
$USERR4
 40
0.0
  9
$USERR5
 40
0.0
  9
$WORLDVIEW
 70
     1
  9
$SHADEDGE
 70
     3
  9
$SHADEDIF
 70
    70
  9
$TILEMODE
 70
     1
  9
$MAXACTVP
 70
    16
  9
$PINSBASE
 10
0.0
 20
0.0
 30
0.0
  9
$PLIMCHECK
 70
     0
  9
$PEXTMIN
 10
1.000000E+20
 20
1.000000E+20
 30
1.000000E+20
  9
$PEXTMAX
 10
-1.000000E+20
 20
-1.000000E+20
 30
-1.000000E+20
  9
$PLIMMIN
 10
0.0
 20
0.0
  9
$PLIMMAX
 10
420.0
 20
297.0
  9
$UNITMODE
 70
     0
  9
$VISRETAIN
 70
     0
  9
$PLINEGEN
 70
     0
  9
$PSLTSCALE
 70
     1
  9
$TREEDEPTH
 70
  3020
  9
$PICKSTYLE
 70
     1
  9
$CMLSTYLE
  2
STANDARD
  9
$CMLJUST
 70
     0
  9
$CMLSCALE
 40
1.0
  9
$PROXYGRAPHICS
 70
     1
  9
$MEASUREMENT
 70
     0
  0
ENDSEC
  0
SECTION
  2
CLASSES
  0
CLASS
  1
DICTIONARYVAR
  2
AcDbDictionaryVar
  3
"AutoCAD"
 90
        0
280
     0
281
     0
  0
ENDSEC
  0
SECTION
  2
TABLES
  0
TABLE
  2
VPORT
  5
12
100
AcDbSymbolTable
 70
     2
  0
VPORT
  5
DF
100
AcDbSymbolTableRecord
100
AcDbViewportTableRecord
  2
*ACTIVE
 70
     0
 10
0.0
 20
0.0
 11
1.0
 21
1.0
 12
33.796891
 22
1.45261
 13
0.0
 23
0.0
 14
5.0
 24
5.0
 15
5.0
 25
5.0
 16
0.0
 26
0.0
 36
1.0
 17
0.0
 27
0.0
 37
0.0
 40
176.061755
 41
1.700368
 42
50.0
 43
0.0
 44
0.0
 50
0.0
 51
0.0
 71
     0
 72
 20000
 73
     1
 74
     3
 75
     0
 76
     0
 77
     0
 78
     0
  0
ENDTAB
  0
TABLE
  2
LTYPE
  5
D
100
AcDbSymbolTable
 70
     1
  0
LTYPE
  5
E
100
AcDbSymbolTableRecord
100
AcDbLinetypeTableRecord
  2
BYBLOCK
 70
     0
  3

 72
    65
 73
     0
 40
0.0
  0
LTYPE
  5
F
100
AcDbSymbolTableRecord
100
AcDbLinetypeTableRecord
  2
BYLAYER
 70
     0
  3

 72
    65
 73
     0
 40
0.0
  0
LTYPE
  5
5
100
AcDbSymbolTableRecord
100
AcDbLinetypeTableRecord
  2
CONTINUOUS
 70
     0
  3
Solid line
 72
    65
 73
     0
 40
0.0
  0
ENDTAB
  0
TABLE
  2
LAYER
  5
A
100
AcDbSymbolTable
 70
     2
  0
LAYER
  5
4
100
AcDbSymbolTableRecord
100
AcDbLayerTableRecord
  2
0
 70
     1
 62
     7
  6
CONTINUOUS
  0
LAYER
  5
1B
100
AcDbSymbolTableRecord
100
AcDbLayerTableRecord
  2
2D_PROFILE
 70
     0
 62
     5
  6
CONTINUOUS
  0
ENDTAB
  0
TABLE
  2
STYLE
  5
B
100
AcDbSymbolTable
 70
     1
  0
STYLE
  5
C
100
AcDbSymbolTableRecord
100
AcDbTextStyleTableRecord
  2
STANDARD
 70
     0
 40
0.0
 41
1.0
 50
0.0
 71
     0
 42
3.5
  3
ISOCP
  4

  0
ENDTAB
  0
TABLE
  2
VIEW
  5
10
100
AcDbSymbolTable
 70
     0
  0
ENDTAB
  0
TABLE
  2
UCS
  5
11
100
AcDbSymbolTable
 70
     0
  0
ENDTAB
  0
TABLE
  2
APPID
  5
14
100
AcDbSymbolTable
 70
     1
  0
APPID
  5
15
100
AcDbSymbolTableRecord
100
AcDbRegAppTableRecord
  2
ACAD
 70
     0
  0
ENDTAB
  0
TABLE
  2
DIMSTYLE
  5
16
100
AcDbSymbolTable
 70
     1
  0
DIMSTYLE
105
1D
100
AcDbSymbolTableRecord
100
AcDbDimStyleTableRecord
  2
PALETTI
 70
     0
  3

  4

  5

  6

  7

 40
1.0
 41
4.0
 42
1.0
 43
0.0
 44
1.0
 45
0.0
 46
0.0
 47
0.2
 48
0.2
140
5.0
141
0.0
142
0.0
143
25.4
144
1.0
145
0.0
146
0.5
147
0.6
 71
     0
 72
     0
 73
     0
 74
     0
 75
     0
 76
     0
 77
     1
 78
     8
170
     0
171
     2
172
     1
173
     0
174
     0
175
     0
176
   256
177
   256
178
   256
270
     2
271
     4
272
     4
273
     2
274
     2
340
C
275
     0
280
     0
281
     0
282
     0
283
     1
284
     8
285
     8
286
     8
287
     5
288
     0
  0
ENDTAB
  0
TABLE
  2
BLOCK_RECORD
  5
1
100
AcDbSymbolTable
 70
     0
  0
BLOCK_RECORD
  5
2
100
AcDbSymbolTableRecord
100
AcDbBlockTableRecord
  2
*MODEL_SPACE
  0
BLOCK_RECORD
  5
7
100
AcDbSymbolTableRecord
100
AcDbBlockTableRecord
  2
*PAPER_SPACE
  0
ENDTAB
  0
ENDSEC
  0
SECTION
  2
BLOCKS
  0
BLOCK
  5
3
100
AcDbEntity
  8
0
100
AcDbBlockBegin
  2
*MODEL_SPACE
 70
     0
 10
0.0
 20
0.0
 30
0.0
  3
*MODEL_SPACE
  1

  0
ENDBLK
  5
6
100
AcDbEntity
  8
0
100
AcDbBlockEnd
  0
BLOCK
  5
8
100
AcDbEntity
 67
     1
  8
0
100
AcDbBlockBegin
  2
*PAPER_SPACE
 70
     0
 10
0.0
 20
0.0
 30
0.0
  3
*PAPER_SPACE
  1

  0
ENDBLK
  5
9
100
AcDbEntity
 67
     1
  8
0
100
AcDbBlockEnd
  0
ENDSEC
  0
SECTION
  2
ENTITIES
  0
LINE
  5
1E
100
AcDbEntity
  8
2D_PROFILE
100
AcDbLine
 10
66.244868
 20
-29.437532
 30
0.0
 11
74.157
 21
-21.5254
 31
0.0
1001
ACAD
1000
R13OBJECT
1002
{
1005
DE
1002
}
  0
ARC
  5
1F
100
AcDbEntity
  8
2D_PROFILE
100
AcDbCircle
 10
66.032736
 20
-29.2254
 30
0.0
 40
0.3
100
AcDbArc
 50
270.0
 51
315.0
1001
ACAD
1000
R13OBJECT
1002
{
1005
DE
1002
}
  0
LINE
  5
20
100
AcDbEntity
  8
2D_PROFILE
100
AcDbLine
 10
59.157
 20
-29.5254
 30
0.0
 11
66.032736
 21
-29.5254
 31
0.0
1001
ACAD
1000
R13OBJECT
1002
{
1005
DE
1002
}
  0
ARC
  5
21
100
AcDbEntity
  8
2D_PROFILE
100
AcDbCircle
 10
59.157
 20
-28.5254
 30
0.0
 40
1.0
100
AcDbArc
 50
180.0
 51
270.0
1001
ACAD
1000
R13OBJECT
1002
{
1005
DE
1002
}
  0
LINE
  5
22
100
AcDbEntity
  8
2D_PROFILE
100
AcDbLine
 10
58.157
 20
-26.0254
 30
0.0
 11
58.157
 21
-28.5254
 31
0.0
1001
ACAD
1000
R13OBJECT
1002
{
1005
DE
1002
}
  0
ARC
  5
23
100
AcDbEntity
  8
2D_PROFILE
100
AcDbCircle
 10
59.157
 20
-26.0254
 30
0.0
 40
1.0
100
AcDbArc
 50
90.0
 51
180.0
1001
ACAD
1000
R13OBJECT
1002
{
1005
DE
1002
}
  0
LINE
  5
24
100
AcDbEntity
  8
2D_PROFILE
100
AcDbLine
 10
59.707
 20
-25.0254
 30
0.0
 11
59.157
 21
-25.0254
 31
0.0
1001
ACAD
1000
R13OBJECT
1002
{
1005
DE
1002
}
  0
ARC
  5
25
100
AcDbEntity
  8
2D_PROFILE
100
AcDbCircle
 10
59.707
 20
-25.7754
 30
0.0
 40
0.75
100
AcDbArc
 50
0.0
 51
90.0
1001
ACAD
1000
R13OBJECT
1002
{
1005
DE
1002
}
  0
LINE
  5
26
100
AcDbEntity
  8
2D_PROFILE
100
AcDbLine
 10
60.457
 20
-26.4754
 30
0.0
 11
60.457
 21
-25.7754
 31
0.0
1001
ACAD
1000
R13OBJECT
1002
{
1005
DE
1002
}
  0
ARC
  5
27
100
AcDbEntity
  8
2D_PROFILE
100
AcDbCircle
 10
61.207
 20
-26.4754
 30
0.0
 40
0.75
100
AcDbArc
 50
180.0
 51
270.0
1001
ACAD
1000
R13OBJECT
1002
{
1005
DE
1002
}
  0
LINE
  5
28
100
AcDbEntity
  8
2D_PROFILE
100
AcDbLine
 10
63.800146
 20
-27.2254
 30
0.0
 11
61.207
 21
-27.2254
 31
0.0
1001
ACAD
1000
R13OBJECT
1002
{
1005
DE
1002
}
  0
ARC
  5
29
100
AcDbEntity
  8
2D_PROFILE
100
AcDbCircle
 10
63.800146
 20
-26.2254
 30
0.0
 40
1.0
100
AcDbArc
 50
270.0
 51
315.0
1001
ACAD
1000
R13OBJECT
1002
{
1005
DE
1002
}
  0
LINE
  5
2A
100
AcDbEntity
  8
2D_PROFILE
100
AcDbLine
 10
70.885974
 20
-20.553786
 30
0.0
 11
64.507253
 21
-26.932507
 31
0.0
1001
ACAD
1000
R13OBJECT
1002
{
1005
DE
1002
}
  0
ARC
  5
2B
100
AcDbEntity
  8
2D_PROFILE
100
AcDbCircle
 10
70.178867
 20
-19.846679
 30
0.0
 40
1.0
100
AcDbArc
 50
315.0
 51
1.170044
1001
ACAD
1000
R13OBJECT
1002
{
1005
DE
1002
}
  0
LINE
  5
2C
100
AcDbEntity
  8
2D_PROFILE
100
AcDbLine
 10
71.178658
 20
-12.899509
 30
0.0
 11
71.178658
 21
-19.826259
 31
0.0
1001
ACAD
1000
R13OBJECT
1002
{
1005
DE
1002
}
  0
ARC
  5
2D
100
AcDbEntity
  8
2D_PROFILE
100
AcDbCircle
 10
70.178658
 20
-12.899509
 30
0.0
 40
1.0
100
AcDbArc
 50
0.0
 51
112.723315
1001
ACAD
1000
R13OBJECT
1002
{
1005
DE
1002
}
  0
ARC
  5
2E
100
AcDbEntity
  8
2D_PROFILE
100
AcDbCircle
 10
65.157
 20
-0.908556
 30
0.0
 40
12.0
100
AcDbArc
 50
264.907824
 51
292.723315
1001
ACAD
1000
R13OBJECT
1002
{
1005
DE
1002
}
  0
ARC
  5
2F
100
AcDbEntity
  8
2D_PROFILE
100
AcDbCircle
 10
64.003142
 20
-13.857248
 30
0.0
 40
1.0
100
AcDbArc
 50
84.907824
 51
138.207254
1001
ACAD
1000
R13OBJECT
1002
{
1005
DE
1002
}
  0
ARC
  5
30
100
AcDbEntity
  8
2D_PROFILE
100
AcDbCircle
 10
59.157
 20
-9.5254
 30
0.0
 40
5.5
100
AcDbArc
 50
312.839588
 51
318.207254
1001
ACAD
1000
R13OBJECT
1002
{
1005
DE
1002
}
  0
ARC
  5
31
100
AcDbEntity
  8
2D_PROFILE
100
AcDbCircle
 10
62.216767
 20
-12.825071
 30
0.0
 40
1.0
100
AcDbArc
 50
210.0
 51
312.839588
1001
ACAD
1000
R13OBJECT
1002
{
1005
DE
1002
}
  0
LINE
  5
32
100
AcDbEntity
  8
2D_PROFILE
100
AcDbLine
 10
61.000909
 20
-12.719144
 30
0.0
 11
61.350741
 21
-13.325071
 31
0.0
1001
ACAD
1000
R13OBJECT
1002
{
1005
DE
1002
}
  0
ARC
  5
33
100
AcDbEntity
  8
2D_PROFILE
100
AcDbCircle
 10
61.260717
 20
-12.569144
 30
0.0
 40
0.3
100
AcDbArc
 50
124.650709
 51
210.0
1001
ACAD
1000
R13OBJECT
1002
{
1005
DE
1002
}
  0
ARC
  5
34
100
AcDbEntity
  8
2D_PROFILE
100
AcDbCircle
 10
59.157
 20
-9.5254
 30
0.0
 40
3.4
100
AcDbArc
 50
304.650709
 51
235.349291
1001
ACAD
1000
R13OBJECT
1002
{
1005
DE
1002
}
  0
ARC
  5
35
100
AcDbEntity
  8
2D_PROFILE
100
AcDbCircle
 10
57.053283
 20
-12.569144
 30
0.0
 40
0.3
100
AcDbArc
 50
330.0
 51
55.349291
1001
ACAD
1000
R13OBJECT
1002
{
1005
DE
1002
}
  0
LINE
  5
36
100
AcDbEntity
  8
2D_PROFILE
100
AcDbLine
 10
56.963259
 20
-13.325071
 30
0.0
 11
57.313091
 21
-12.719144
 31
0.0
1001
ACAD
1000
R13OBJECT
1002
{
1005
DE
1002
}
  0
ARC
  5
37
100
AcDbEntity
  8
2D_PROFILE
100
AcDbCircle
 10
56.097233
 20
-12.825071
 30
0.0
 40
1.0
100
AcDbArc
 50
227.160412
 51
330.0
1001
ACAD
1000
R13OBJECT
1002
{
1005
DE
1002
}
  0
ARC
  5
38
100
AcDbEntity
  8
2D_PROFILE
100
AcDbCircle
 10
59.157
 20
-9.5254
 30
0.0
 40
5.5
100
AcDbArc
 50
34.227856
 51
227.160412
1001
ACAD
1000
R13OBJECT
1002
{
1005
DE
1002
}
  0
ARC
  5
39
100
AcDbEntity
  8
2D_PROFILE
100
AcDbCircle
 10
64.531247
 20
-5.869245
 30
0.0
 40
1.0
100
AcDbArc
 50
214.227856
 51
262.810545
1001
ACAD
1000
R13OBJECT
1002
{
1005
DE
1002
}
  0
ARC
  5
3A
100
AcDbEntity
  8
2D_PROFILE
100
AcDbCircle
 10
65.157
 20
-0.908556
 30
0.0
 40
6.0
100
AcDbArc
 50
262.810545
 51
323.130102
1001
ACAD
1000
R13OBJECT
1002
{
1005
DE
1002
}
  0
ARC
  5
3B
100
AcDbEntity
  8
2D_PROFILE
100
AcDbCircle
 10
69.157
 20
-3.908556
 30
0.0
 40
1.0
100
AcDbArc
 50
323.130102
 51
0.0
1001
ACAD
1000
R13OBJECT
1002
{
1005
DE
1002
}
  0
LINE
  5
3C
100
AcDbEntity
  8
2D_PROFILE
100
AcDbLine
 10
70.157
 20
3.4746
 30
0.0
 11
70.157
 21
-3.908556
 31
0.0
1001
ACAD
1000
R13OBJECT
1002
{
1005
DE
1002
}
  0
ARC
  5
3D
100
AcDbEntity
  8
2D_PROFILE
100
AcDbCircle
 10
64.157
 20
3.4746
 30
0.0
 40
6.0
100
AcDbArc
 50
360.0
 51
90.0
1001
ACAD
1000
R13OBJECT
1002
{
1005
DE
1002
}
  0
LINE
  5
3E
100
AcDbEntity
  8
2D_PROFILE
100
AcDbLine
 10
32.657
 20
9.4746
 30
0.0
 11
64.157
 21
9.4746
 31
0.0
1001
ACAD
1000
R13OBJECT
1002
{
1005
DE
1002
}
  0
ARC
  5
3F
100
AcDbEntity
  8
2D_PROFILE
100
AcDbCircle
 10
32.657
 20
7.4746
 30
0.0
 40
2.0
100
AcDbArc
 50
90.0
 51
180.0
1001
ACAD
1000
R13OBJECT
1002
{
1005
DE
1002
}
  0
LINE
  5
40
100
AcDbEntity
  8
2D_PROFILE
100
AcDbLine
 10
30.657
 20
-4.5254
 30
0.0
 11
30.657
 21
7.4746
 31
0.0
1001
ACAD
1000
R13OBJECT
1002
{
1005
DE
1002
}
  0
ARC
  5
41
100
AcDbEntity
  8
2D_PROFILE
100
AcDbCircle
 10
29.657
 20
-4.5254
 30
0.0
 40
1.0
100
AcDbArc
 50
270.0
 51
0.0
1001
ACAD
1000
R13OBJECT
1002
{
1005
DE
1002
}
  0
LINE
  5
42
100
AcDbEntity
  8
2D_PROFILE
100
AcDbLine
 10
28.657
 20
-5.5254
 30
0.0
 11
29.657
 21
-5.5254
 31
0.0
1001
ACAD
1000
R13OBJECT
1002
{
1005
DE
1002
}
  0
ARC
  5
43
100
AcDbEntity
  8
2D_PROFILE
100
AcDbCircle
 10
28.657
 20
-4.5254
 30
0.0
 40
1.0
100
AcDbArc
 50
180.0
 51
270.0
1001
ACAD
1000
R13OBJECT
1002
{
1005
DE
1002
}
  0
LINE
  5
44
100
AcDbEntity
  8
2D_PROFILE
100
AcDbLine
 10
27.657
 20
7.4746
 30
0.0
 11
27.657
 21
-4.5254
 31
0.0
1001
ACAD
1000
R13OBJECT
1002
{
1005
DE
1002
}
  0
ARC
  5
45
100
AcDbEntity
  8
2D_PROFILE
100
AcDbCircle
 10
25.657
 20
7.4746
 30
0.0
 40
2.0
100
AcDbArc
 50
0.0
 51
90.0
1001
ACAD
1000
R13OBJECT
1002
{
1005
DE
1002
}
  0
LINE
  5
46
100
AcDbEntity
  8
2D_PROFILE
100
AcDbLine
 10
2.657
 20
9.4746
 30
0.0
 11
25.657
 21
9.4746
 31
0.0
1001
ACAD
1000
R13OBJECT
1002
{
1005
DE
1002
}
  0
ARC
  5
47
100
AcDbEntity
  8
2D_PROFILE
100
AcDbCircle
 10
2.657
 20
7.4746
 30
0.0
 40
2.0
100
AcDbArc
 50
90.0
 51
180.0
1001
ACAD
1000
R13OBJECT
1002
{
1005
DE
1002
}
  0
LINE
  5
48
100
AcDbEntity
  8
2D_PROFILE
100
AcDbLine
 10
0.657
 20
-3.5254
 30
0.0
 11
0.657
 21
7.4746
 31
0.0
1001
ACAD
1000
R13OBJECT
1002
{
1005
DE
1002
}
  0
ARC
  5
49
100
AcDbEntity
  8
2D_PROFILE
100
AcDbCircle
 10
1.657
 20
-3.5254
 30
0.0
 40
1.0
100
AcDbArc
 50
180.0
 51
247.380135
1001
ACAD
1000
R13OBJECT
1002
{
1005
DE
1002
}
  0
ARC
  5
4A
100
AcDbEntity
  8
2D_PROFILE
100
AcDbCircle
 10
-0.843
 20
-9.5254
 30
0.0
 40
5.5
100
AcDbArc
 50
312.839588
 51
67.380135
1001
ACAD
1000
R13OBJECT
1002
{
1005
DE
1002
}
  0
ARC
  5
4B
100
AcDbEntity
  8
2D_PROFILE
100
AcDbCircle
 10
2.216767
 20
-12.825071
 30
0.0
 40
1.0
100
AcDbArc
 50
210.0
 51
312.839588
1001
ACAD
1000
R13OBJECT
1002
{
1005
DE
1002
}
  0
LINE
  5
4C
100
AcDbEntity
  8
2D_PROFILE
100
AcDbLine
 10
1.000909
 20
-12.719144
 30
0.0
 11
1.350741
 21
-13.325071
 31
0.0
1001
ACAD
1000
R13OBJECT
1002
{
1005
DE
1002
}
  0
ARC
  5
4D
100
AcDbEntity
  8
2D_PROFILE
100
AcDbCircle
 10
1.260717
 20
-12.569144
 30
0.0
 40
0.3
100
AcDbArc
 50
124.650709
 51
210.0
1001
ACAD
1000
R13OBJECT
1002
{
1005
DE
1002
}
  0
ARC
  5
4E
100
AcDbEntity
  8
2D_PROFILE
100
AcDbCircle
 10
-0.843
 20
-9.5254
 30
0.0
 40
3.4
100
AcDbArc
 50
304.650709
 51
235.349291
1001
ACAD
1000
R13OBJECT
1002
{
1005
DE
1002
}
  0
ARC
  5
4F
100
AcDbEntity
  8
2D_PROFILE
100
AcDbCircle
 10
-2.946717
 20
-12.569144
 30
0.0
 40
0.3
100
AcDbArc
 50
330.0
 51
55.349291
1001
ACAD
1000
R13OBJECT
1002
{
1005
DE
1002
}
  0
LINE
  5
50
100
AcDbEntity
  8
2D_PROFILE
100
AcDbLine
 10
-3.036741
 20
-13.325071
 30
0.0
 11
-2.686909
 21
-12.719144
 31
0.0
1001
ACAD
1000
R13OBJECT
1002
{
1005
DE
1002
}
  0
ARC
  5
51
100
AcDbEntity
  8
2D_PROFILE
100
AcDbCircle
 10
-3.902767
 20
-12.825071
 30
0.0
 40
1.0
100
AcDbArc
 50
227.160412
 51
330.0
1001
ACAD
1000
R13OBJECT
1002
{
1005
DE
1002
}
  0
ARC
  5
52
100
AcDbEntity
  8
2D_PROFILE
100
AcDbCircle
 10
-0.843
 20
-9.5254
 30
0.0
 40
5.5
100
AcDbArc
 50
112.619865
 51
227.160412
1001
ACAD
1000
R13OBJECT
1002
{
1005
DE
1002
}
  0
ARC
  5
53
100
AcDbEntity
  8
2D_PROFILE
100
AcDbCircle
 10
-3.343
 20
-3.5254
 30
0.0
 40
1.0
100
AcDbArc
 50
292.619865
 51
0.0
1001
ACAD
1000
R13OBJECT
1002
{
1005
DE
1002
}
  0
LINE
  5
54
100
AcDbEntity
  8
2D_PROFILE
100
AcDbLine
 10
-2.343
 20
7.4746
 30
0.0
 11
-2.343
 21
-3.5254
 31
0.0
1001
ACAD
1000
R13OBJECT
1002
{
1005
DE
1002
}
  0
ARC
  5
55
100
AcDbEntity
  8
2D_PROFILE
100
AcDbCircle
 10
-4.343
 20
7.4746
 30
0.0
 40
2.0
100
AcDbArc
 50
360.0
 51
90.0
1001
ACAD
1000
R13OBJECT
1002
{
1005
DE
1002
}
  0
LINE
  5
56
100
AcDbEntity
  8
2D_PROFILE
100
AcDbLine
 10
-27.343
 20
9.4746
 30
0.0
 11
-4.343
 21
9.4746
 31
0.0
1001
ACAD
1000
R13OBJECT
1002
{
1005
DE
1002
}
  0
ARC
  5
57
100
AcDbEntity
  8
2D_PROFILE
100
AcDbCircle
 10
-27.343
 20
7.4746
 30
0.0
 40
2.0
100
AcDbArc
 50
90.0
 51
180.0
1001
ACAD
1000
R13OBJECT
1002
{
1005
DE
1002
}
  0
LINE
  5
58
100
AcDbEntity
  8
2D_PROFILE
100
AcDbLine
 10
-29.343
 20
-4.5254
 30
0.0
 11
-29.343
 21
7.4746
 31
0.0
1001
ACAD
1000
R13OBJECT
1002
{
1005
DE
1002
}
  0
ARC
  5
59
100
AcDbEntity
  8
2D_PROFILE
100
AcDbCircle
 10
-30.343
 20
-4.5254
 30
0.0
 40
1.0
100
AcDbArc
 50
270.0
 51
360.0
1001
ACAD
1000
R13OBJECT
1002
{
1005
DE
1002
}
  0
LINE
  5
5A
100
AcDbEntity
  8
2D_PROFILE
100
AcDbLine
 10
-31.343
 20
-5.5254
 30
0.0
 11
-30.343
 21
-5.5254
 31
0.0
1001
ACAD
1000
R13OBJECT
1002
{
1005
DE
1002
}
  0
ARC
  5
5B
100
AcDbEntity
  8
2D_PROFILE
100
AcDbCircle
 10
-31.343
 20
-4.5254
 30
0.0
 40
1.0
100
AcDbArc
 50
180.0
 51
270.0
1001
ACAD
1000
R13OBJECT
1002
{
1005
DE
1002
}
  0
LINE
  5
5C
100
AcDbEntity
  8
2D_PROFILE
100
AcDbLine
 10
-32.343
 20
7.4746
 30
0.0
 11
-32.343
 21
-4.5254
 31
0.0
1001
ACAD
1000
R13OBJECT
1002
{
1005
DE
1002
}
  0
ARC
  5
5D
100
AcDbEntity
  8
2D_PROFILE
100
AcDbCircle
 10
-34.343
 20
7.4746
 30
0.0
 40
2.0
100
AcDbArc
 50
360.0
 51
90.0
1001
ACAD
1000
R13OBJECT
1002
{
1005
DE
1002
}
  0
LINE
  5
5E
100
AcDbEntity
  8
2D_PROFILE
100
AcDbLine
 10
-65.843
 20
9.4746
 30
0.0
 11
-34.343
 21
9.4746
 31
0.0
1001
ACAD
1000
R13OBJECT
1002
{
1005
DE
1002
}
  0
ARC
  5
5F
100
AcDbEntity
  8
2D_PROFILE
100
AcDbCircle
 10
-65.843
 20
3.4746
 30
0.0
 40
6.0
100
AcDbArc
 50
90.0
 51
180.0
1001
ACAD
1000
R13OBJECT
1002
{
1005
DE
1002
}
  0
LINE
  5
60
100
AcDbEntity
  8
2D_PROFILE
100
AcDbLine
 10
-71.843
 20
0.830758
 30
0.0
 11
-71.843
 21
3.4746
 31
0.0
1001
ACAD
1000
R13OBJECT
1002
{
1005
DE
1002
}
  0
ARC
  5
61
100
AcDbEntity
  8
2D_PROFILE
100
AcDbCircle
 10
-65.843
 20
0.830758
 30
0.0
 40
6.0
100
AcDbArc
 50
180.0
 51
295.771462
1001
ACAD
1000
R13OBJECT
1002
{
1005
DE
1002
}
  0
ARC
  5
62
100
AcDbEntity
  8
2D_PROFILE
100
AcDbCircle
 10
-60.843
 20
-9.5254
 30
0.0
 40
5.5
100
AcDbArc
 50
312.839588
 51
115.771462
1001
ACAD
1000
R13OBJECT
1002
{
1005
DE
1002
}
  0
ARC
  5
63
100
AcDbEntity
  8
2D_PROFILE
100
AcDbCircle
 10
-57.783233
 20
-12.825071
 30
0.0
 40
1.0
100
AcDbArc
 50
210.0
 51
312.839588
1001
ACAD
1000
R13OBJECT
1002
{
1005
DE
1002
}
  0
LINE
  5
64
100
AcDbEntity
  8
2D_PROFILE
100
AcDbLine
 10
-58.999091
 20
-12.719144
 30
0.0
 11
-58.649259
 21
-13.325071
 31
0.0
1001
ACAD
1000
R13OBJECT
1002
{
1005
DE
1002
}
  0
ARC
  5
65
100
AcDbEntity
  8
2D_PROFILE
100
AcDbCircle
 10
-58.739283
 20
-12.569144
 30
0.0
 40
0.3
100
AcDbArc
 50
124.650709
 51
210.0
1001
ACAD
1000
R13OBJECT
1002
{
1005
DE
1002
}
  0
ARC
  5
66
100
AcDbEntity
  8
2D_PROFILE
100
AcDbCircle
 10
-60.843
 20
-9.5254
 30
0.0
 40
3.4
100
AcDbArc
 50
304.650709
 51
235.349291
1001
ACAD
1000
R13OBJECT
1002
{
1005
DE
1002
}
  0
ARC
  5
67
100
AcDbEntity
  8
2D_PROFILE
100
AcDbCircle
 10
-62.946717
 20
-12.569144
 30
0.0
 40
0.3
100
AcDbArc
 50
330.0
 51
55.349291
1001
ACAD
1000
R13OBJECT
1002
{
1005
DE
1002
}
  0
LINE
  5
68
100
AcDbEntity
  8
2D_PROFILE
100
AcDbLine
 10
-63.204208
 20
-13.615131
 30
0.0
 11
-62.686909
 21
-12.719144
 31
0.0
1001
ACAD
1000
R13OBJECT
1002
{
1005
DE
1002
}
  0
ARC
  5
69
100
AcDbEntity
  8
2D_PROFILE
100
AcDbCircle
 10
-64.070233
 20
-13.115131
 30
0.0
 40
1.0
100
AcDbArc
 50
251.480285
 51
330.0
1001
ACAD
1000
R13OBJECT
1002
{
1005
DE
1002
}
  0
ARC
  5
6A
100
AcDbEntity
  8
2D_PROFILE
100
AcDbCircle
 10
-66.286992
 20
-19.732757
 30
0.0
 40
5.979039
100
AcDbArc
 50
71.480285
 51
188.933135
1001
ACAD
1000
R13OBJECT
1002
{
1005
DE
1002
}
  0
ARC
  5
6B
100
AcDbEntity
  8
2D_PROFILE
100
AcDbCircle
 10
-71.205636
 20
-20.50591
 30
0.0
 40
1.0
100
AcDbArc
 50
188.933135
 51
225.0
1001
ACAD
1000
R13OBJECT
1002
{
1005
DE
1002
}
  0
LINE
  5
6C
100
AcDbEntity
  8
2D_PROFILE
100
AcDbLine
 10
-66.193253
 20
-26.932507
 30
0.0
 11
-71.912742
 21
-21.213017
 31
0.0
1001
ACAD
1000
R13OBJECT
1002
{
1005
DE
1002
}
  0
ARC
  5
6D
100
AcDbEntity
  8
2D_PROFILE
100
AcDbCircle
 10
-65.486146
 20
-26.2254
 30
0.0
 40
1.0
100
AcDbArc
 50
225.0
 51
270.0
1001
ACAD
1000
R13OBJECT
1002
{
1005
DE
1002
}
  0
LINE
  5
6E
100
AcDbEntity
  8
2D_PROFILE
100
AcDbLine
 10
-62.893
 20
-27.2254
 30
0.0
 11
-65.486146
 21
-27.2254
 31
0.0
1001
ACAD
1000
R13OBJECT
1002
{
1005
DE
1002
}
  0
ARC
  5
6F
100
AcDbEntity
  8
2D_PROFILE
100
AcDbCircle
 10
-62.893
 20
-26.4754
 30
0.0
 40
0.75
100
AcDbArc
 50
270.0
 51
0.0
1001
ACAD
1000
R13OBJECT
1002
{
1005
DE
1002
}
  0
LINE
  5
70
100
AcDbEntity
  8
2D_PROFILE
100
AcDbLine
 10
-62.143
 20
-25.7754
 30
0.0
 11
-62.143
 21
-26.4754
 31
0.0
1001
ACAD
1000
R13OBJECT
1002
{
1005
DE
1002
}
  0
ARC
  5
71
100
AcDbEntity
  8
2D_PROFILE
100
AcDbCircle
 10
-61.393
 20
-25.7754
 30
0.0
 40
0.75
100
AcDbArc
 50
90.0
 51
180.0
1001
ACAD
1000
R13OBJECT
1002
{
1005
DE
1002
}
  0
LINE
  5
72
100
AcDbEntity
  8
2D_PROFILE
100
AcDbLine
 10
-60.843
 20
-25.0254
 30
0.0
 11
-61.393
 21
-25.0254
 31
0.0
1001
ACAD
1000
R13OBJECT
1002
{
1005
DE
1002
}
  0
ARC
  5
73
100
AcDbEntity
  8
2D_PROFILE
100
AcDbCircle
 10
-60.843
 20
-26.0254
 30
0.0
 40
1.0
100
AcDbArc
 50
0.0
 51
90.0
1001
ACAD
1000
R13OBJECT
1002
{
1005
DE
1002
}
  0
LINE
  5
74
100
AcDbEntity
  8
2D_PROFILE
100
AcDbLine
 10
-59.843
 20
-28.5254
 30
0.0
 11
-59.843
 21
-26.0254
 31
0.0
1001
ACAD
1000
R13OBJECT
1002
{
1005
DE
1002
}
  0
ARC
  5
75
100
AcDbEntity
  8
2D_PROFILE
100
AcDbCircle
 10
-60.843
 20
-28.5254
 30
0.0
 40
1.0
100
AcDbArc
 50
270.0
 51
360.0
1001
ACAD
1000
R13OBJECT
1002
{
1005
DE
1002
}
  0
LINE
  5
76
100
AcDbEntity
  8
2D_PROFILE
100
AcDbLine
 10
-67.718736
 20
-29.5254
 30
0.0
 11
-60.843
 21
-29.5254
 31
0.0
1001
ACAD
1000
R13OBJECT
1002
{
1005
DE
1002
}
  0
ARC
  5
77
100
AcDbEntity
  8
2D_PROFILE
100
AcDbCircle
 10
-67.718736
 20
-29.2254
 30
0.0
 40
0.3
100
AcDbArc
 50
225.0
 51
270.0
1001
ACAD
1000
R13OBJECT
1002
{
1005
DE
1002
}
  0
LINE
  5
78
100
AcDbEntity
  8
2D_PROFILE
100
AcDbLine
 10
-75.755132
 20
-21.613268
 30
0.0
 11
-67.930868
 21
-29.437532
 31
0.0
1001
ACAD
1000
R13OBJECT
1002
{
1005
DE
1002
}
  0
ARC
  5
79
100
AcDbEntity
  8
2D_PROFILE
100
AcDbCircle
 10
-75.543
 20
-21.401136
 30
0.0
 40
0.3
100
AcDbArc
 50
180.0
 51
225.0
1001
ACAD
1000
R13OBJECT
1002
{
1005
DE
1002
}
  0
LINE
  5
7A
100
AcDbEntity
  8
2D_PROFILE
100
AcDbLine
 10
-75.843
 20
-13.8754
 30
0.0
 11
-75.843
 21
-21.401136
 31
0.0
1001
ACAD
1000
R13OBJECT
1002
{
1005
DE
1002
}
  0
ARC
  5
7B
100
AcDbEntity
  8
2D_PROFILE
100
AcDbCircle
 10
-75.543
 20
-13.8754
 30
0.0
 40
0.3
100
AcDbArc
 50
90.0
 51
180.0
1001
ACAD
1000
R13OBJECT
1002
{
1005
DE
1002
}
  0
LINE
  5
7C
100
AcDbEntity
  8
2D_PROFILE
100
AcDbLine
 10
-73.743
 20
-13.5754
 30
0.0
 11
-75.543
 21
-13.5754
 31
0.0
1001
ACAD
1000
R13OBJECT
1002
{
1005
DE
1002
}
  0
ARC
  5
7D
100
AcDbEntity
  8
2D_PROFILE
100
AcDbCircle
 10
-73.743
 20
-12.5754
 30
0.0
 40
1.0
100
AcDbArc
 50
270.0
 51
0.0
1001
ACAD
1000
R13OBJECT
1002
{
1005
DE
1002
}
  0
LINE
  5
7E
100
AcDbEntity
  8
2D_PROFILE
100
AcDbLine
 10
-72.743
 20
-6.4754
 30
0.0
 11
-72.743
 21
-12.5754
 31
0.0
1001
ACAD
1000
R13OBJECT
1002
{
1005
DE
1002
}
  0
ARC
  5
7F
100
AcDbEntity
  8
2D_PROFILE
100
AcDbCircle
 10
-73.743
 20
-6.4754
 30
0.0
 40
1.0
100
AcDbArc
 50
360.0
 51
90.0
1001
ACAD
1000
R13OBJECT
1002
{
1005
DE
1002
}
  0
LINE
  5
80
100
AcDbEntity
  8
2D_PROFILE
100
AcDbLine
 10
-75.543
 20
-5.4754
 30
0.0
 11
-73.743
 21
-5.4754
 31
0.0
1001
ACAD
1000
R13OBJECT
1002
{
1005
DE
1002
}
  0
ARC
  5
81
100
AcDbEntity
  8
2D_PROFILE
100
AcDbCircle
 10
-75.543
 20
-5.1754
 30
0.0
 40
0.3
100
AcDbArc
 50
180.0
 51
270.0
1001
ACAD
1000
R13OBJECT
1002
{
1005
DE
1002
}
  0
LINE
  5
82
100
AcDbEntity
  8
2D_PROFILE
100
AcDbLine
 10
-75.843
 20
7.000083
 30
0.0
 11
-75.843
 21
-5.1754
 31
0.0
1001
ACAD
1000
R13OBJECT
1002
{
1005
DE
1002
}
  0
LINE
  5
83
100
AcDbEntity
  8
2D_PROFILE
100
AcDbLine
 10
-74.072988
 20
8.770095
 30
0.0
 11
-75.843
 21
7.000083
 31
0.0
1001
ACAD
1000
R13OBJECT
1002
{
1005
DE
1002
}
  0
LINE
  5
84
100
AcDbEntity
  8
2D_PROFILE
100
AcDbLine
 10
-74.638674
 20
9.618623
 30
0.0
 11
-74.072988
 21
8.770095
 31
0.0
1001
ACAD
1000
R13OBJECT
1002
{
1005
DE
1002
}
  0
LINE
  5
85
100
AcDbEntity
  8
2D_PROFILE
100
AcDbLine
 10
-71.987023
 20
12.270274
 30
0.0
 11
-74.638674
 21
9.618623
 31
0.0
1001
ACAD
1000
R13OBJECT
1002
{
1005
DE
1002
}
  0
LINE
  5
86
100
AcDbEntity
  8
2D_PROFILE
100
AcDbLine
 10
-71.138495
 20
11.704588
 30
0.0
 11
-71.987023
 21
12.270274
 31
0.0
1001
ACAD
1000
R13OBJECT
1002
{
1005
DE
1002
}
  0
LINE
  5
87
100
AcDbEntity
  8
2D_PROFILE
100
AcDbLine
 10
-69.354854
 20
13.48823
 30
0.0
 11
-71.138495
 21
11.704588
 31
0.0
1001
ACAD
1000
R13OBJECT
1002
{
1005
DE
1002
}
  0
LINE
  5
88
100
AcDbEntity
  8
2D_PROFILE
100
AcDbLine
 10
-65.868471
 20
13.482647
 30
0.0
 11
-69.354854
 21
13.48823
 31
0.0
1001
ACAD
1000
R13OBJECT
1002
{
1005
DE
1002
}
  0
LINE
  5
89
100
AcDbEntity
  8
2D_PROFILE
100
AcDbLine
 10
-65.632949
 20
12.4746
 30
0.0
 11
-65.868471
 21
13.482647
 31
0.0
1001
ACAD
1000
R13OBJECT
1002
{
1005
DE
1002
}
  0
LINE
  5
8A
100
AcDbEntity
  8
2D_PROFILE
100
AcDbLine
 10
-62.918
 20
12.4746
 30
0.0
 11
-65.632949
 21
12.4746
 31
0.0
1001
ACAD
1000
R13OBJECT
1002
{
1005
DE
1002
}
  0
LINE
  5
8B
100
AcDbEntity
  8
2D_PROFILE
100
AcDbLine
 10
-62.718
 20
13.4746
 30
0.0
 11
-62.918
 21
12.4746
 31
0.0
1001
ACAD
1000
R13OBJECT
1002
{
1005
DE
1002
}
  0
LINE
  5
8C
100
AcDbEntity
  8
2D_PROFILE
100
AcDbLine
 10
-58.968
 20
13.4746
 30
0.0
 11
-62.718
 21
13.4746
 31
0.0
1001
ACAD
1000
R13OBJECT
1002
{
1005
DE
1002
}
  0
LINE
  5
8D
100
AcDbEntity
  8
2D_PROFILE
100
AcDbLine
 10
-58.768
 20
12.4746
 30
0.0
 11
-58.968
 21
13.4746
 31
0.0
1001
ACAD
1000
R13OBJECT
1002
{
1005
DE
1002
}
  0
LINE
  5
8E
100
AcDbEntity
  8
2D_PROFILE
100
AcDbLine
 10
-55.418
 20
12.4746
 30
0.0
 11
-58.768
 21
12.4746
 31
0.0
1001
ACAD
1000
R13OBJECT
1002
{
1005
DE
1002
}
  0
LINE
  5
8F
100
AcDbEntity
  8
2D_PROFILE
100
AcDbLine
 10
-55.218
 20
13.4746
 30
0.0
 11
-55.418
 21
12.4746
 31
0.0
1001
ACAD
1000
R13OBJECT
1002
{
1005
DE
1002
}
  0
LINE
  5
90
100
AcDbEntity
  8
2D_PROFILE
100
AcDbLine
 10
-51.468
 20
13.4746
 30
0.0
 11
-55.218
 21
13.4746
 31
0.0
1001
ACAD
1000
R13OBJECT
1002
{
1005
DE
1002
}
  0
LINE
  5
91
100
AcDbEntity
  8
2D_PROFILE
100
AcDbLine
 10
-51.268
 20
12.4746
 30
0.0
 11
-51.468
 21
13.4746
 31
0.0
1001
ACAD
1000
R13OBJECT
1002
{
1005
DE
1002
}
  0
LINE
  5
92
100
AcDbEntity
  8
2D_PROFILE
100
AcDbLine
 10
-47.918
 20
12.4746
 30
0.0
 11
-51.268
 21
12.4746
 31
0.0
1001
ACAD
1000
R13OBJECT
1002
{
1005
DE
1002
}
  0
LINE
  5
93
100
AcDbEntity
  8
2D_PROFILE
100
AcDbLine
 10
-47.718
 20
13.4746
 30
0.0
 11
-47.918
 21
12.4746
 31
0.0
1001
ACAD
1000
R13OBJECT
1002
{
1005
DE
1002
}
  0
LINE
  5
94
100
AcDbEntity
  8
2D_PROFILE
100
AcDbLine
 10
-43.968
 20
13.4746
 30
0.0
 11
-47.718
 21
13.4746
 31
0.0
1001
ACAD
1000
R13OBJECT
1002
{
1005
DE
1002
}
  0
LINE
  5
95
100
AcDbEntity
  8
2D_PROFILE
100
AcDbLine
 10
-43.768
 20
12.4746
 30
0.0
 11
-43.968
 21
13.4746
 31
0.0
1001
ACAD
1000
R13OBJECT
1002
{
1005
DE
1002
}
  0
LINE
  5
96
100
AcDbEntity
  8
2D_PROFILE
100
AcDbLine
 10
-40.418
 20
12.4746
 30
0.0
 11
-43.768
 21
12.4746
 31
0.0
1001
ACAD
1000
R13OBJECT
1002
{
1005
DE
1002
}
  0
LINE
  5
97
100
AcDbEntity
  8
2D_PROFILE
100
AcDbLine
 10
-40.218
 20
13.4746
 30
0.0
 11
-40.418
 21
12.4746
 31
0.0
1001
ACAD
1000
R13OBJECT
1002
{
1005
DE
1002
}
  0
LINE
  5
98
100
AcDbEntity
  8
2D_PROFILE
100
AcDbLine
 10
-36.468
 20
13.4746
 30
0.0
 11
-40.218
 21
13.4746
 31
0.0
1001
ACAD
1000
R13OBJECT
1002
{
1005
DE
1002
}
  0
LINE
  5
99
100
AcDbEntity
  8
2D_PROFILE
100
AcDbLine
 10
-36.268
 20
12.4746
 30
0.0
 11
-36.468
 21
13.4746
 31
0.0
1001
ACAD
1000
R13OBJECT
1002
{
1005
DE
1002
}
  0
LINE
  5
9A
100
AcDbEntity
  8
2D_PROFILE
100
AcDbLine
 10
-32.918
 20
12.4746
 30
0.0
 11
-36.268
 21
12.4746
 31
0.0
1001
ACAD
1000
R13OBJECT
1002
{
1005
DE
1002
}
  0
LINE
  5
9B
100
AcDbEntity
  8
2D_PROFILE
100
AcDbLine
 10
-32.718
 20
13.4746
 30
0.0
 11
-32.918
 21
12.4746
 31
0.0
1001
ACAD
1000
R13OBJECT
1002
{
1005
DE
1002
}
  0
LINE
  5
9C
100
AcDbEntity
  8
2D_PROFILE
100
AcDbLine
 10
-28.968
 20
13.4746
 30
0.0
 11
-32.718
 21
13.4746
 31
0.0
1001
ACAD
1000
R13OBJECT
1002
{
1005
DE
1002
}
  0
LINE
  5
9D
100
AcDbEntity
  8
2D_PROFILE
100
AcDbLine
 10
-28.768
 20
12.4746
 30
0.0
 11
-28.968
 21
13.4746
 31
0.0
1001
ACAD
1000
R13OBJECT
1002
{
1005
DE
1002
}
  0
LINE
  5
9E
100
AcDbEntity
  8
2D_PROFILE
100
AcDbLine
 10
-25.418
 20
12.4746
 30
0.0
 11
-28.768
 21
12.4746
 31
0.0
1001
ACAD
1000
R13OBJECT
1002
{
1005
DE
1002
}
  0
LINE
  5
9F
100
AcDbEntity
  8
2D_PROFILE
100
AcDbLine
 10
-25.218
 20
13.4746
 30
0.0
 11
-25.418
 21
12.4746
 31
0.0
1001
ACAD
1000
R13OBJECT
1002
{
1005
DE
1002
}
  0
LINE
  5
A0
100
AcDbEntity
  8
2D_PROFILE
100
AcDbLine
 10
-21.468
 20
13.4746
 30
0.0
 11
-25.218
 21
13.4746
 31
0.0
1001
ACAD
1000
R13OBJECT
1002
{
1005
DE
1002
}
  0
LINE
  5
A1
100
AcDbEntity
  8
2D_PROFILE
100
AcDbLine
 10
-21.268
 20
12.4746
 30
0.0
 11
-21.468
 21
13.4746
 31
0.0
1001
ACAD
1000
R13OBJECT
1002
{
1005
DE
1002
}
  0
LINE
  5
A2
100
AcDbEntity
  8
2D_PROFILE
100
AcDbLine
 10
-17.918
 20
12.4746
 30
0.0
 11
-21.268
 21
12.4746
 31
0.0
1001
ACAD
1000
R13OBJECT
1002
{
1005
DE
1002
}
  0
LINE
  5
A3
100
AcDbEntity
  8
2D_PROFILE
100
AcDbLine
 10
-17.718
 20
13.4746
 30
0.0
 11
-17.918
 21
12.4746
 31
0.0
1001
ACAD
1000
R13OBJECT
1002
{
1005
DE
1002
}
  0
LINE
  5
A4
100
AcDbEntity
  8
2D_PROFILE
100
AcDbLine
 10
-13.968
 20
13.4746
 30
0.0
 11
-17.718
 21
13.4746
 31
0.0
1001
ACAD
1000
R13OBJECT
1002
{
1005
DE
1002
}
  0
LINE
  5
A5
100
AcDbEntity
  8
2D_PROFILE
100
AcDbLine
 10
-13.768
 20
12.4746
 30
0.0
 11
-13.968
 21
13.4746
 31
0.0
1001
ACAD
1000
R13OBJECT
1002
{
1005
DE
1002
}
  0
LINE
  5
A6
100
AcDbEntity
  8
2D_PROFILE
100
AcDbLine
 10
-10.418
 20
12.4746
 30
0.0
 11
-13.768
 21
12.4746
 31
0.0
1001
ACAD
1000
R13OBJECT
1002
{
1005
DE
1002
}
  0
LINE
  5
A7
100
AcDbEntity
  8
2D_PROFILE
100
AcDbLine
 10
-10.218
 20
13.4746
 30
0.0
 11
-10.418
 21
12.4746
 31
0.0
1001
ACAD
1000
R13OBJECT
1002
{
1005
DE
1002
}
  0
LINE
  5
A8
100
AcDbEntity
  8
2D_PROFILE
100
AcDbLine
 10
-6.468
 20
13.4746
 30
0.0
 11
-10.218
 21
13.4746
 31
0.0
1001
ACAD
1000
R13OBJECT
1002
{
1005
DE
1002
}
  0
LINE
  5
A9
100
AcDbEntity
  8
2D_PROFILE
100
AcDbLine
 10
-6.268
 20
12.4746
 30
0.0
 11
-6.468
 21
13.4746
 31
0.0
1001
ACAD
1000
R13OBJECT
1002
{
1005
DE
1002
}
  0
LINE
  5
AA
100
AcDbEntity
  8
2D_PROFILE
100
AcDbLine
 10
-2.918
 20
12.4746
 30
0.0
 11
-6.268
 21
12.4746
 31
0.0
1001
ACAD
1000
R13OBJECT
1002
{
1005
DE
1002
}
  0
LINE
  5
AB
100
AcDbEntity
  8
2D_PROFILE
100
AcDbLine
 10
-2.718
 20
13.4746
 30
0.0
 11
-2.918
 21
12.4746
 31
0.0
1001
ACAD
1000
R13OBJECT
1002
{
1005
DE
1002
}
  0
LINE
  5
AC
100
AcDbEntity
  8
2D_PROFILE
100
AcDbLine
 10
1.032
 20
13.4746
 30
0.0
 11
-2.718
 21
13.4746
 31
0.0
1001
ACAD
1000
R13OBJECT
1002
{
1005
DE
1002
}
  0
LINE
  5
AD
100
AcDbEntity
  8
2D_PROFILE
100
AcDbLine
 10
1.232
 20
12.4746
 30
0.0
 11
1.032
 21
13.4746
 31
0.0
1001
ACAD
1000
R13OBJECT
1002
{
1005
DE
1002
}
  0
LINE
  5
AE
100
AcDbEntity
  8
2D_PROFILE
100
AcDbLine
 10
4.582
 20
12.4746
 30
0.0
 11
1.232
 21
12.4746
 31
0.0
1001
ACAD
1000
R13OBJECT
1002
{
1005
DE
1002
}
  0
LINE
  5
AF
100
AcDbEntity
  8
2D_PROFILE
100
AcDbLine
 10
4.782
 20
13.4746
 30
0.0
 11
4.582
 21
12.4746
 31
0.0
1001
ACAD
1000
R13OBJECT
1002
{
1005
DE
1002
}
  0
LINE
  5
B0
100
AcDbEntity
  8
2D_PROFILE
100
AcDbLine
 10
8.532
 20
13.4746
 30
0.0
 11
4.782
 21
13.4746
 31
0.0
1001
ACAD
1000
R13OBJECT
1002
{
1005
DE
1002
}
  0
LINE
  5
B1
100
AcDbEntity
  8
2D_PROFILE
100
AcDbLine
 10
8.732
 20
12.4746
 30
0.0
 11
8.532
 21
13.4746
 31
0.0
1001
ACAD
1000
R13OBJECT
1002
{
1005
DE
1002
}
  0
LINE
  5
B2
100
AcDbEntity
  8
2D_PROFILE
100
AcDbLine
 10
12.082
 20
12.4746
 30
0.0
 11
8.732
 21
12.4746
 31
0.0
1001
ACAD
1000
R13OBJECT
1002
{
1005
DE
1002
}
  0
LINE
  5
B3
100
AcDbEntity
  8
2D_PROFILE
100
AcDbLine
 10
12.282
 20
13.4746
 30
0.0
 11
12.082
 21
12.4746
 31
0.0
1001
ACAD
1000
R13OBJECT
1002
{
1005
DE
1002
}
  0
LINE
  5
B4
100
AcDbEntity
  8
2D_PROFILE
100
AcDbLine
 10
16.032
 20
13.4746
 30
0.0
 11
12.282
 21
13.4746
 31
0.0
1001
ACAD
1000
R13OBJECT
1002
{
1005
DE
1002
}
  0
LINE
  5
B5
100
AcDbEntity
  8
2D_PROFILE
100
AcDbLine
 10
16.232
 20
12.4746
 30
0.0
 11
16.032
 21
13.4746
 31
0.0
1001
ACAD
1000
R13OBJECT
1002
{
1005
DE
1002
}
  0
LINE
  5
B6
100
AcDbEntity
  8
2D_PROFILE
100
AcDbLine
 10
19.582
 20
12.4746
 30
0.0
 11
16.232
 21
12.4746
 31
0.0
1001
ACAD
1000
R13OBJECT
1002
{
1005
DE
1002
}
  0
LINE
  5
B7
100
AcDbEntity
  8
2D_PROFILE
100
AcDbLine
 10
19.782
 20
13.4746
 30
0.0
 11
19.582
 21
12.4746
 31
0.0
1001
ACAD
1000
R13OBJECT
1002
{
1005
DE
1002
}
  0
LINE
  5
B8
100
AcDbEntity
  8
2D_PROFILE
100
AcDbLine
 10
23.532
 20
13.4746
 30
0.0
 11
19.782
 21
13.4746
 31
0.0
1001
ACAD
1000
R13OBJECT
1002
{
1005
DE
1002
}
  0
LINE
  5
B9
100
AcDbEntity
  8
2D_PROFILE
100
AcDbLine
 10
23.732
 20
12.4746
 30
0.0
 11
23.532
 21
13.4746
 31
0.0
1001
ACAD
1000
R13OBJECT
1002
{
1005
DE
1002
}
  0
LINE
  5
BA
100
AcDbEntity
  8
2D_PROFILE
100
AcDbLine
 10
27.082
 20
12.4746
 30
0.0
 11
23.732
 21
12.4746
 31
0.0
1001
ACAD
1000
R13OBJECT
1002
{
1005
DE
1002
}
  0
LINE
  5
BB
100
AcDbEntity
  8
2D_PROFILE
100
AcDbLine
 10
27.282
 20
13.4746
 30
0.0
 11
27.082
 21
12.4746
 31
0.0
1001
ACAD
1000
R13OBJECT
1002
{
1005
DE
1002
}
  0
LINE
  5
BC
100
AcDbEntity
  8
2D_PROFILE
100
AcDbLine
 10
31.032
 20
13.4746
 30
0.0
 11
27.282
 21
13.4746
 31
0.0
1001
ACAD
1000
R13OBJECT
1002
{
1005
DE
1002
}
  0
LINE
  5
BD
100
AcDbEntity
  8
2D_PROFILE
100
AcDbLine
 10
31.232
 20
12.4746
 30
0.0
 11
31.032
 21
13.4746
 31
0.0
1001
ACAD
1000
R13OBJECT
1002
{
1005
DE
1002
}
  0
LINE
  5
BE
100
AcDbEntity
  8
2D_PROFILE
100
AcDbLine
 10
34.582
 20
12.4746
 30
0.0
 11
31.232
 21
12.4746
 31
0.0
1001
ACAD
1000
R13OBJECT
1002
{
1005
DE
1002
}
  0
LINE
  5
BF
100
AcDbEntity
  8
2D_PROFILE
100
AcDbLine
 10
34.782
 20
13.4746
 30
0.0
 11
34.582
 21
12.4746
 31
0.0
1001
ACAD
1000
R13OBJECT
1002
{
1005
DE
1002
}
  0
LINE
  5
C0
100
AcDbEntity
  8
2D_PROFILE
100
AcDbLine
 10
38.532
 20
13.4746
 30
0.0
 11
34.782
 21
13.4746
 31
0.0
1001
ACAD
1000
R13OBJECT
1002
{
1005
DE
1002
}
  0
LINE
  5
C1
100
AcDbEntity
  8
2D_PROFILE
100
AcDbLine
 10
38.732
 20
12.4746
 30
0.0
 11
38.532
 21
13.4746
 31
0.0
1001
ACAD
1000
R13OBJECT
1002
{
1005
DE
1002
}
  0
LINE
  5
C2
100
AcDbEntity
  8
2D_PROFILE
100
AcDbLine
 10
42.082
 20
12.4746
 30
0.0
 11
38.732
 21
12.4746
 31
0.0
1001
ACAD
1000
R13OBJECT
1002
{
1005
DE
1002
}
  0
LINE
  5
C3
100
AcDbEntity
  8
2D_PROFILE
100
AcDbLine
 10
42.282
 20
13.4746
 30
0.0
 11
42.082
 21
12.4746
 31
0.0
1001
ACAD
1000
R13OBJECT
1002
{
1005
DE
1002
}
  0
LINE
  5
C4
100
AcDbEntity
  8
2D_PROFILE
100
AcDbLine
 10
46.032
 20
13.4746
 30
0.0
 11
42.282
 21
13.4746
 31
0.0
1001
ACAD
1000
R13OBJECT
1002
{
1005
DE
1002
}
  0
LINE
  5
C5
100
AcDbEntity
  8
2D_PROFILE
100
AcDbLine
 10
46.232
 20
12.4746
 30
0.0
 11
46.032
 21
13.4746
 31
0.0
1001
ACAD
1000
R13OBJECT
1002
{
1005
DE
1002
}
  0
LINE
  5
C6
100
AcDbEntity
  8
2D_PROFILE
100
AcDbLine
 10
49.582
 20
12.4746
 30
0.0
 11
46.232
 21
12.4746
 31
0.0
1001
ACAD
1000
R13OBJECT
1002
{
1005
DE
1002
}
  0
LINE
  5
C7
100
AcDbEntity
  8
2D_PROFILE
100
AcDbLine
 10
49.782
 20
13.4746
 30
0.0
 11
49.582
 21
12.4746
 31
0.0
1001
ACAD
1000
R13OBJECT
1002
{
1005
DE
1002
}
  0
LINE
  5
C8
100
AcDbEntity
  8
2D_PROFILE
100
AcDbLine
 10
53.532
 20
13.4746
 30
0.0
 11
49.782
 21
13.4746
 31
0.0
1001
ACAD
1000
R13OBJECT
1002
{
1005
DE
1002
}
  0
LINE
  5
C9
100
AcDbEntity
  8
2D_PROFILE
100
AcDbLine
 10
53.732
 20
12.4746
 30
0.0
 11
53.532
 21
13.4746
 31
0.0
1001
ACAD
1000
R13OBJECT
1002
{
1005
DE
1002
}
  0
LINE
  5
CA
100
AcDbEntity
  8
2D_PROFILE
100
AcDbLine
 10
57.082
 20
12.4746
 30
0.0
 11
53.732
 21
12.4746
 31
0.0
1001
ACAD
1000
R13OBJECT
1002
{
1005
DE
1002
}
  0
LINE
  5
CB
100
AcDbEntity
  8
2D_PROFILE
100
AcDbLine
 10
57.282
 20
13.4746
 30
0.0
 11
57.082
 21
12.4746
 31
0.0
1001
ACAD
1000
R13OBJECT
1002
{
1005
DE
1002
}
  0
LINE
  5
CC
100
AcDbEntity
  8
2D_PROFILE
100
AcDbLine
 10
61.032
 20
13.4746
 30
0.0
 11
57.282
 21
13.4746
 31
0.0
1001
ACAD
1000
R13OBJECT
1002
{
1005
DE
1002
}
  0
LINE
  5
CD
100
AcDbEntity
  8
2D_PROFILE
100
AcDbLine
 10
61.232
 20
12.4746
 30
0.0
 11
61.032
 21
13.4746
 31
0.0
1001
ACAD
1000
R13OBJECT
1002
{
1005
DE
1002
}
  0
LINE
  5
CE
100
AcDbEntity
  8
2D_PROFILE
100
AcDbLine
 10
63.946949
 20
12.4746
 30
0.0
 11
61.232
 21
12.4746
 31
0.0
1001
ACAD
1000
R13OBJECT
1002
{
1005
DE
1002
}
  0
LINE
  5
CF
100
AcDbEntity
  8
2D_PROFILE
100
AcDbLine
 10
64.182471
 20
13.482647
 30
0.0
 11
63.946949
 21
12.4746
 31
0.0
1001
ACAD
1000
R13OBJECT
1002
{
1005
DE
1002
}
  0
LINE
  5
D0
100
AcDbEntity
  8
2D_PROFILE
100
AcDbLine
 10
67.668854
 20
13.48823
 30
0.0
 11
64.182471
 21
13.482647
 31
0.0
1001
ACAD
1000
R13OBJECT
1002
{
1005
DE
1002
}
  0
LINE
  5
D1
100
AcDbEntity
  8
2D_PROFILE
100
AcDbLine
 10
69.452495
 20
11.704588
 30
0.0
 11
67.668854
 21
13.48823
 31
0.0
1001
ACAD
1000
R13OBJECT
1002
{
1005
DE
1002
}
  0
LINE
  5
D2
100
AcDbEntity
  8
2D_PROFILE
100
AcDbLine
 10
70.301023
 20
12.270274
 30
0.0
 11
69.452495
 21
11.704588
 31
0.0
1001
ACAD
1000
R13OBJECT
1002
{
1005
DE
1002
}
  0
LINE
  5
D3
100
AcDbEntity
  8
2D_PROFILE
100
AcDbLine
 10
72.952674
 20
9.618623
 30
0.0
 11
70.301023
 21
12.270274
 31
0.0
1001
ACAD
1000
R13OBJECT
1002
{
1005
DE
1002
}
  0
LINE
  5
D4
100
AcDbEntity
  8
2D_PROFILE
100
AcDbLine
 10
72.386988
 20
8.770095
 30
0.0
 11
72.952674
 21
9.618623
 31
0.0
1001
ACAD
1000
R13OBJECT
1002
{
1005
DE
1002
}
  0
LINE
  5
D5
100
AcDbEntity
  8
2D_PROFILE
100
AcDbLine
 10
74.157
 20
7.000083
 30
0.0
 11
72.386988
 21
8.770095
 31
0.0
1001
ACAD
1000
R13OBJECT
1002
{
1005
DE
1002
}
  0
LINE
  5
D6
100
AcDbEntity
  8
2D_PROFILE
100
AcDbLine
 10
74.157
 20
-5.2254
 30
0.0
 11
74.157
 21
7.000083
 31
0.0
1001
ACAD
1000
R13OBJECT
1002
{
1005
DE
1002
}
  0
ARC
  5
D7
100
AcDbEntity
  8
2D_PROFILE
100
AcDbCircle
 10
74.457
 20
-5.2254
 30
0.0
 40
0.3
100
AcDbArc
 50
180.0
 51
270.0
1001
ACAD
1000
R13OBJECT
1002
{
1005
DE
1002
}
  0
LINE
  5
D8
100
AcDbEntity
  8
2D_PROFILE
100
AcDbLine
 10
76.157
 20
-5.5254
 30
0.0
 11
74.457
 21
-5.5254
 31
0.0
1001
ACAD
1000
R13OBJECT
1002
{
1005
DE
1002
}
  0
ARC
  5
D9
100
AcDbEntity
  8
2D_PROFILE
100
AcDbCircle
 10
76.157
 20
-6.5254
 30
0.0
 40
1.0
100
AcDbArc
 50
360.0
 51
90.0
1001
ACAD
1000
R13OBJECT
1002
{
1005
DE
1002
}
  0
LINE
  5
DA
100
AcDbEntity
  8
2D_PROFILE
100
AcDbLine
 10
77.157
 20
-6.5254
 30
0.0
 11
77.157
 21
-12.5254
 31
0.0
1001
ACAD
1000
R13OBJECT
1002
{
1005
DE
1002
}
  0
ARC
  5
DB
100
AcDbEntity
  8
2D_PROFILE
100
AcDbCircle
 10
76.157
 20
-12.5254
 30
0.0
 40
1.0
100
AcDbArc
 50
270.0
 51
360.0
1001
ACAD
1000
R13OBJECT
1002
{
1005
DE
1002
}
  0
LINE
  5
DC
100
AcDbEntity
  8
2D_PROFILE
100
AcDbLine
 10
74.457
 20
-13.5254
 30
0.0
 11
76.157
 21
-13.5254
 31
0.0
1001
ACAD
1000
R13OBJECT
1002
{
1005
DE
1002
}
  0
ARC
  5
DD
100
AcDbEntity
  8
2D_PROFILE
100
AcDbCircle
 10
74.457
 20
-13.8254
 30
0.0
 40
0.3
100
AcDbArc
 50
90.0
 51
180.0
1001
ACAD
1000
R13OBJECT
1002
{
1005
DE
1002
}
  0
LINE
  5
DE
100
AcDbEntity
  8
2D_PROFILE
100
AcDbLine
 10
74.157
 20
-21.5254
 30
0.0
 11
74.157
 21
-13.8254
 31
0.0
  0
ENDSEC
  0
SECTION
  2
OBJECTS
  0
DICTIONARY
  5
1A
100
AcDbDictionary
  3
ACAD_GROUP
350
18
  3
ACAD_MLINESTYLE
350
19
  0
DICTIONARY
  5
18
102
{ACAD_REACTORS
330
1A
102
}
100
AcDbDictionary
  0
DICTIONARY
  5
19
102
{ACAD_REACTORS
330
1A
102
}
100
AcDbDictionary
  3
STANDARD
350
1C
  0
MLINESTYLE
  5
1C
102
{ACAD_REACTORS
330
19
102
}
100
AcDbMlineStyle
  2
STANDARD
 70
     0
  3

 62
   256
 51
90.0
 52
90.0
 71
     2
 49
0.5
 62
   256
  6
BYLAYER
 49
-0.5
 62
   256
  6
BYLAYER
  0
ENDSEC
  0
EOF
