ISO-10303-21;
HEADER;
/****************************************************************
 * Generated by software with PDElib inside                    *
 * PDElib Version v51a, created Wed 07/06/2011                  *
 * ITI Transcendata (http://www.transcendata.com/)              *
 ****************************************************************/
FILE_DESCRIPTION((''),'2;1');
FILE_NAME('U:\\Paletti Norm\\Paletti Artikel\\SZ\\SZ1903S_A.stp','2013-08-29T13:43:30',('janine behrens'),(''),'Autodesk Inventor 2012','Autodesk Inventor 2012','');
FILE_SCHEMA(('AUTOMOTIVE_DESIGN { 1 0 10303 214 1 1 1 1 }'));
ENDSEC;
DATA;
#5=APPLICATION_CONTEXT('automotive design');
#6=APPLICATION_PROTOCOL_DEFINITION('International Standard','automotive_design',2001,#5);
#7=PRODUCT_CONTEXT('',#5,'mechanical');
#8=PRODUCT('SZ1903S_A','SZ1903S_A',$,(#7));
#9=PRODUCT_RELATED_PRODUCT_CATEGORY('part',$,(#8));
#10=PRODUCT_DEFINITION_FORMATION('',$,#8);
#11=PRODUCT_DEFINITION_CONTEXT('part definition',#5,'design');
#12=PRODUCT_DEFINITION('',$,#10,#11);
#18=(NAMED_UNIT(*)PLANE_ANGLE_UNIT()SI_UNIT($,.RADIAN.));
#19=DIMENSIONAL_EXPONENTS(0.0,0.0,0.0,0.0,0.0,0.0,0.0);
#20=PLANE_ANGLE_MEASURE_WITH_UNIT(PLANE_ANGLE_MEASURE(0.0174532925),#18);
#24=(CONVERSION_BASED_UNIT('DEGREE',#20)NAMED_UNIT(#19)PLANE_ANGLE_UNIT());
#28=(NAMED_UNIT(*)SI_UNIT($,.STERADIAN.)SOLID_ANGLE_UNIT());
#32=(LENGTH_UNIT()NAMED_UNIT(*)SI_UNIT(.MILLI.,.METRE.));
#34=UNCERTAINTY_MEASURE_WITH_UNIT(LENGTH_MEASURE(0.01),#32,'DISTANCE_ACCURACY_VALUE','');
#36=(GEOMETRIC_REPRESENTATION_CONTEXT(3)GLOBAL_UNCERTAINTY_ASSIGNED_CONTEXT((#34))GLOBAL_UNIT_ASSIGNED_CONTEXT((#24,#28,#32))REPRESENTATION_CONTEXT('None','None'));
#37=AXIS2_PLACEMENT_3D('',#38,#39,#40);
#38=CARTESIAN_POINT('',(0.0,0.0,0.0));
#39=DIRECTION('',(0.0,0.0,1.0));
#40=DIRECTION('',(1.0,0.0,0.0));
#41=SHAPE_REPRESENTATION('',(#37),#36);
#42=PRODUCT_DEFINITION_SHAPE('','',#12);
#43=SHAPE_DEFINITION_REPRESENTATION(#42,#41);
#49=(NAMED_UNIT(*)PLANE_ANGLE_UNIT()SI_UNIT($,.RADIAN.));
#50=DIMENSIONAL_EXPONENTS(0.0,0.0,0.0,0.0,0.0,0.0,0.0);
#51=PLANE_ANGLE_MEASURE_WITH_UNIT(PLANE_ANGLE_MEASURE(0.0174532925),#49);
#55=(CONVERSION_BASED_UNIT('DEGREE',#51)NAMED_UNIT(#50)PLANE_ANGLE_UNIT());
#59=(NAMED_UNIT(*)SI_UNIT($,.STERADIAN.)SOLID_ANGLE_UNIT());
#63=(LENGTH_UNIT()NAMED_UNIT(*)SI_UNIT(.MILLI.,.METRE.));
#65=UNCERTAINTY_MEASURE_WITH_UNIT(LENGTH_MEASURE(0.000001),#63,'DISTANCE_ACCURACY_VALUE','');
#67=(GEOMETRIC_REPRESENTATION_CONTEXT(3)GLOBAL_UNCERTAINTY_ASSIGNED_CONTEXT((#65))GLOBAL_UNIT_ASSIGNED_CONTEXT((#55,#59,#63))REPRESENTATION_CONTEXT('','3D'));
#68=CARTESIAN_POINT('',(0.453938782225585,100.0,0.325993835970117));
#69=DIRECTION('',(0.0,1.0,0.0));
#70=DIRECTION('',(0.0,0.0,1.0));
#71=AXIS2_PLACEMENT_3D('',#68,#69,#70);
#72=PLANE('',#71);
#73=CARTESIAN_POINT('',(2.904740292100445,100.0,-0.611443843137443));
#74=VERTEX_POINT('',#73);
#75=CARTESIAN_POINT('',(3.377957291316907,100.0,-0.401653989201969));
#76=VERTEX_POINT('',#75);
#77=CARTESIAN_POINT('',(2.904740292100445,100.0,-0.611443843137443));
#78=DIRECTION('',(0.914190298324158,0.0,0.405285206305371));
#79=VECTOR('',#78,0.517635113918772);
#80=LINE('',#77,#79);
#81=EDGE_CURVE('',#74,#76,#80,.T.);
#82=ORIENTED_EDGE('',*,*,#81,.F.);
#83=CARTESIAN_POINT('',(2.84394751115464,100.0,-0.62431529838882));
#84=VERTEX_POINT('',#83);
#85=CARTESIAN_POINT('',(2.843947511154639,100.0,-0.474315298388815));
#86=DIRECTION('',(0.0,-1.0,0.0));
#87=DIRECTION('',(0.0,0.0,-1.0));
#88=AXIS2_PLACEMENT_3D('',#85,#86,#87);
#89=CIRCLE('',#88,0.150000000000004);
#90=EDGE_CURVE('',#84,#74,#89,.T.);
#91=ORIENTED_EDGE('',*,*,#90,.F.);
#92=CARTESIAN_POINT('',(0.670636623959313,100.0,-0.624315298388825));
#93=VERTEX_POINT('',#92);
#94=CARTESIAN_POINT('',(0.670636623959313,100.0,-0.624315298388825));
#95=DIRECTION('',(1.0,0.0,0.0));
#96=VECTOR('',#95,2.173310887195328);
#97=LINE('',#94,#96);
#98=EDGE_CURVE('',#93,#84,#97,.T.);
#99=ORIENTED_EDGE('',*,*,#98,.F.);
#100=CARTESIAN_POINT('',(0.602805200121838,100.0,-0.608102061337105));
#101=VERTEX_POINT('',#100);
#102=CARTESIAN_POINT('',(0.670636623959316,100.0,-0.474315298388807));
#103=DIRECTION('',(-1.816266E-016,-1.0,-3.582299E-016));
#104=DIRECTION('',(-0.452209492249817,4.016427E-016,-0.891911752988581));
#105=AXIS2_PLACEMENT_3D('',#102,#103,#104);
#106=CIRCLE('',#105,0.150000000000013);
#107=EDGE_CURVE('',#101,#93,#106,.T.);
#108=ORIENTED_EDGE('',*,*,#107,.F.);
#109=CARTESIAN_POINT('',(0.209577269021695,100.0,-0.408730988509095));
#110=VERTEX_POINT('',#109);
#111=CARTESIAN_POINT('',(0.209577269021695,100.0,-0.408730988509095));
#112=DIRECTION('',(0.891911752988577,0.0,-0.452209492249824));
#113=VECTOR('',#112,0.440882104964457);
#114=LINE('',#111,#113);
#115=EDGE_CURVE('',#110,#101,#114,.T.);
#116=ORIENTED_EDGE('',*,*,#115,.F.);
#117=CARTESIAN_POINT('',(0.015978543771139,100.0,-0.62426483639178));
#118=VERTEX_POINT('',#117);
#119=CARTESIAN_POINT('',(0.14174584518422,100.0,-0.542517751457384));
#120=DIRECTION('',(1.816266E-016,1.0,3.582299E-016));
#121=DIRECTION('',(-0.452209492249826,4.016427E-016,-0.891911752988576));
#122=AXIS2_PLACEMENT_3D('',#119,#120,#121);
#123=CIRCLE('',#122,0.15);
#124=EDGE_CURVE('',#118,#110,#123,.T.);
#125=ORIENTED_EDGE('',*,*,#124,.F.);
#126=CARTESIAN_POINT('',(1.85776429096187,100.0,-3.457838943543847));
#127=VERTEX_POINT('',#126);
#128=CARTESIAN_POINT('',(1.85776429096187,100.0,-3.457838943543847));
#129=DIRECTION('',(-0.544980566229285,0.0,0.838448676087218));
#130=VECTOR('',#129,3.379543898113702);
#131=LINE('',#128,#130);
#132=EDGE_CURVE('',#127,#118,#131,.T.);
#133=ORIENTED_EDGE('',*,*,#132,.F.);
#134=CARTESIAN_POINT('',(1.432033874712301,100.0,-3.865578519890942));
#135=VERTEX_POINT('',#134);
#136=CARTESIAN_POINT('',(1.606229688135714,100.0,-3.62133311341263));
#137=DIRECTION('',(-2.994561E-016,-1.0,-4.198767E-016));
#138=DIRECTION('',(-0.580652711411379,5.157232E-016,-0.814151354927703));
#139=AXIS2_PLACEMENT_3D('',#136,#137,#138);
#140=CIRCLE('',#139,0.3);
#141=EDGE_CURVE('',#135,#127,#140,.T.);
#142=ORIENTED_EDGE('',*,*,#141,.F.);
#143=CARTESIAN_POINT('',(-6.384688503516721,100.0,3.430749380927343));
#144=VERTEX_POINT('',#143);
#145=CARTESIAN_POINT('',(25.117276602162484,99.999999999999986,29.344242220423446));
#146=DIRECTION('',(-5.297278E-016,-1.0,-4.357537E-016));
#147=DIRECTION('',(-0.772282626101073,6.859248E-016,-0.635279108284249));
#148=AXIS2_PLACEMENT_3D('',#145,#146,#147);
#149=CIRCLE('',#148,40.790720962763679);
#150=EDGE_CURVE('',#144,#135,#149,.T.);
#151=ORIENTED_EDGE('',*,*,#150,.F.);
#152=CARTESIAN_POINT('',(-6.0010383251872,100.0,3.879996060296063));
#153=VERTEX_POINT('',#152);
#154=CARTESIAN_POINT('',(-6.15300371568642,100.0,3.621333113412608));
#155=DIRECTION('',(-2.279014E-016,-1.0,-3.879150E-016));
#156=DIRECTION('',(0.506551301664027,-4.499079E-016,0.862209822944786));
#157=AXIS2_PLACEMENT_3D('',#154,#155,#156);
#158=CIRCLE('',#157,0.3);
#159=EDGE_CURVE('',#153,#144,#158,.T.);
#160=ORIENTED_EDGE('',*,*,#159,.F.);
#161=CARTESIAN_POINT('',(5.80330887085553,100.0,2.533658594488776));
#162=VERTEX_POINT('',#161);
#163=CARTESIAN_POINT('',(1.418248572741212,100.0,16.508493947134859));
#164=DIRECTION('',(2.279014E-016,1.0,3.879150E-016));
#165=DIRECTION('',(0.506551301664017,-4.499079E-016,0.862209822944793));
#166=AXIS2_PLACEMENT_3D('',#163,#164,#165);
#167=CIRCLE('',#166,14.646664362634407);
#168=EDGE_CURVE('',#162,#153,#167,.T.);
#169=ORIENTED_EDGE('',*,*,#168,.F.);
#170=CARTESIAN_POINT('',(6.444391100530026,100.0,1.964189465319224));
#171=VERTEX_POINT('',#170);
#172=CARTESIAN_POINT('',(5.953003715686583,100.0,2.056593134168079));
#173=DIRECTION('',(-8.578438E-016,-1.0,1.613145E-016));
#174=DIRECTION('',(0.982774769686873,-8.728793E-016,-0.184807337697707));
#175=AXIS2_PLACEMENT_3D('',#172,#173,#174);
#176=CIRCLE('',#175,0.5);
#177=EDGE_CURVE('',#171,#162,#176,.T.);
#178=ORIENTED_EDGE('',*,*,#177,.F.);
#179=CARTESIAN_POINT('',(3.692535257178853,100.0,-2.290958425323277));
#180=VERTEX_POINT('',#179);
#181=CARTESIAN_POINT('',(-0.134264018146338,100.0,3.201282414399802));
#182=DIRECTION('',(-2.902721E-016,-1.0,4.166000E-016));
#183=DIRECTION('',(0.571679425140972,-5.077533E-016,-0.820477077602103));
#184=AXIS2_PLACEMENT_3D('',#181,#182,#183);
#185=CIRCLE('',#184,6.693960123510708);
#186=EDGE_CURVE('',#180,#171,#185,.T.);
#187=ORIENTED_EDGE('',*,*,#186,.F.);
#188=CARTESIAN_POINT('',(2.952589033935501,100.0,-1.642548998149594));
#189=VERTEX_POINT('',#188);
#190=CARTESIAN_POINT('',(3.381551071542008,100.0,-1.89943724290298));
#191=DIRECTION('',(-6.537293E-016,-1.0,3.914924E-016));
#192=DIRECTION('',(-0.857924075213011,7.619896E-016,0.513776489506771));
#193=AXIS2_PLACEMENT_3D('',#190,#191,#192);
#194=CIRCLE('',#193,0.5);
#195=EDGE_CURVE('',#189,#180,#194,.T.);
#196=ORIENTED_EDGE('',*,*,#195,.F.);
#197=CARTESIAN_POINT('',(3.567438683544663,100.0,-0.615849007376609));
#198=VERTEX_POINT('',#197);
#199=CARTESIAN_POINT('',(3.567438683544663,100.0,-0.615849007376609));
#200=DIRECTION('',(-0.513776489506775,0.0,-0.857924075213008));
#201=VECTOR('',#200,1.196725934655782);
#202=LINE('',#199,#201);
#203=EDGE_CURVE('',#198,#189,#202,.T.);
#204=ORIENTED_EDGE('',*,*,#203,.F.);
#205=CARTESIAN_POINT('',(3.438750072262712,100.0,-0.538782533950593));
#206=DIRECTION('',(6.537293E-016,1.0,-3.914924E-016));
#207=DIRECTION('',(-0.857924075213006,7.619896E-016,0.513776489506778));
#208=AXIS2_PLACEMENT_3D('',#205,#206,#207);
#209=CIRCLE('',#208,0.15);
#210=EDGE_CURVE('',#76,#198,#209,.T.);
#211=ORIENTED_EDGE('',*,*,#210,.F.);
#212=EDGE_LOOP('',(#82,#91,#99,#108,#116,#125,#133,#142,#151,#160,#169,#178,#187,#196,#204,#211));
#213=FACE_OUTER_BOUND('',#212,.T.);
#214=ADVANCED_FACE('',(#213),#72,.T.);
#215=CARTESIAN_POINT('',(2.843947511154596,50.000000000000007,-0.62431529838882));
#216=DIRECTION('',(0.0,0.0,-1.0));
#217=DIRECTION('',(-1.0,0.0,0.0));
#218=AXIS2_PLACEMENT_3D('',#215,#216,#217);
#219=PLANE('',#218);
#220=CARTESIAN_POINT('',(2.843947511154552,8.881784E-015,-0.62431529838882));
#221=VERTEX_POINT('',#220);
#222=CARTESIAN_POINT('',(0.670636623959224,8.881784E-015,-0.624315298388825));
#223=VERTEX_POINT('',#222);
#224=CARTESIAN_POINT('',(2.843947511154552,6.951496E-015,-0.62431529838882));
#225=DIRECTION('',(-1.0,0.0,0.0));
#226=VECTOR('',#225,2.173310887195328);
#227=LINE('',#224,#226);
#228=EDGE_CURVE('',#221,#223,#227,.T.);
#229=ORIENTED_EDGE('',*,*,#228,.T.);
#230=CARTESIAN_POINT('',(0.670636623959313,100.0,-0.624315298388825));
#231=DIRECTION('',(0.0,-1.0,0.0));
#232=VECTOR('',#231,100.0);
#233=LINE('',#230,#232);
#234=EDGE_CURVE('',#93,#223,#233,.T.);
#235=ORIENTED_EDGE('',*,*,#234,.F.);
#236=ORIENTED_EDGE('',*,*,#98,.T.);
#237=CARTESIAN_POINT('',(2.843947511154552,7.105427E-015,-0.62431529838882));
#238=DIRECTION('',(0.0,1.0,0.0));
#239=VECTOR('',#238,100.0);
#240=LINE('',#237,#239);
#241=EDGE_CURVE('',#221,#84,#240,.T.);
#242=ORIENTED_EDGE('',*,*,#241,.F.);
#243=EDGE_LOOP('',(#229,#235,#236,#242));
#244=FACE_OUTER_BOUND('',#243,.T.);
#245=ADVANCED_FACE('',(#244),#219,.T.);
#246=CARTESIAN_POINT('',(0.670636623959272,50.000000000000007,-0.474315298388807));
#247=DIRECTION('',(-8.881784E-016,-1.0,0.0));
#248=DIRECTION('',(-0.452209492249817,4.016427E-016,-0.891911752988581));
#249=AXIS2_PLACEMENT_3D('',#246,#247,#248);
#250=CYLINDRICAL_SURFACE('',#249,0.150000000000013);
#251=CARTESIAN_POINT('',(0.602805200121749,8.881784E-015,-0.608102061337105));
#252=VERTEX_POINT('',#251);
#253=CARTESIAN_POINT('',(0.670636623959227,8.881784E-015,-0.474315298388807));
#254=DIRECTION('',(1.816266E-016,1.0,3.582299E-016));
#255=DIRECTION('',(-0.452209492249817,4.016427E-016,-0.891911752988581));
#256=AXIS2_PLACEMENT_3D('',#253,#254,#255);
#257=CIRCLE('',#256,0.150000000000013);
#258=EDGE_CURVE('',#223,#252,#257,.T.);
#259=ORIENTED_EDGE('',*,*,#258,.T.);
#260=CARTESIAN_POINT('',(0.602805200121838,100.0,-0.608102061337105));
#261=DIRECTION('',(0.0,-1.0,0.0));
#262=VECTOR('',#261,100.0);
#263=LINE('',#260,#262);
#264=EDGE_CURVE('',#101,#252,#263,.T.);
#265=ORIENTED_EDGE('',*,*,#264,.F.);
#266=ORIENTED_EDGE('',*,*,#107,.T.);
#267=ORIENTED_EDGE('',*,*,#234,.T.);
#268=EDGE_LOOP('',(#259,#265,#266,#267));
#269=FACE_OUTER_BOUND('',#268,.T.);
#270=ADVANCED_FACE('',(#269),#250,.T.);
#271=CARTESIAN_POINT('',(0.602805200121793,50.000000000000007,-0.608102061337105));
#272=DIRECTION('',(-0.452209492249824,4.016427E-016,-0.891911752988577));
#273=DIRECTION('',(-0.891911752988577,0.0,0.452209492249824));
#274=AXIS2_PLACEMENT_3D('',#271,#272,#273);
#275=PLANE('',#274);
#276=CARTESIAN_POINT('',(0.209577269021606,8.881784E-015,-0.408730988509095));
#277=VERTEX_POINT('',#276);
#278=CARTESIAN_POINT('',(0.602805200121749,8.532528E-015,-0.608102061337105));
#279=DIRECTION('',(-0.891911752988577,7.921768E-016,0.452209492249824));
#280=VECTOR('',#279,0.440882104964457);
#281=LINE('',#278,#280);
#282=EDGE_CURVE('',#252,#277,#281,.T.);
#283=ORIENTED_EDGE('',*,*,#282,.T.);
#284=CARTESIAN_POINT('',(0.209577269021695,100.0,-0.408730988509095));
#285=DIRECTION('',(0.0,-1.0,0.0));
#286=VECTOR('',#285,100.0);
#287=LINE('',#284,#286);
#288=EDGE_CURVE('',#110,#277,#287,.T.);
#289=ORIENTED_EDGE('',*,*,#288,.F.);
#290=ORIENTED_EDGE('',*,*,#115,.T.);
#291=ORIENTED_EDGE('',*,*,#264,.T.);
#292=EDGE_LOOP('',(#283,#289,#290,#291));
#293=FACE_OUTER_BOUND('',#292,.T.);
#294=ADVANCED_FACE('',(#293),#275,.T.);
#295=CARTESIAN_POINT('',(0.141745845184175,50.000000000000007,-0.542517751457384));
#296=DIRECTION('',(-8.881784E-016,-1.0,0.0));
#297=DIRECTION('',(-0.452209492249826,4.016427E-016,-0.891911752988576));
#298=AXIS2_PLACEMENT_3D('',#295,#296,#297);
#299=CYLINDRICAL_SURFACE('',#298,0.15);
#300=CARTESIAN_POINT('',(0.01597854377105,8.881784E-015,-0.62426483639178));
#301=VERTEX_POINT('',#300);
#302=CARTESIAN_POINT('',(0.141745845184131,8.881784E-015,-0.542517751457384));
#303=DIRECTION('',(-1.816266E-016,-1.0,-3.582299E-016));
#304=DIRECTION('',(-0.452209492249826,4.016427E-016,-0.891911752988576));
#305=AXIS2_PLACEMENT_3D('',#302,#303,#304);
#306=CIRCLE('',#305,0.15);
#307=EDGE_CURVE('',#277,#301,#306,.T.);
#308=ORIENTED_EDGE('',*,*,#307,.T.);
#309=CARTESIAN_POINT('',(0.015978543771139,100.0,-0.62426483639178));
#310=DIRECTION('',(0.0,-1.0,0.0));
#311=VECTOR('',#310,100.0);
#312=LINE('',#309,#311);
#313=EDGE_CURVE('',#118,#301,#312,.T.);
#314=ORIENTED_EDGE('',*,*,#313,.F.);
#315=ORIENTED_EDGE('',*,*,#124,.T.);
#316=ORIENTED_EDGE('',*,*,#288,.T.);
#317=EDGE_LOOP('',(#308,#314,#315,#316));
#318=FACE_OUTER_BOUND('',#317,.T.);
#319=ADVANCED_FACE('',(#318),#299,.F.);
#320=CARTESIAN_POINT('',(0.015978543771095,50.000000000000007,-0.62426483639178));
#321=DIRECTION('',(0.838448676087218,-7.446920E-016,0.544980566229285));
#322=DIRECTION('',(0.544980566229285,0.0,-0.838448676087218));
#323=AXIS2_PLACEMENT_3D('',#320,#321,#322);
#324=PLANE('',#323);
#325=CARTESIAN_POINT('',(1.857764290961781,8.881784E-015,-3.457838943543847));
#326=VERTEX_POINT('',#325);
#327=CARTESIAN_POINT('',(0.01597854377105,1.051762E-014,-0.62426483639178));
#328=DIRECTION('',(0.544980566229285,-4.840400E-016,-0.838448676087218));
#329=VECTOR('',#328,3.379543898113702);
#330=LINE('',#327,#329);
#331=EDGE_CURVE('',#301,#326,#330,.T.);
#332=ORIENTED_EDGE('',*,*,#331,.T.);
#333=CARTESIAN_POINT('',(1.85776429096187,100.0,-3.457838943543847));
#334=DIRECTION('',(0.0,-1.0,0.0));
#335=VECTOR('',#334,100.0);
#336=LINE('',#333,#335);
#337=EDGE_CURVE('',#127,#326,#336,.T.);
#338=ORIENTED_EDGE('',*,*,#337,.F.);
#339=ORIENTED_EDGE('',*,*,#132,.T.);
#340=ORIENTED_EDGE('',*,*,#313,.T.);
#341=EDGE_LOOP('',(#332,#338,#339,#340));
#342=FACE_OUTER_BOUND('',#341,.T.);
#343=ADVANCED_FACE('',(#342),#324,.T.);
#344=CARTESIAN_POINT('',(1.60622968813567,50.000000000000007,-3.62133311341263));
#345=DIRECTION('',(-8.881784E-016,-1.0,0.0));
#346=DIRECTION('',(-0.580652711411379,5.157232E-016,-0.814151354927703));
#347=AXIS2_PLACEMENT_3D('',#344,#345,#346);
#348=CYLINDRICAL_SURFACE('',#347,0.3);
#349=CARTESIAN_POINT('',(1.432033874712212,8.881784E-015,-3.865578519890942));
#350=VERTEX_POINT('',#349);
#351=CARTESIAN_POINT('',(1.606229688135626,8.881784E-015,-3.62133311341263));
#352=DIRECTION('',(2.994561E-016,1.0,4.198767E-016));
#353=DIRECTION('',(-0.580652711411379,5.157232E-016,-0.814151354927703));
#354=AXIS2_PLACEMENT_3D('',#351,#352,#353);
#355=CIRCLE('',#354,0.3);
#356=EDGE_CURVE('',#326,#350,#355,.T.);
#357=ORIENTED_EDGE('',*,*,#356,.T.);
#358=CARTESIAN_POINT('',(1.432033874712301,100.0,-3.865578519890942));
#359=DIRECTION('',(0.0,-1.0,0.0));
#360=VECTOR('',#359,100.0);
#361=LINE('',#358,#360);
#362=EDGE_CURVE('',#135,#350,#361,.T.);
#363=ORIENTED_EDGE('',*,*,#362,.F.);
#364=ORIENTED_EDGE('',*,*,#141,.T.);
#365=ORIENTED_EDGE('',*,*,#337,.T.);
#366=EDGE_LOOP('',(#357,#363,#364,#365));
#367=FACE_OUTER_BOUND('',#366,.T.);
#368=ADVANCED_FACE('',(#367),#348,.T.);
#369=CARTESIAN_POINT('',(25.117276602162441,49.999999999999993,29.344242220423446));
#370=DIRECTION('',(-8.881784E-016,-1.0,0.0));
#371=DIRECTION('',(-0.772282626101073,6.859248E-016,-0.635279108284249));
#372=AXIS2_PLACEMENT_3D('',#369,#370,#371);
#373=CYLINDRICAL_SURFACE('',#372,40.790720962763679);
#374=CARTESIAN_POINT('',(-6.384688503516809,1.776357E-014,3.430749380927343));
#375=VERTEX_POINT('',#374);
#376=CARTESIAN_POINT('',(25.117276602162395,-8.881784E-015,29.344242220423446));
#377=DIRECTION('',(5.297278E-016,1.0,4.357537E-016));
#378=DIRECTION('',(-0.772282626101073,6.859248E-016,-0.635279108284249));
#379=AXIS2_PLACEMENT_3D('',#376,#377,#378);
#380=CIRCLE('',#379,40.790720962763679);
#381=EDGE_CURVE('',#350,#375,#380,.T.);
#382=ORIENTED_EDGE('',*,*,#381,.T.);
#383=CARTESIAN_POINT('',(-6.384688503516721,100.0,3.430749380927343));
#384=DIRECTION('',(0.0,-1.0,0.0));
#385=VECTOR('',#384,99.999999999999986);
#386=LINE('',#383,#385);
#387=EDGE_CURVE('',#144,#375,#386,.T.);
#388=ORIENTED_EDGE('',*,*,#387,.F.);
#389=ORIENTED_EDGE('',*,*,#150,.T.);
#390=ORIENTED_EDGE('',*,*,#362,.T.);
#391=EDGE_LOOP('',(#382,#388,#389,#390));
#392=FACE_OUTER_BOUND('',#391,.T.);
#393=ADVANCED_FACE('',(#392),#373,.T.);
#394=CARTESIAN_POINT('',(-6.153003715686465,50.000000000000014,3.621333113412608));
#395=DIRECTION('',(-8.881784E-016,-1.0,0.0));
#396=DIRECTION('',(0.506551301664027,-4.499079E-016,0.862209822944786));
#397=AXIS2_PLACEMENT_3D('',#394,#395,#396);
#398=CYLINDRICAL_SURFACE('',#397,0.3);
#399=CARTESIAN_POINT('',(-6.001038325187289,8.881784E-015,3.879996060296063));
#400=VERTEX_POINT('',#399);
#401=CARTESIAN_POINT('',(-6.153003715686509,1.776357E-014,3.621333113412608));
#402=DIRECTION('',(2.279014E-016,1.0,3.879150E-016));
#403=DIRECTION('',(0.506551301664027,-4.499079E-016,0.862209822944786));
#404=AXIS2_PLACEMENT_3D('',#401,#402,#403);
#405=CIRCLE('',#404,0.3);
#406=EDGE_CURVE('',#375,#400,#405,.T.);
#407=ORIENTED_EDGE('',*,*,#406,.T.);
#408=CARTESIAN_POINT('',(-6.0010383251872,100.0,3.879996060296063));
#409=DIRECTION('',(0.0,-1.0,0.0));
#410=VECTOR('',#409,100.0);
#411=LINE('',#408,#410);
#412=EDGE_CURVE('',#153,#400,#411,.T.);
#413=ORIENTED_EDGE('',*,*,#412,.F.);
#414=ORIENTED_EDGE('',*,*,#159,.T.);
#415=ORIENTED_EDGE('',*,*,#387,.T.);
#416=EDGE_LOOP('',(#407,#413,#414,#415));
#417=FACE_OUTER_BOUND('',#416,.T.);
#418=ADVANCED_FACE('',(#417),#398,.T.);
#419=CARTESIAN_POINT('',(1.418248572741168,50.000000000000007,16.508493947134859));
#420=DIRECTION('',(-8.881784E-016,-1.0,0.0));
#421=DIRECTION('',(0.506551301664017,-4.499079E-016,0.862209822944793));
#422=AXIS2_PLACEMENT_3D('',#419,#420,#421);
#423=CYLINDRICAL_SURFACE('',#422,14.646664362634407);
#424=CARTESIAN_POINT('',(5.803308870855441,8.881784E-015,2.533658594488776));
#425=VERTEX_POINT('',#424);
#426=CARTESIAN_POINT('',(1.418248572741124,8.881784E-015,16.508493947134859));
#427=DIRECTION('',(-2.279014E-016,-1.0,-3.879150E-016));
#428=DIRECTION('',(0.506551301664017,-4.499079E-016,0.862209822944793));
#429=AXIS2_PLACEMENT_3D('',#426,#427,#428);
#430=CIRCLE('',#429,14.646664362634407);
#431=EDGE_CURVE('',#400,#425,#430,.T.);
#432=ORIENTED_EDGE('',*,*,#431,.T.);
#433=CARTESIAN_POINT('',(5.80330887085553,100.0,2.533658594488776));
#434=DIRECTION('',(0.0,-1.0,0.0));
#435=VECTOR('',#434,100.0);
#436=LINE('',#433,#435);
#437=EDGE_CURVE('',#162,#425,#436,.T.);
#438=ORIENTED_EDGE('',*,*,#437,.F.);
#439=ORIENTED_EDGE('',*,*,#168,.T.);
#440=ORIENTED_EDGE('',*,*,#412,.T.);
#441=EDGE_LOOP('',(#432,#438,#439,#440));
#442=FACE_OUTER_BOUND('',#441,.T.);
#443=ADVANCED_FACE('',(#442),#423,.F.);
#444=CARTESIAN_POINT('',(5.953003715686538,50.000000000000007,2.056593134168079));
#445=DIRECTION('',(-8.881784E-016,-1.0,0.0));
#446=DIRECTION('',(0.982774769686873,-8.728793E-016,-0.184807337697707));
#447=AXIS2_PLACEMENT_3D('',#444,#445,#446);
#448=CYLINDRICAL_SURFACE('',#447,0.5);
#449=CARTESIAN_POINT('',(6.444391100529937,8.881784E-015,1.964189465319224));
#450=VERTEX_POINT('',#449);
#451=CARTESIAN_POINT('',(5.953003715686494,8.881784E-015,2.056593134168079));
#452=DIRECTION('',(8.578438E-016,1.0,-1.613145E-016));
#453=DIRECTION('',(0.982774769686873,-8.728793E-016,-0.184807337697707));
#454=AXIS2_PLACEMENT_3D('',#451,#452,#453);
#455=CIRCLE('',#454,0.5);
#456=EDGE_CURVE('',#425,#450,#455,.T.);
#457=ORIENTED_EDGE('',*,*,#456,.T.);
#458=CARTESIAN_POINT('',(6.444391100530026,100.0,1.964189465319224));
#459=DIRECTION('',(0.0,-1.0,0.0));
#460=VECTOR('',#459,100.0);
#461=LINE('',#458,#460);
#462=EDGE_CURVE('',#171,#450,#461,.T.);
#463=ORIENTED_EDGE('',*,*,#462,.F.);
#464=ORIENTED_EDGE('',*,*,#177,.T.);
#465=ORIENTED_EDGE('',*,*,#437,.T.);
#466=EDGE_LOOP('',(#457,#463,#464,#465));
#467=FACE_OUTER_BOUND('',#466,.T.);
#468=ADVANCED_FACE('',(#467),#448,.T.);
#469=CARTESIAN_POINT('',(-0.134264018146382,50.000000000000007,3.201282414399802));
#470=DIRECTION('',(-8.881784E-016,-1.0,0.0));
#471=DIRECTION('',(0.571679425140972,-5.077533E-016,-0.820477077602103));
#472=AXIS2_PLACEMENT_3D('',#469,#470,#471);
#473=CYLINDRICAL_SURFACE('',#472,6.693960123510708);
#474=CARTESIAN_POINT('',(3.692535257178764,8.881784E-015,-2.290958425323277));
#475=VERTEX_POINT('',#474);
#476=CARTESIAN_POINT('',(-0.134264018146427,8.881784E-015,3.201282414399802));
#477=DIRECTION('',(2.902721E-016,1.0,-4.166000E-016));
#478=DIRECTION('',(0.571679425140972,-5.077533E-016,-0.820477077602103));
#479=AXIS2_PLACEMENT_3D('',#476,#477,#478);
#480=CIRCLE('',#479,6.693960123510708);
#481=EDGE_CURVE('',#450,#475,#480,.T.);
#482=ORIENTED_EDGE('',*,*,#481,.T.);
#483=CARTESIAN_POINT('',(3.692535257178853,100.0,-2.290958425323277));
#484=DIRECTION('',(0.0,-1.0,0.0));
#485=VECTOR('',#484,100.0);
#486=LINE('',#483,#485);
#487=EDGE_CURVE('',#180,#475,#486,.T.);
#488=ORIENTED_EDGE('',*,*,#487,.F.);
#489=ORIENTED_EDGE('',*,*,#186,.T.);
#490=ORIENTED_EDGE('',*,*,#462,.T.);
#491=EDGE_LOOP('',(#482,#488,#489,#490));
#492=FACE_OUTER_BOUND('',#491,.T.);
#493=ADVANCED_FACE('',(#492),#473,.T.);
#494=CARTESIAN_POINT('',(3.381551071541964,50.000000000000007,-1.89943724290298));
#495=DIRECTION('',(-8.881784E-016,-1.0,0.0));
#496=DIRECTION('',(-0.857924075213011,7.619896E-016,0.513776489506771));
#497=AXIS2_PLACEMENT_3D('',#494,#495,#496);
#498=CYLINDRICAL_SURFACE('',#497,0.5);
#499=CARTESIAN_POINT('',(2.952589033935412,8.881784E-015,-1.642548998149594));
#500=VERTEX_POINT('',#499);
#501=CARTESIAN_POINT('',(3.38155107154192,8.881784E-015,-1.89943724290298));
#502=DIRECTION('',(6.537293E-016,1.0,-3.914924E-016));
#503=DIRECTION('',(-0.857924075213011,7.619896E-016,0.513776489506771));
#504=AXIS2_PLACEMENT_3D('',#501,#502,#503);
#505=CIRCLE('',#504,0.5);
#506=EDGE_CURVE('',#475,#500,#505,.T.);
#507=ORIENTED_EDGE('',*,*,#506,.T.);
#508=CARTESIAN_POINT('',(2.952589033935501,100.0,-1.642548998149594));
#509=DIRECTION('',(0.0,-1.0,0.0));
#510=VECTOR('',#509,100.0);
#511=LINE('',#508,#510);
#512=EDGE_CURVE('',#189,#500,#511,.T.);
#513=ORIENTED_EDGE('',*,*,#512,.F.);
#514=ORIENTED_EDGE('',*,*,#195,.T.);
#515=ORIENTED_EDGE('',*,*,#487,.T.);
#516=EDGE_LOOP('',(#507,#513,#514,#515));
#517=FACE_OUTER_BOUND('',#516,.T.);
#518=ADVANCED_FACE('',(#517),#498,.T.);
#519=CARTESIAN_POINT('',(2.952589033935457,50.000000000000007,-1.642548998149594));
#520=DIRECTION('',(-0.857924075213008,7.619896E-016,0.513776489506775));
#521=DIRECTION('',(0.513776489506775,0.0,0.857924075213008));
#522=AXIS2_PLACEMENT_3D('',#519,#520,#521);
#523=PLANE('',#522);
#524=CARTESIAN_POINT('',(3.567438683544574,8.881784E-015,-0.615849007376609));
#525=VERTEX_POINT('',#524);
#526=CARTESIAN_POINT('',(2.952589033935412,9.427880E-015,-1.642548998149594));
#527=DIRECTION('',(0.513776489506775,-4.563252E-016,0.857924075213008));
#528=VECTOR('',#527,1.196725934655782);
#529=LINE('',#526,#528);
#530=EDGE_CURVE('',#500,#525,#529,.T.);
#531=ORIENTED_EDGE('',*,*,#530,.T.);
#532=CARTESIAN_POINT('',(3.567438683544663,100.0,-0.615849007376609));
#533=DIRECTION('',(0.0,-1.0,0.0));
#534=VECTOR('',#533,100.0);
#535=LINE('',#532,#534);
#536=EDGE_CURVE('',#198,#525,#535,.T.);
#537=ORIENTED_EDGE('',*,*,#536,.F.);
#538=ORIENTED_EDGE('',*,*,#203,.T.);
#539=ORIENTED_EDGE('',*,*,#512,.T.);
#540=EDGE_LOOP('',(#531,#537,#538,#539));
#541=FACE_OUTER_BOUND('',#540,.T.);
#542=ADVANCED_FACE('',(#541),#523,.T.);
#543=CARTESIAN_POINT('',(3.438750072262668,50.000000000000007,-0.538782533950593));
#544=DIRECTION('',(-8.881784E-016,-1.0,0.0));
#545=DIRECTION('',(-0.857924075213006,7.619896E-016,0.513776489506778));
#546=AXIS2_PLACEMENT_3D('',#543,#544,#545);
#547=CYLINDRICAL_SURFACE('',#546,0.15);
#548=CARTESIAN_POINT('',(3.377957291316818,8.881784E-015,-0.401653989201969));
#549=VERTEX_POINT('',#548);
#550=CARTESIAN_POINT('',(3.438750072262623,8.881784E-015,-0.538782533950593));
#551=DIRECTION('',(-6.537293E-016,-1.0,3.914924E-016));
#552=DIRECTION('',(-0.857924075213006,7.619896E-016,0.513776489506778));
#553=AXIS2_PLACEMENT_3D('',#550,#551,#552);
#554=CIRCLE('',#553,0.15);
#555=EDGE_CURVE('',#525,#549,#554,.T.);
#556=ORIENTED_EDGE('',*,*,#555,.T.);
#557=CARTESIAN_POINT('',(3.377957291316907,100.0,-0.401653989201969));
#558=DIRECTION('',(0.0,-1.0,0.0));
#559=VECTOR('',#558,100.0);
#560=LINE('',#557,#559);
#561=EDGE_CURVE('',#76,#549,#560,.T.);
#562=ORIENTED_EDGE('',*,*,#561,.F.);
#563=ORIENTED_EDGE('',*,*,#210,.T.);
#564=ORIENTED_EDGE('',*,*,#536,.T.);
#565=EDGE_LOOP('',(#556,#562,#563,#564));
#566=FACE_OUTER_BOUND('',#565,.T.);
#567=ADVANCED_FACE('',(#566),#547,.F.);
#568=CARTESIAN_POINT('',(3.377957291316862,50.000000000000007,-0.401653989201969));
#569=DIRECTION('',(0.405285206305371,-3.599656E-016,-0.914190298324158));
#570=DIRECTION('',(-0.914190298324158,-1.998210E-032,-0.405285206305371));
#571=AXIS2_PLACEMENT_3D('',#568,#569,#570);
#572=PLANE('',#571);
#573=CARTESIAN_POINT('',(2.904740292100356,8.881784E-015,-0.611443843137443));
#574=VERTEX_POINT('',#573);
#575=CARTESIAN_POINT('',(3.377957291316818,8.461483E-015,-0.401653989201969));
#576=DIRECTION('',(-0.914190298324158,8.119641E-016,-0.405285206305371));
#577=VECTOR('',#576,0.517635113918772);
#578=LINE('',#575,#577);
#579=EDGE_CURVE('',#549,#574,#578,.T.);
#580=ORIENTED_EDGE('',*,*,#579,.T.);
#581=CARTESIAN_POINT('',(2.904740292100445,100.0,-0.611443843137443));
#582=DIRECTION('',(0.0,-1.0,0.0));
#583=VECTOR('',#582,100.0);
#584=LINE('',#581,#583);
#585=EDGE_CURVE('',#74,#574,#584,.T.);
#586=ORIENTED_EDGE('',*,*,#585,.F.);
#587=ORIENTED_EDGE('',*,*,#81,.T.);
#588=ORIENTED_EDGE('',*,*,#561,.T.);
#589=EDGE_LOOP('',(#580,#586,#587,#588));
#590=FACE_OUTER_BOUND('',#589,.T.);
#591=ADVANCED_FACE('',(#590),#572,.T.);
#592=CARTESIAN_POINT('',(2.843947511154594,50.000000000000007,-0.474315298388815));
#593=DIRECTION('',(-8.881784E-016,-1.0,0.0));
#594=DIRECTION('',(0.0,0.0,-1.0));
#595=AXIS2_PLACEMENT_3D('',#592,#593,#594);
#596=CYLINDRICAL_SURFACE('',#595,0.150000000000004);
#597=CARTESIAN_POINT('',(2.84394751115455,8.881784E-015,-0.474315298388815));
#598=DIRECTION('',(0.0,1.0,0.0));
#599=DIRECTION('',(0.0,0.0,-1.0));
#600=AXIS2_PLACEMENT_3D('',#597,#598,#599);
#601=CIRCLE('',#600,0.150000000000004);
#602=EDGE_CURVE('',#574,#221,#601,.T.);
#603=ORIENTED_EDGE('',*,*,#602,.T.);
#604=ORIENTED_EDGE('',*,*,#241,.T.);
#605=ORIENTED_EDGE('',*,*,#90,.T.);
#606=ORIENTED_EDGE('',*,*,#585,.T.);
#607=EDGE_LOOP('',(#603,#604,#605,#606));
#608=FACE_OUTER_BOUND('',#607,.T.);
#609=ADVANCED_FACE('',(#608),#596,.T.);
#610=CARTESIAN_POINT('',(0.453938782225497,8.881784E-015,0.325993835970117));
#611=DIRECTION('',(0.0,1.0,0.0));
#612=DIRECTION('',(0.0,0.0,1.0));
#613=AXIS2_PLACEMENT_3D('',#610,#611,#612);
#614=PLANE('',#613);
#615=ORIENTED_EDGE('',*,*,#228,.F.);
#616=ORIENTED_EDGE('',*,*,#602,.F.);
#617=ORIENTED_EDGE('',*,*,#579,.F.);
#618=ORIENTED_EDGE('',*,*,#555,.F.);
#619=ORIENTED_EDGE('',*,*,#530,.F.);
#620=ORIENTED_EDGE('',*,*,#506,.F.);
#621=ORIENTED_EDGE('',*,*,#481,.F.);
#622=ORIENTED_EDGE('',*,*,#456,.F.);
#623=ORIENTED_EDGE('',*,*,#431,.F.);
#624=ORIENTED_EDGE('',*,*,#406,.F.);
#625=ORIENTED_EDGE('',*,*,#381,.F.);
#626=ORIENTED_EDGE('',*,*,#356,.F.);
#627=ORIENTED_EDGE('',*,*,#331,.F.);
#628=ORIENTED_EDGE('',*,*,#307,.F.);
#629=ORIENTED_EDGE('',*,*,#282,.F.);
#630=ORIENTED_EDGE('',*,*,#258,.F.);
#631=EDGE_LOOP('',(#615,#616,#617,#618,#619,#620,#621,#622,#623,#624,#625,#626,#627,#628,#629,#630));
#632=FACE_OUTER_BOUND('',#631,.T.);
#633=ADVANCED_FACE('',(#632),#614,.F.);
#634=CLOSED_SHELL('',(#214,#245,#270,#294,#319,#343,#368,#393,#418,#443,#468,#493,#518,#542,#567,#591,#609,#633));
#635=MANIFOLD_SOLID_BREP('Volumenk\S\vrper1',#634);
#636=DRAUGHTING_PRE_DEFINED_COLOUR('black');
#637=FILL_AREA_STYLE_COLOUR('Schwarz',#636);
#638=FILL_AREA_STYLE('Schwarz',(#637));
#639=SURFACE_STYLE_FILL_AREA(#638);
#640=SURFACE_SIDE_STYLE('Schwarz',(#639));
#641=SURFACE_STYLE_USAGE(.BOTH.,#640);
#642=PRESENTATION_STYLE_ASSIGNMENT((#641));
#643=STYLED_ITEM('',(#642),#635);
#644=MECHANICAL_DESIGN_GEOMETRIC_PRESENTATION_REPRESENTATION('',(#643),#36);
#645=ADVANCED_BREP_SHAPE_REPRESENTATION('ABSR',(#635),#36);
#646=SHAPE_REPRESENTATION_RELATIONSHIP('SRR','None',#645,#41);
ENDSEC;
END-ISO-10303-21;
