ISO-10303-21;
HEADER;
/* Generated by software containing ST-Developer
 * from STEP Tools, Inc. (www.steptools.com) 
 */

FILE_DESCRIPTION(
/* description */ ('Zuganker G M10'),
/* implementation_level */ '2;1');

FILE_NAME(
/* name */ 'Q:\\ExterneArtikel_Webseite_Palkat\\SV\\SV_step\\SV7014V_A.
stp',
/* time_stamp */ '2015-11-27T10:54:00+01:00',
/* author */ ('Marina Kaa'),
/* organization */ (''),
/* preprocessor_version */ 'ST-DEVELOPER v15.6',
/* originating_system */ 'Autodesk Inventor 2015',
/* authorisation */ '');

FILE_SCHEMA (('AUTOMOTIVE_DESIGN { 1 0 10303 214 3 1 1 }'));
ENDSEC;

DATA;
#10=MECHANICAL_DESIGN_GEOMETRIC_PRESENTATION_REPRESENTATION('',(#13),#224);
#11=SHAPE_REPRESENTATION_RELATIONSHIP('SRR','None',#233,#12);
#12=ADVANCED_BREP_SHAPE_REPRESENTATION($,(#14),#223);
#13=STYLED_ITEM('',(#242),#14);
#14=MANIFOLD_SOLID_BREP('Volumenk\X\F6rper1',#99);
#15=B_SPLINE_CURVE_WITH_KNOTS('',3,(#158,#159,#160,#161,#162,#163,#164,
#165,#166,#167,#168,#169,#170,#171,#172,#173,#174,#175,#176,#177,#178,#179,
#180,#181,#182,#183),.UNSPECIFIED.,.F.,.F.,(4,2,2,2,2,2,2,2,2,2,2,2,4),
(0.646010564086363,0.724130528044984,0.802250492003605,0.891216235593086,
0.980181979182567,1.13610155367765,1.29202112817273,1.44794070266781,1.60386027716288,
1.69282602075237,1.78179176434185,1.85991172830047,1.93803169225909),
 .UNSPECIFIED.);
#16=B_SPLINE_CURVE_WITH_KNOTS('',3,(#184,#185,#186,#187,#188,#189,#190,
#191,#192,#193,#194,#195,#196,#197,#198,#199,#200,#201,#202,#203,#204,#205,
#206,#207,#208,#209,#210),.UNSPECIFIED.,.F.,.F.,(4,2,2,2,2,2,3,2,2,2,2,
2,4),(1.93803169225909,2.01615165621771,2.09427162017633,2.18323736376581,
2.27220310735529,2.42812268185037,2.58404225634545,2.73996183084053,2.89588140533561,
2.98484714892509,3.07381289251457,3.1519328564732,3.23005282043182),
 .UNSPECIFIED.);
#17=PLANE('',#106);
#18=PLANE('',#113);
#19=PLANE('',#114);
#20=CYLINDRICAL_SURFACE('',#104,5.);
#21=CYLINDRICAL_SURFACE('',#108,4.9);
#22=FACE_BOUND('',#37,.T.);
#23=FACE_BOUND('',#39,.T.);
#24=FACE_BOUND('',#43,.T.);
#25=FACE_BOUND('',#44,.T.);
#26=FACE_BOUND('',#46,.T.);
#27=FACE_BOUND('',#49,.T.);
#28=FACE_OUTER_BOUND('',#36,.T.);
#29=FACE_OUTER_BOUND('',#38,.T.);
#30=FACE_OUTER_BOUND('',#40,.T.);
#31=FACE_OUTER_BOUND('',#41,.T.);
#32=FACE_OUTER_BOUND('',#42,.T.);
#33=FACE_OUTER_BOUND('',#45,.T.);
#34=FACE_OUTER_BOUND('',#47,.T.);
#35=FACE_OUTER_BOUND('',#48,.T.);
#36=EDGE_LOOP('',(#72));
#37=EDGE_LOOP('',(#73));
#38=EDGE_LOOP('',(#74));
#39=EDGE_LOOP('',(#75));
#40=EDGE_LOOP('',(#76));
#41=EDGE_LOOP('',(#77,#78));
#42=EDGE_LOOP('',(#79));
#43=EDGE_LOOP('',(#80,#81));
#44=EDGE_LOOP('',(#82));
#45=EDGE_LOOP('',(#83));
#46=EDGE_LOOP('',(#84));
#47=EDGE_LOOP('',(#85));
#48=EDGE_LOOP('',(#86));
#49=EDGE_LOOP('',(#87));
#50=CIRCLE('',#102,5.);
#51=CIRCLE('',#103,4.);
#52=CIRCLE('',#105,5.);
#53=CIRCLE('',#109,4.9);
#54=CIRCLE('',#110,4.9);
#55=CIRCLE('',#112,3.74529946162075);
#56=VERTEX_POINT('',#147);
#57=VERTEX_POINT('',#149);
#58=VERTEX_POINT('',#152);
#59=VERTEX_POINT('',#156);
#60=VERTEX_POINT('',#157);
#61=VERTEX_POINT('',#212);
#62=VERTEX_POINT('',#214);
#63=VERTEX_POINT('',#217);
#64=EDGE_CURVE('',#56,#56,#50,.T.);
#65=EDGE_CURVE('',#57,#57,#51,.T.);
#66=EDGE_CURVE('',#58,#58,#52,.T.);
#67=EDGE_CURVE('',#59,#60,#15,.T.);
#68=EDGE_CURVE('',#60,#59,#16,.T.);
#69=EDGE_CURVE('',#61,#61,#53,.T.);
#70=EDGE_CURVE('',#62,#62,#54,.T.);
#71=EDGE_CURVE('',#63,#63,#55,.T.);
#72=ORIENTED_EDGE('',*,*,#64,.T.);
#73=ORIENTED_EDGE('',*,*,#65,.T.);
#74=ORIENTED_EDGE('',*,*,#66,.T.);
#75=ORIENTED_EDGE('',*,*,#64,.F.);
#76=ORIENTED_EDGE('',*,*,#65,.F.);
#77=ORIENTED_EDGE('',*,*,#67,.F.);
#78=ORIENTED_EDGE('',*,*,#68,.F.);
#79=ORIENTED_EDGE('',*,*,#69,.F.);
#80=ORIENTED_EDGE('',*,*,#68,.T.);
#81=ORIENTED_EDGE('',*,*,#67,.T.);
#82=ORIENTED_EDGE('',*,*,#70,.F.);
#83=ORIENTED_EDGE('',*,*,#71,.T.);
#84=ORIENTED_EDGE('',*,*,#70,.T.);
#85=ORIENTED_EDGE('',*,*,#71,.F.);
#86=ORIENTED_EDGE('',*,*,#66,.F.);
#87=ORIENTED_EDGE('',*,*,#69,.T.);
#88=CONICAL_SURFACE('',#101,4.5,44.9999999999999);
#89=CONICAL_SURFACE('',#107,2.45,45.);
#90=CONICAL_SURFACE('',#111,4.32264973081037,30.);
#91=ADVANCED_FACE('',(#28,#22),#88,.T.);
#92=ADVANCED_FACE('',(#29,#23),#20,.T.);
#93=ADVANCED_FACE('',(#30),#17,.T.);
#94=ADVANCED_FACE('',(#31),#89,.F.);
#95=ADVANCED_FACE('',(#32,#24,#25),#21,.T.);
#96=ADVANCED_FACE('',(#33,#26),#90,.T.);
#97=ADVANCED_FACE('',(#34),#18,.T.);
#98=ADVANCED_FACE('',(#35,#27),#19,.T.);
#99=CLOSED_SHELL('',(#91,#92,#93,#94,#95,#96,#97,#98));
#100=AXIS2_PLACEMENT_3D('placement',#145,#115,#116);
#101=AXIS2_PLACEMENT_3D('',#146,#117,#118);
#102=AXIS2_PLACEMENT_3D('',#148,#119,#120);
#103=AXIS2_PLACEMENT_3D('',#150,#121,#122);
#104=AXIS2_PLACEMENT_3D('',#151,#123,#124);
#105=AXIS2_PLACEMENT_3D('',#153,#125,#126);
#106=AXIS2_PLACEMENT_3D('',#154,#127,#128);
#107=AXIS2_PLACEMENT_3D('',#155,#129,#130);
#108=AXIS2_PLACEMENT_3D('',#211,#131,#132);
#109=AXIS2_PLACEMENT_3D('',#213,#133,#134);
#110=AXIS2_PLACEMENT_3D('',#215,#135,#136);
#111=AXIS2_PLACEMENT_3D('',#216,#137,#138);
#112=AXIS2_PLACEMENT_3D('',#218,#139,#140);
#113=AXIS2_PLACEMENT_3D('',#219,#141,#142);
#114=AXIS2_PLACEMENT_3D('',#220,#143,#144);
#115=DIRECTION('axis',(0.,0.,1.));
#116=DIRECTION('refdir',(1.,0.,0.));
#117=DIRECTION('center_axis',(0.,0.,1.));
#118=DIRECTION('ref_axis',(0.,-1.,0.));
#119=DIRECTION('center_axis',(0.,0.,-1.));
#120=DIRECTION('ref_axis',(0.,-1.,0.));
#121=DIRECTION('center_axis',(0.,0.,1.));
#122=DIRECTION('ref_axis',(0.,-1.,0.));
#123=DIRECTION('center_axis',(0.,0.,-1.));
#124=DIRECTION('ref_axis',(0.,1.,0.));
#125=DIRECTION('center_axis',(0.,0.,-1.));
#126=DIRECTION('ref_axis',(0.,1.,0.));
#127=DIRECTION('center_axis',(0.,0.,-1.));
#128=DIRECTION('ref_axis',(-1.,0.,0.));
#129=DIRECTION('center_axis',(0.,-1.,0.));
#130=DIRECTION('ref_axis',(0.,0.,-1.));
#131=DIRECTION('center_axis',(0.,0.,-1.));
#132=DIRECTION('ref_axis',(0.,1.,0.));
#133=DIRECTION('center_axis',(0.,0.,-1.));
#134=DIRECTION('ref_axis',(0.,1.,0.));
#135=DIRECTION('center_axis',(0.,0.,1.));
#136=DIRECTION('ref_axis',(0.,-1.,0.));
#137=DIRECTION('center_axis',(0.,0.,-1.));
#138=DIRECTION('ref_axis',(0.,-1.,0.));
#139=DIRECTION('center_axis',(0.,0.,-1.));
#140=DIRECTION('ref_axis',(0.,-1.,0.));
#141=DIRECTION('center_axis',(0.,0.,1.));
#142=DIRECTION('ref_axis',(1.,0.,0.));
#143=DIRECTION('center_axis',(0.,0.,1.));
#144=DIRECTION('ref_axis',(1.,0.,0.));
#145=CARTESIAN_POINT('',(0.,0.,0.));
#146=CARTESIAN_POINT('Origin',(0.,0.,-31.5));
#147=CARTESIAN_POINT('',(6.12303176911189E-16,5.,-31.));
#148=CARTESIAN_POINT('Origin',(0.,0.,-31.));
#149=CARTESIAN_POINT('',(-4.89842541528951E-16,4.,-32.));
#150=CARTESIAN_POINT('Origin',(0.,0.,-32.));
#151=CARTESIAN_POINT('Origin',(0.,0.,-23.25));
#152=CARTESIAN_POINT('',(0.,5.,-14.5));
#153=CARTESIAN_POINT('Origin',(0.,0.,-14.5));
#154=CARTESIAN_POINT('Origin',(0.,2.5,-32.));
#155=CARTESIAN_POINT('Origin',(0.,-2.45,-8.));
#156=CARTESIAN_POINT('',(0.,-4.9,-3.1));
#157=CARTESIAN_POINT('',(0.,-4.9,-12.9));
#158=CARTESIAN_POINT('Ctrl Pts',(-6.93889390390723E-17,-4.9,-3.1));
#159=CARTESIAN_POINT('Ctrl Pts',(0.26039987986207,-4.9,-3.1));
#160=CARTESIAN_POINT('Ctrl Pts',(0.538657927406812,-4.8775243213232,-3.14464671122957));
#161=CARTESIAN_POINT('Ctrl Pts',(1.06217424568423,-4.79084350130316,-3.32043468884554));
#162=CARTESIAN_POINT('Ctrl Pts',(1.30780827822901,-4.72727563862643,-3.4507694321974));
#163=CARTESIAN_POINT('Ctrl Pts',(1.75110240002041,-4.58314760537742,-3.75558636290931));
#164=CARTESIAN_POINT('Ctrl Pts',(1.98069241583936,-4.48748425399728,-3.96288027915613));
#165=CARTESIAN_POINT('Ctrl Pts',(2.38373080429791,-4.28701344989027,-4.42504904913728));
#166=CARTESIAN_POINT('Ctrl Pts',(2.5577674403146,-4.18279718843451,-4.67966692632717));
#167=CARTESIAN_POINT('Ctrl Pts',(2.94206300298654,-3.92939762674359,-5.35377804024329));
#168=CARTESIAN_POINT('Ctrl Pts',(3.14183663076856,-3.76426546038168,-5.85891388535302));
#169=CARTESIAN_POINT('Ctrl Pts',(3.40321236229929,-3.52972752551781,-6.92166576980534));
#170=CARTESIAN_POINT('Ctrl Pts',(3.46482322781408,-3.46482322781408,-7.4802680850164));
#171=CARTESIAN_POINT('Ctrl Pts',(3.46482322781408,-3.46482322781408,-8.5197319149836));
#172=CARTESIAN_POINT('Ctrl Pts',(3.40321236229929,-3.52972752551781,-9.07833423019466));
#173=CARTESIAN_POINT('Ctrl Pts',(3.14183663076856,-3.76426546038168,-10.141086114647));
#174=CARTESIAN_POINT('Ctrl Pts',(2.94206300298654,-3.92939762674358,-10.6462219597567));
#175=CARTESIAN_POINT('Ctrl Pts',(2.5577674403146,-4.18279718843451,-11.3203330736728));
#176=CARTESIAN_POINT('Ctrl Pts',(2.38373080429791,-4.28701344989027,-11.5749509508627));
#177=CARTESIAN_POINT('Ctrl Pts',(1.98069241583937,-4.48748425399728,-12.0371197208439));
#178=CARTESIAN_POINT('Ctrl Pts',(1.75110240002042,-4.58314760537742,-12.2444136370907));
#179=CARTESIAN_POINT('Ctrl Pts',(1.30780827822902,-4.72727563862643,-12.5492305678026));
#180=CARTESIAN_POINT('Ctrl Pts',(1.06217424568423,-4.79084350130316,-12.6795653111545));
#181=CARTESIAN_POINT('Ctrl Pts',(0.538657927406816,-4.8775243213232,-12.8553532887704));
#182=CARTESIAN_POINT('Ctrl Pts',(0.26039987986207,-4.9,-12.9));
#183=CARTESIAN_POINT('Ctrl Pts',(2.77555756156289E-16,-4.9,-12.9));
#184=CARTESIAN_POINT('Ctrl Pts',(-3.46944695195361E-16,-4.9,-12.9));
#185=CARTESIAN_POINT('Ctrl Pts',(-0.26039987986207,-4.9,-12.9));
#186=CARTESIAN_POINT('Ctrl Pts',(-0.538657927406813,-4.8775243213232,-12.8553532887704));
#187=CARTESIAN_POINT('Ctrl Pts',(-1.06217424568423,-4.79084350130316,-12.6795653111545));
#188=CARTESIAN_POINT('Ctrl Pts',(-1.30780827822902,-4.72727563862643,-12.5492305678026));
#189=CARTESIAN_POINT('Ctrl Pts',(-1.75110240002041,-4.58314760537742,-12.2444136370907));
#190=CARTESIAN_POINT('Ctrl Pts',(-1.98069241583937,-4.48748425399728,-12.0371197208439));
#191=CARTESIAN_POINT('Ctrl Pts',(-2.38373080429791,-4.28701344989027,-11.5749509508627));
#192=CARTESIAN_POINT('Ctrl Pts',(-2.5577674403146,-4.18279718843451,-11.3203330736728));
#193=CARTESIAN_POINT('Ctrl Pts',(-2.94206300298654,-3.92939762674358,-10.6462219597567));
#194=CARTESIAN_POINT('Ctrl Pts',(-3.14183663076856,-3.76426546038168,-10.141086114647));
#195=CARTESIAN_POINT('Ctrl Pts',(-3.40321236229929,-3.52972752551781,-9.07833423019466));
#196=CARTESIAN_POINT('Ctrl Pts',(-3.46482322781408,-3.46482322781408,-8.5197319149836));
#197=CARTESIAN_POINT('Ctrl Pts',(-3.46482322781408,-3.46482322781408,-8.));
#198=CARTESIAN_POINT('Ctrl Pts',(-3.46482322781408,-3.46482322781408,-7.4802680850164));
#199=CARTESIAN_POINT('Ctrl Pts',(-3.40321236229929,-3.52972752551781,-6.92166576980534));
#200=CARTESIAN_POINT('Ctrl Pts',(-3.14183663076856,-3.76426546038168,-5.85891388535302));
#201=CARTESIAN_POINT('Ctrl Pts',(-2.94206300298654,-3.92939762674359,-5.35377804024329));
#202=CARTESIAN_POINT('Ctrl Pts',(-2.5577674403146,-4.18279718843451,-4.67966692632717));
#203=CARTESIAN_POINT('Ctrl Pts',(-2.38373080429791,-4.28701344989027,-4.42504904913728));
#204=CARTESIAN_POINT('Ctrl Pts',(-1.98069241583937,-4.48748425399728,-3.96288027915613));
#205=CARTESIAN_POINT('Ctrl Pts',(-1.75110240002041,-4.58314760537742,-3.75558636290932));
#206=CARTESIAN_POINT('Ctrl Pts',(-1.30780827822902,-4.72727563862643,-3.4507694321974));
#207=CARTESIAN_POINT('Ctrl Pts',(-1.06217424568423,-4.79084350130316,-3.32043468884554));
#208=CARTESIAN_POINT('Ctrl Pts',(-0.538657927406814,-4.8775243213232,-3.14464671122957));
#209=CARTESIAN_POINT('Ctrl Pts',(-0.26039987986207,-4.9,-3.1));
#210=CARTESIAN_POINT('Ctrl Pts',(6.93889390390723E-17,-4.9,-3.1));
#211=CARTESIAN_POINT('Origin',(0.,0.,-7.25));
#212=CARTESIAN_POINT('',(0.,4.9,-14.5));
#213=CARTESIAN_POINT('Origin',(0.,0.,-14.5));
#214=CARTESIAN_POINT('',(-6.00057113372965E-16,4.9,-2.));
#215=CARTESIAN_POINT('Origin',(0.,0.,-2.));
#216=CARTESIAN_POINT('Origin',(0.,0.,-1.));
#217=CARTESIAN_POINT('',(4.5865175176683E-16,3.74529946162075,0.));
#218=CARTESIAN_POINT('Origin',(0.,0.,0.));
#219=CARTESIAN_POINT('Origin',(0.,2.45,0.));
#220=CARTESIAN_POINT('Origin',(0.,4.95,-14.5));
#221=UNCERTAINTY_MEASURE_WITH_UNIT(LENGTH_MEASURE(0.01),#225,
'DISTANCE_ACCURACY_VALUE',
'Maximum model space distance between geometric entities at asserted c
onnectivities');
#222=UNCERTAINTY_MEASURE_WITH_UNIT(LENGTH_MEASURE(1.E-6),#225,
'DISTANCE_ACCURACY_VALUE',
'Maximum model space distance between geometric entities at asserted c
onnectivities');
#223=(
GEOMETRIC_REPRESENTATION_CONTEXT(3)
GLOBAL_UNCERTAINTY_ASSIGNED_CONTEXT((#221))
GLOBAL_UNIT_ASSIGNED_CONTEXT((#225,#228,#226))
REPRESENTATION_CONTEXT('','3D')
);
#224=(
GEOMETRIC_REPRESENTATION_CONTEXT(3)
GLOBAL_UNCERTAINTY_ASSIGNED_CONTEXT((#222))
GLOBAL_UNIT_ASSIGNED_CONTEXT((#225,#228,#226))
REPRESENTATION_CONTEXT('','3D')
);
#225=(
LENGTH_UNIT()
NAMED_UNIT(*)
SI_UNIT(.MILLI.,.METRE.)
);
#226=(
NAMED_UNIT(*)
SI_UNIT($,.STERADIAN.)
SOLID_ANGLE_UNIT()
);
#227=DIMENSIONAL_EXPONENTS(0.,0.,0.,0.,0.,0.,0.);
#228=(
CONVERSION_BASED_UNIT('degree',#230)
NAMED_UNIT(#227)
PLANE_ANGLE_UNIT()
);
#229=(
NAMED_UNIT(*)
PLANE_ANGLE_UNIT()
SI_UNIT($,.RADIAN.)
);
#230=PLANE_ANGLE_MEASURE_WITH_UNIT(PLANE_ANGLE_MEASURE(0.01745329252),#229);
#231=SHAPE_DEFINITION_REPRESENTATION(#232,#233);
#232=PRODUCT_DEFINITION_SHAPE('',$,#235);
#233=SHAPE_REPRESENTATION('',(#100),#223);
#234=PRODUCT_DEFINITION_CONTEXT('part definition',#239,'design');
#235=PRODUCT_DEFINITION('SV7014V_A','SV7014V_A',#236,#234);
#236=PRODUCT_DEFINITION_FORMATION('',$,#241);
#237=PRODUCT_RELATED_PRODUCT_CATEGORY('SV7014V_A','SV7014V_A',(#241));
#238=APPLICATION_PROTOCOL_DEFINITION('international standard',
'automotive_design',2009,#239);
#239=APPLICATION_CONTEXT(
'Core Data for Automotive Mechanical Design Process');
#240=PRODUCT_CONTEXT('part definition',#239,'mechanical');
#241=PRODUCT('SV7014V_A','SV7014V_A',$,(#240));
#242=PRESENTATION_STYLE_ASSIGNMENT((#243));
#243=SURFACE_STYLE_USAGE(.BOTH.,#244);
#244=SURFACE_SIDE_STYLE($,(#245));
#245=SURFACE_STYLE_FILL_AREA(#246);
#246=FILL_AREA_STYLE($,(#247));
#247=FILL_AREA_STYLE_COLOUR($,#248);
#248=COLOUR_RGB('',0.63921568627451,0.63921568627451,0.686274509803922);
ENDSEC;
END-ISO-10303-21;
