ISO-10303-21;
HEADER;
/****************************************************************
 * Generated by software with PDE/Lib inside                    *
 * PDElib Version v51a, created Tue 12/06/2005                  *
 * International Technegroup Inc. (www.iti-oh.com)              *
 ****************************************************************/
FILE_DESCRIPTION((''),'2;1');
FILE_NAME('U:\\Paletti Norm\\Paletti Artikel f. Palkat\\STEP\\SP993_extern.ipt.step','2007-09-10T15:13:04',(''),(''),'Autodesk Inventor 11','Autodesk Inventor 11','');
FILE_SCHEMA(('AUTOMOTIVE_DESIGN { 1 0 10303 214 1 1 1 1 }'));
ENDSEC;
DATA;
#5=APPLICATION_CONTEXT('automotive design');
#6=APPLICATION_PROTOCOL_DEFINITION('International Standard','automotive_design',2001,#5);
#7=PRODUCT_CONTEXT('',#5,'mechanical');
#8=PRODUCT('SP993_extern','SP993_extern',$,(#7));
#9=PRODUCT_RELATED_PRODUCT_CATEGORY('part',$,(#8));
#10=PRODUCT_DEFINITION_FORMATION('',$,#8);
#11=PRODUCT_DEFINITION_CONTEXT('part definition',#5,'design');
#12=PRODUCT_DEFINITION('',$,#10,#11);
#18=(NAMED_UNIT(*)PLANE_ANGLE_UNIT()SI_UNIT($,.RADIAN.));
#19=DIMENSIONAL_EXPONENTS(0.0,0.0,0.0,0.0,0.0,0.0,0.0);
#20=PLANE_ANGLE_MEASURE_WITH_UNIT(PLANE_ANGLE_MEASURE(0.017453292500000),#18);
#24=(CONVERSION_BASED_UNIT('DEGREE',#20)NAMED_UNIT(#19)PLANE_ANGLE_UNIT());
#28=(NAMED_UNIT(*)SI_UNIT($,.STERADIAN.)SOLID_ANGLE_UNIT());
#32=(LENGTH_UNIT()NAMED_UNIT(*)SI_UNIT(.MILLI.,.METRE.));
#34=UNCERTAINTY_MEASURE_WITH_UNIT(LENGTH_MEASURE(0.010000000000000),#32,'DISTANCE_ACCURACY_VALUE','');
#36=(GEOMETRIC_REPRESENTATION_CONTEXT(3)GLOBAL_UNCERTAINTY_ASSIGNED_CONTEXT((#34))GLOBAL_UNIT_ASSIGNED_CONTEXT((#24,#28,#32))REPRESENTATION_CONTEXT('None','None'));
#37=AXIS2_PLACEMENT_3D('',#38,#39,#40);
#38=CARTESIAN_POINT('',(0.0,0.0,0.0));
#39=DIRECTION('',(0.0,0.0,1.0));
#40=DIRECTION('',(1.0,0.0,0.0));
#41=SHAPE_REPRESENTATION('',(#37),#36);
#42=PRODUCT_DEFINITION_SHAPE('','',#12);
#43=SHAPE_DEFINITION_REPRESENTATION(#42,#41);
#44=CARTESIAN_POINT('',(16.499999999999993,16.499999999999996,0.0));
#45=DIRECTION('',(0.0,0.0,1.0));
#46=DIRECTION('',(0.707106781186548,0.707106781186548,0.0));
#47=AXIS2_PLACEMENT_3D('',#44,#45,#46);
#48=CYLINDRICAL_SURFACE('',#47,3.500000000000000);
#49=CARTESIAN_POINT('',(16.499999999999993,19.999999999999996,0.500000000000000));
#50=VERTEX_POINT('',#49);
#51=CARTESIAN_POINT('',(19.999999999999996,16.499999999999996,0.500000000000000));
#52=VERTEX_POINT('',#51);
#53=CARTESIAN_POINT('',(16.499999999999993,16.499999999999996,0.500000000000000));
#54=DIRECTION('',(0.0,0.0,-1.000000000000000));
#55=DIRECTION('',(0.707106781186548,0.707106781186548,0.0));
#56=AXIS2_PLACEMENT_3D('',#53,#54,#55);
#57=CIRCLE('',#56,3.500000000000000);
#58=EDGE_CURVE('',#50,#52,#57,.T.);
#59=ORIENTED_EDGE('',*,*,#58,.T.);
#60=CARTESIAN_POINT('',(19.999999999999996,16.499999999999996,-0.500000000000000));
#61=VERTEX_POINT('',#60);
#62=CARTESIAN_POINT('',(19.999999999999996,16.499999999999996,0.500000000000000));
#63=DIRECTION('',(0.0,0.0,-1.0));
#64=VECTOR('',#63,1.0);
#65=LINE('',#62,#64);
#66=EDGE_CURVE('',#52,#61,#65,.T.);
#67=ORIENTED_EDGE('',*,*,#66,.T.);
#68=CARTESIAN_POINT('',(16.499999999999993,19.999999999999996,-0.500000000000000));
#69=VERTEX_POINT('',#68);
#70=CARTESIAN_POINT('',(16.499999999999993,16.499999999999996,-0.500000000000000));
#71=DIRECTION('',(0.0,0.0,1.000000000000000));
#72=DIRECTION('',(0.707106781186548,0.707106781186548,0.0));
#73=AXIS2_PLACEMENT_3D('',#70,#71,#72);
#74=CIRCLE('',#73,3.500000000000000);
#75=EDGE_CURVE('',#61,#69,#74,.T.);
#76=ORIENTED_EDGE('',*,*,#75,.T.);
#77=CARTESIAN_POINT('',(16.499999999999993,19.999999999999996,-0.500000000000000));
#78=DIRECTION('',(0.0,0.0,1.0));
#79=VECTOR('',#78,1.0);
#80=LINE('',#77,#79);
#81=EDGE_CURVE('',#69,#50,#80,.T.);
#82=ORIENTED_EDGE('',*,*,#81,.T.);
#83=EDGE_LOOP('',(#59,#67,#76,#82));
#84=FACE_OUTER_BOUND('',#83,.T.);
#85=ADVANCED_FACE('',(#84),#48,.T.);
#86=CARTESIAN_POINT('',(5.551115E-016,9.999999999999998,0.500000000000000));
#87=DIRECTION('',(0.0,0.0,1.0));
#88=DIRECTION('',(1.0,0.0,0.0));
#89=AXIS2_PLACEMENT_3D('',#86,#87,#88);
#90=PLANE('',#89);
#91=ORIENTED_EDGE('',*,*,#58,.F.);
#92=CARTESIAN_POINT('',(-16.499999999999993,19.999999999999996,0.500000000000000));
#93=VERTEX_POINT('',#92);
#94=CARTESIAN_POINT('',(-16.499999999999993,19.999999999999996,0.500000000000000));
#95=DIRECTION('',(1.0,0.0,0.0));
#96=VECTOR('',#95,32.999999999999986);
#97=LINE('',#94,#96);
#98=EDGE_CURVE('',#93,#50,#97,.T.);
#99=ORIENTED_EDGE('',*,*,#98,.F.);
#100=CARTESIAN_POINT('',(-19.999999999999996,16.499999999999996,0.500000000000000));
#101=VERTEX_POINT('',#100);
#102=CARTESIAN_POINT('',(-16.499999999999993,16.499999999999996,0.500000000000000));
#103=DIRECTION('',(0.0,0.0,-1.000000000000000));
#104=DIRECTION('',(-0.707106781186548,0.707106781186548,0.0));
#105=AXIS2_PLACEMENT_3D('',#102,#103,#104);
#106=CIRCLE('',#105,3.500000000000000);
#107=EDGE_CURVE('',#101,#93,#106,.T.);
#108=ORIENTED_EDGE('',*,*,#107,.F.);
#109=CARTESIAN_POINT('',(-19.999999999999996,0.0,0.500000000000000));
#110=VERTEX_POINT('',#109);
#111=CARTESIAN_POINT('',(-19.999999999999996,0.0,0.500000000000000));
#112=DIRECTION('',(0.0,1.0,0.0));
#113=VECTOR('',#112,16.499999999999996);
#114=LINE('',#111,#113);
#115=EDGE_CURVE('',#110,#101,#114,.T.);
#116=ORIENTED_EDGE('',*,*,#115,.F.);
#117=CARTESIAN_POINT('',(19.999999999999996,0.0,0.500000000000000));
#118=VERTEX_POINT('',#117);
#119=CARTESIAN_POINT('',(19.999999999999996,0.0,0.500000000000000));
#120=DIRECTION('',(-1.0,0.0,0.0));
#121=VECTOR('',#120,39.999999999999993);
#122=LINE('',#119,#121);
#123=EDGE_CURVE('',#118,#110,#122,.T.);
#124=ORIENTED_EDGE('',*,*,#123,.F.);
#125=CARTESIAN_POINT('',(19.999999999999996,16.499999999999996,0.500000000000000));
#126=DIRECTION('',(0.0,-1.0,0.0));
#127=VECTOR('',#126,16.499999999999996);
#128=LINE('',#125,#127);
#129=EDGE_CURVE('',#52,#118,#128,.T.);
#130=ORIENTED_EDGE('',*,*,#129,.F.);
#131=EDGE_LOOP('',(#91,#99,#108,#116,#124,#130));
#132=FACE_OUTER_BOUND('',#131,.T.);
#133=CARTESIAN_POINT('',(-9.999999999999996,16.399999999999999,0.500000000000000));
#134=VERTEX_POINT('',#133);
#135=CARTESIAN_POINT('',(10.000000000000004,16.399999999999991,0.500000000000000));
#136=VERTEX_POINT('',#135);
#137=CARTESIAN_POINT('',(-9.999999999999996,16.399999999999999,0.500000000000000));
#138=DIRECTION('',(1.0,0.0,0.0));
#139=VECTOR('',#138,20.0);
#140=LINE('',#137,#139);
#141=EDGE_CURVE('',#134,#136,#140,.T.);
#142=ORIENTED_EDGE('',*,*,#141,.T.);
#143=CARTESIAN_POINT('',(10.000000000000004,14.985999999999994,0.500000000000000));
#144=VERTEX_POINT('',#143);
#145=CARTESIAN_POINT('',(10.000000000000004,16.399999999999991,0.500000000000000));
#146=DIRECTION('',(0.0,-1.0,0.0));
#147=VECTOR('',#146,1.413999999999998);
#148=LINE('',#145,#147);
#149=EDGE_CURVE('',#136,#144,#148,.T.);
#150=ORIENTED_EDGE('',*,*,#149,.T.);
#151=CARTESIAN_POINT('',(3.513999999999999,8.499999999999995,0.500000000000000));
#152=VERTEX_POINT('',#151);
#153=CARTESIAN_POINT('',(10.000000000000004,14.985999999999994,0.500000000000000));
#154=DIRECTION('',(-0.707106781186548,-0.707106781186547,0.0));
#155=VECTOR('',#154,9.172589165551898);
#156=LINE('',#153,#155);
#157=EDGE_CURVE('',#144,#152,#156,.T.);
#158=ORIENTED_EDGE('',*,*,#157,.T.);
#159=CARTESIAN_POINT('',(-3.513999999999988,8.499999999999998,0.500000000000000));
#160=VERTEX_POINT('',#159);
#161=CARTESIAN_POINT('',(3.513999999999999,8.499999999999995,0.500000000000000));
#162=DIRECTION('',(-1.0,0.0,0.0));
#163=VECTOR('',#162,7.027999999999986);
#164=LINE('',#161,#163);
#165=EDGE_CURVE('',#152,#160,#164,.T.);
#166=ORIENTED_EDGE('',*,*,#165,.T.);
#167=CARTESIAN_POINT('',(-9.999999999999993,14.985999999999997,0.500000000000000));
#168=VERTEX_POINT('',#167);
#169=CARTESIAN_POINT('',(-3.513999999999988,8.499999999999998,0.500000000000000));
#170=DIRECTION('',(-0.707106781186548,0.707106781186547,0.0));
#171=VECTOR('',#170,9.172589165551896);
#172=LINE('',#169,#171);
#173=EDGE_CURVE('',#160,#168,#172,.T.);
#174=ORIENTED_EDGE('',*,*,#173,.T.);
#175=CARTESIAN_POINT('',(-9.999999999999993,14.985999999999997,0.500000000000000));
#176=DIRECTION('',(0.0,1.0,0.0));
#177=VECTOR('',#176,1.414000000000002);
#178=LINE('',#175,#177);
#179=EDGE_CURVE('',#168,#134,#178,.T.);
#180=ORIENTED_EDGE('',*,*,#179,.T.);
#181=EDGE_LOOP('',(#142,#150,#158,#166,#174,#180));
#182=FACE_BOUND('',#181,.T.);
#183=ADVANCED_FACE('',(#132,#182),#90,.T.);
#184=CARTESIAN_POINT('',(-19.999999999999996,19.999999999999996,0.0));
#185=DIRECTION('',(0.0,1.0,0.0));
#186=DIRECTION('',(0.0,0.0,1.0));
#187=AXIS2_PLACEMENT_3D('',#184,#185,#186);
#188=PLANE('',#187);
#189=ORIENTED_EDGE('',*,*,#81,.F.);
#190=CARTESIAN_POINT('',(-16.499999999999993,19.999999999999996,-0.500000000000000));
#191=VERTEX_POINT('',#190);
#192=CARTESIAN_POINT('',(16.499999999999993,19.999999999999996,-0.500000000000000));
#193=DIRECTION('',(-1.0,0.0,0.0));
#194=VECTOR('',#193,32.999999999999986);
#195=LINE('',#192,#194);
#196=EDGE_CURVE('',#69,#191,#195,.T.);
#197=ORIENTED_EDGE('',*,*,#196,.T.);
#198=CARTESIAN_POINT('',(-16.499999999999993,19.999999999999996,0.500000000000000));
#199=DIRECTION('',(0.0,0.0,-1.0));
#200=VECTOR('',#199,1.0);
#201=LINE('',#198,#200);
#202=EDGE_CURVE('',#93,#191,#201,.T.);
#203=ORIENTED_EDGE('',*,*,#202,.F.);
#204=ORIENTED_EDGE('',*,*,#98,.T.);
#205=EDGE_LOOP('',(#189,#197,#203,#204));
#206=FACE_OUTER_BOUND('',#205,.T.);
#207=ADVANCED_FACE('',(#206),#188,.T.);
#208=CARTESIAN_POINT('',(-16.499999999999993,16.499999999999996,0.0));
#209=DIRECTION('',(0.0,0.0,1.0));
#210=DIRECTION('',(-0.707106781186548,0.707106781186548,0.0));
#211=AXIS2_PLACEMENT_3D('',#208,#209,#210);
#212=CYLINDRICAL_SURFACE('',#211,3.500000000000000);
#213=ORIENTED_EDGE('',*,*,#107,.T.);
#214=ORIENTED_EDGE('',*,*,#202,.T.);
#215=CARTESIAN_POINT('',(-19.999999999999996,16.499999999999996,-0.500000000000000));
#216=VERTEX_POINT('',#215);
#217=CARTESIAN_POINT('',(-16.499999999999993,16.499999999999996,-0.500000000000000));
#218=DIRECTION('',(0.0,0.0,1.000000000000000));
#219=DIRECTION('',(-0.707106781186548,0.707106781186548,0.0));
#220=AXIS2_PLACEMENT_3D('',#217,#218,#219);
#221=CIRCLE('',#220,3.500000000000000);
#222=EDGE_CURVE('',#191,#216,#221,.T.);
#223=ORIENTED_EDGE('',*,*,#222,.T.);
#224=CARTESIAN_POINT('',(-19.999999999999996,16.499999999999996,-0.500000000000000));
#225=DIRECTION('',(0.0,0.0,1.0));
#226=VECTOR('',#225,1.0);
#227=LINE('',#224,#226);
#228=EDGE_CURVE('',#216,#101,#227,.T.);
#229=ORIENTED_EDGE('',*,*,#228,.T.);
#230=EDGE_LOOP('',(#213,#214,#223,#229));
#231=FACE_OUTER_BOUND('',#230,.T.);
#232=ADVANCED_FACE('',(#231),#212,.T.);
#233=CARTESIAN_POINT('',(3.513999999999999,8.499999999999995,0.500000000000000));
#234=DIRECTION('',(0.707106781186547,-0.707106781186548,0.0));
#235=DIRECTION('',(0.0,0.0,-1.0));
#236=AXIS2_PLACEMENT_3D('',#233,#234,#235);
#237=PLANE('',#236);
#238=CARTESIAN_POINT('',(3.513999999999999,8.499999999999995,-0.500000000000000));
#239=VERTEX_POINT('',#238);
#240=CARTESIAN_POINT('',(10.000000000000004,14.985999999999994,-0.500000000000000));
#241=VERTEX_POINT('',#240);
#242=CARTESIAN_POINT('',(3.513999999999999,8.499999999999995,-0.500000000000000));
#243=DIRECTION('',(0.707106781186548,0.707106781186547,0.0));
#244=VECTOR('',#243,9.172589165551898);
#245=LINE('',#242,#244);
#246=EDGE_CURVE('',#239,#241,#245,.T.);
#247=ORIENTED_EDGE('',*,*,#246,.F.);
#248=CARTESIAN_POINT('',(3.513999999999999,8.499999999999995,0.500000000000000));
#249=DIRECTION('',(0.0,0.0,-1.0));
#250=VECTOR('',#249,1.0);
#251=LINE('',#248,#250);
#252=EDGE_CURVE('',#152,#239,#251,.T.);
#253=ORIENTED_EDGE('',*,*,#252,.F.);
#254=ORIENTED_EDGE('',*,*,#157,.F.);
#255=CARTESIAN_POINT('',(10.000000000000004,14.985999999999994,0.500000000000000));
#256=DIRECTION('',(0.0,0.0,-1.0));
#257=VECTOR('',#256,1.0);
#258=LINE('',#255,#257);
#259=EDGE_CURVE('',#144,#241,#258,.T.);
#260=ORIENTED_EDGE('',*,*,#259,.T.);
#261=EDGE_LOOP('',(#247,#253,#254,#260));
#262=FACE_OUTER_BOUND('',#261,.T.);
#263=ADVANCED_FACE('',(#262),#237,.F.);
#264=CARTESIAN_POINT('',(10.000000000000004,14.985999999999994,0.500000000000000));
#265=DIRECTION('',(1.0,0.0,0.0));
#266=DIRECTION('',(0.0,0.0,-1.0));
#267=AXIS2_PLACEMENT_3D('',#264,#265,#266);
#268=PLANE('',#267);
#269=CARTESIAN_POINT('',(10.000000000000004,16.399999999999991,-0.500000000000000));
#270=VERTEX_POINT('',#269);
#271=CARTESIAN_POINT('',(10.000000000000004,14.985999999999994,-0.500000000000000));
#272=DIRECTION('',(0.0,1.0,0.0));
#273=VECTOR('',#272,1.413999999999998);
#274=LINE('',#271,#273);
#275=EDGE_CURVE('',#241,#270,#274,.T.);
#276=ORIENTED_EDGE('',*,*,#275,.F.);
#277=ORIENTED_EDGE('',*,*,#259,.F.);
#278=ORIENTED_EDGE('',*,*,#149,.F.);
#279=CARTESIAN_POINT('',(10.000000000000004,16.399999999999991,0.500000000000000));
#280=DIRECTION('',(0.0,0.0,-1.0));
#281=VECTOR('',#280,1.0);
#282=LINE('',#279,#281);
#283=EDGE_CURVE('',#136,#270,#282,.T.);
#284=ORIENTED_EDGE('',*,*,#283,.T.);
#285=EDGE_LOOP('',(#276,#277,#278,#284));
#286=FACE_OUTER_BOUND('',#285,.T.);
#287=ADVANCED_FACE('',(#286),#268,.F.);
#288=CARTESIAN_POINT('',(-4.099999999999993,16.399999999999999,0.500000000000000));
#289=DIRECTION('',(0.0,1.0,0.0));
#290=DIRECTION('',(0.0,0.0,1.0));
#291=AXIS2_PLACEMENT_3D('',#288,#289,#290);
#292=PLANE('',#291);
#293=CARTESIAN_POINT('',(-9.999999999999996,16.399999999999999,-0.500000000000000));
#294=VERTEX_POINT('',#293);
#295=CARTESIAN_POINT('',(10.000000000000004,16.399999999999991,-0.500000000000000));
#296=DIRECTION('',(-1.0,0.0,0.0));
#297=VECTOR('',#296,20.0);
#298=LINE('',#295,#297);
#299=EDGE_CURVE('',#270,#294,#298,.T.);
#300=ORIENTED_EDGE('',*,*,#299,.F.);
#301=ORIENTED_EDGE('',*,*,#283,.F.);
#302=ORIENTED_EDGE('',*,*,#141,.F.);
#303=CARTESIAN_POINT('',(-9.999999999999996,16.399999999999999,0.500000000000000));
#304=DIRECTION('',(0.0,0.0,-1.0));
#305=VECTOR('',#304,1.0);
#306=LINE('',#303,#305);
#307=EDGE_CURVE('',#134,#294,#306,.T.);
#308=ORIENTED_EDGE('',*,*,#307,.T.);
#309=EDGE_LOOP('',(#300,#301,#302,#308));
#310=FACE_OUTER_BOUND('',#309,.T.);
#311=ADVANCED_FACE('',(#310),#292,.F.);
#312=CARTESIAN_POINT('',(-9.999999999999996,16.399999999999999,0.500000000000000));
#313=DIRECTION('',(-1.0,0.0,0.0));
#314=DIRECTION('',(0.0,0.0,1.0));
#315=AXIS2_PLACEMENT_3D('',#312,#313,#314);
#316=PLANE('',#315);
#317=CARTESIAN_POINT('',(-9.999999999999993,14.985999999999997,-0.500000000000000));
#318=VERTEX_POINT('',#317);
#319=CARTESIAN_POINT('',(-9.999999999999996,16.399999999999999,-0.500000000000000));
#320=DIRECTION('',(0.0,-1.0,0.0));
#321=VECTOR('',#320,1.414000000000002);
#322=LINE('',#319,#321);
#323=EDGE_CURVE('',#294,#318,#322,.T.);
#324=ORIENTED_EDGE('',*,*,#323,.F.);
#325=ORIENTED_EDGE('',*,*,#307,.F.);
#326=ORIENTED_EDGE('',*,*,#179,.F.);
#327=CARTESIAN_POINT('',(-9.999999999999993,14.985999999999997,0.500000000000000));
#328=DIRECTION('',(0.0,0.0,-1.0));
#329=VECTOR('',#328,1.0);
#330=LINE('',#327,#329);
#331=EDGE_CURVE('',#168,#318,#330,.T.);
#332=ORIENTED_EDGE('',*,*,#331,.T.);
#333=EDGE_LOOP('',(#324,#325,#326,#332));
#334=FACE_OUTER_BOUND('',#333,.T.);
#335=ADVANCED_FACE('',(#334),#316,.F.);
#336=CARTESIAN_POINT('',(-9.999999999999993,14.985999999999997,0.500000000000000));
#337=DIRECTION('',(-0.707106781186547,-0.707106781186548,0.0));
#338=DIRECTION('',(0.0,0.0,1.0));
#339=AXIS2_PLACEMENT_3D('',#336,#337,#338);
#340=PLANE('',#339);
#341=CARTESIAN_POINT('',(-3.513999999999988,8.499999999999998,-0.500000000000000));
#342=VERTEX_POINT('',#341);
#343=CARTESIAN_POINT('',(-9.999999999999993,14.985999999999997,-0.500000000000000));
#344=DIRECTION('',(0.707106781186548,-0.707106781186547,0.0));
#345=VECTOR('',#344,9.172589165551896);
#346=LINE('',#343,#345);
#347=EDGE_CURVE('',#318,#342,#346,.T.);
#348=ORIENTED_EDGE('',*,*,#347,.F.);
#349=ORIENTED_EDGE('',*,*,#331,.F.);
#350=ORIENTED_EDGE('',*,*,#173,.F.);
#351=CARTESIAN_POINT('',(-3.513999999999988,8.499999999999998,0.500000000000000));
#352=DIRECTION('',(0.0,0.0,-1.0));
#353=VECTOR('',#352,1.0);
#354=LINE('',#351,#353);
#355=EDGE_CURVE('',#160,#342,#354,.T.);
#356=ORIENTED_EDGE('',*,*,#355,.T.);
#357=EDGE_LOOP('',(#348,#349,#350,#356));
#358=FACE_OUTER_BOUND('',#357,.T.);
#359=ADVANCED_FACE('',(#358),#340,.F.);
#360=CARTESIAN_POINT('',(4.857226E-015,8.499999999999995,0.500000000000000));
#361=DIRECTION('',(0.0,-1.0,0.0));
#362=DIRECTION('',(0.0,0.0,-1.0));
#363=AXIS2_PLACEMENT_3D('',#360,#361,#362);
#364=PLANE('',#363);
#365=CARTESIAN_POINT('',(-3.513999999999988,8.499999999999998,-0.500000000000000));
#366=DIRECTION('',(1.0,0.0,0.0));
#367=VECTOR('',#366,7.027999999999986);
#368=LINE('',#365,#367);
#369=EDGE_CURVE('',#342,#239,#368,.T.);
#370=ORIENTED_EDGE('',*,*,#369,.F.);
#371=ORIENTED_EDGE('',*,*,#355,.F.);
#372=ORIENTED_EDGE('',*,*,#165,.F.);
#373=ORIENTED_EDGE('',*,*,#252,.T.);
#374=EDGE_LOOP('',(#370,#371,#372,#373));
#375=FACE_OUTER_BOUND('',#374,.T.);
#376=ADVANCED_FACE('',(#375),#364,.F.);
#377=CARTESIAN_POINT('',(5.551115E-016,9.999999999999998,-0.500000000000000));
#378=DIRECTION('',(0.0,0.0,1.0));
#379=DIRECTION('',(1.0,0.0,0.0));
#380=AXIS2_PLACEMENT_3D('',#377,#378,#379);
#381=PLANE('',#380);
#382=ORIENTED_EDGE('',*,*,#75,.F.);
#383=CARTESIAN_POINT('',(19.999999999999996,0.0,-0.500000000000000));
#384=VERTEX_POINT('',#383);
#385=CARTESIAN_POINT('',(19.999999999999996,0.0,-0.500000000000000));
#386=DIRECTION('',(0.0,1.0,0.0));
#387=VECTOR('',#386,16.499999999999996);
#388=LINE('',#385,#387);
#389=EDGE_CURVE('',#384,#61,#388,.T.);
#390=ORIENTED_EDGE('',*,*,#389,.F.);
#391=CARTESIAN_POINT('',(-19.999999999999996,0.0,-0.500000000000000));
#392=VERTEX_POINT('',#391);
#393=CARTESIAN_POINT('',(-19.999999999999996,0.0,-0.500000000000000));
#394=DIRECTION('',(1.0,0.0,0.0));
#395=VECTOR('',#394,39.999999999999993);
#396=LINE('',#393,#395);
#397=EDGE_CURVE('',#392,#384,#396,.T.);
#398=ORIENTED_EDGE('',*,*,#397,.F.);
#399=CARTESIAN_POINT('',(-19.999999999999996,16.499999999999996,-0.500000000000000));
#400=DIRECTION('',(0.0,-1.0,0.0));
#401=VECTOR('',#400,16.499999999999996);
#402=LINE('',#399,#401);
#403=EDGE_CURVE('',#216,#392,#402,.T.);
#404=ORIENTED_EDGE('',*,*,#403,.F.);
#405=ORIENTED_EDGE('',*,*,#222,.F.);
#406=ORIENTED_EDGE('',*,*,#196,.F.);
#407=EDGE_LOOP('',(#382,#390,#398,#404,#405,#406));
#408=FACE_OUTER_BOUND('',#407,.T.);
#409=ORIENTED_EDGE('',*,*,#299,.T.);
#410=ORIENTED_EDGE('',*,*,#323,.T.);
#411=ORIENTED_EDGE('',*,*,#347,.T.);
#412=ORIENTED_EDGE('',*,*,#369,.T.);
#413=ORIENTED_EDGE('',*,*,#246,.T.);
#414=ORIENTED_EDGE('',*,*,#275,.T.);
#415=EDGE_LOOP('',(#409,#410,#411,#412,#413,#414));
#416=FACE_BOUND('',#415,.T.);
#417=ADVANCED_FACE('',(#408,#416),#381,.F.);
#418=CARTESIAN_POINT('',(-19.999999999999996,0.0,0.0));
#419=DIRECTION('',(-1.0,0.0,0.0));
#420=DIRECTION('',(0.0,0.0,1.0));
#421=AXIS2_PLACEMENT_3D('',#418,#419,#420);
#422=PLANE('',#421);
#423=ORIENTED_EDGE('',*,*,#228,.F.);
#424=ORIENTED_EDGE('',*,*,#403,.T.);
#425=CARTESIAN_POINT('',(-19.999999999999996,0.0,0.500000000000000));
#426=DIRECTION('',(0.0,0.0,-1.0));
#427=VECTOR('',#426,1.0);
#428=LINE('',#425,#427);
#429=EDGE_CURVE('',#110,#392,#428,.T.);
#430=ORIENTED_EDGE('',*,*,#429,.F.);
#431=ORIENTED_EDGE('',*,*,#115,.T.);
#432=EDGE_LOOP('',(#423,#424,#430,#431));
#433=FACE_OUTER_BOUND('',#432,.T.);
#434=ADVANCED_FACE('',(#433),#422,.T.);
#435=CARTESIAN_POINT('',(19.999999999999996,19.999999999999996,0.0));
#436=DIRECTION('',(1.0,0.0,0.0));
#437=DIRECTION('',(0.0,0.0,-1.0));
#438=AXIS2_PLACEMENT_3D('',#435,#436,#437);
#439=PLANE('',#438);
#440=ORIENTED_EDGE('',*,*,#66,.F.);
#441=ORIENTED_EDGE('',*,*,#129,.T.);
#442=CARTESIAN_POINT('',(19.999999999999996,0.0,-0.500000000000000));
#443=DIRECTION('',(0.0,0.0,1.0));
#444=VECTOR('',#443,1.0);
#445=LINE('',#442,#444);
#446=EDGE_CURVE('',#384,#118,#445,.T.);
#447=ORIENTED_EDGE('',*,*,#446,.F.);
#448=ORIENTED_EDGE('',*,*,#389,.T.);
#449=EDGE_LOOP('',(#440,#441,#447,#448));
#450=FACE_OUTER_BOUND('',#449,.T.);
#451=ADVANCED_FACE('',(#450),#439,.T.);
#452=CARTESIAN_POINT('',(19.999999999999996,0.0,0.0));
#453=DIRECTION('',(0.0,-1.0,0.0));
#454=DIRECTION('',(0.0,0.0,-1.0));
#455=AXIS2_PLACEMENT_3D('',#452,#453,#454);
#456=PLANE('',#455);
#457=ORIENTED_EDGE('',*,*,#123,.T.);
#458=ORIENTED_EDGE('',*,*,#429,.T.);
#459=ORIENTED_EDGE('',*,*,#397,.T.);
#460=ORIENTED_EDGE('',*,*,#446,.T.);
#461=EDGE_LOOP('',(#457,#458,#459,#460));
#462=FACE_OUTER_BOUND('',#461,.T.);
#463=ADVANCED_FACE('',(#462),#456,.T.);
#464=CLOSED_SHELL('',(#85,#183,#207,#232,#263,#287,#311,#335,#359,#376,#417,#434,#451,#463));
#465=MANIFOLD_SOLID_BREP('',#464);
#466=COLOUR_RGB('Metall-AL-6061 (gleichm.)',0.847059011459351,0.839215993881226,0.839215993881226);
#467=FILL_AREA_STYLE_COLOUR('Metall-AL-6061 (gleichm.)',#466);
#468=FILL_AREA_STYLE('Metall-AL-6061 (gleichm.)',(#467));
#469=SURFACE_STYLE_FILL_AREA(#468);
#470=SURFACE_SIDE_STYLE('Metall-AL-6061 (gleichm.)',(#469));
#471=SURFACE_STYLE_USAGE(.BOTH.,#470);
#472=PRESENTATION_STYLE_ASSIGNMENT((#471));
#473=STYLED_ITEM('',(#472),#465);
#474=MECHANICAL_DESIGN_GEOMETRIC_PRESENTATION_REPRESENTATION('',(#473),#36);
#475=ADVANCED_BREP_SHAPE_REPRESENTATION('ABSR',(#465),#36);
#476=SHAPE_REPRESENTATION_RELATIONSHIP('SRR','None',#475,#41);
ENDSEC;
END-ISO-10303-21;
