ISO-10303-21;
HEADER;
/****************************************************************
 * Generated by software with PDE/Lib inside                    *
 * PDElib Version v51a, created Tue 12/06/2005                  *
 * International Technegroup Inc. (www.iti-oh.com)              *
 ****************************************************************/
FILE_DESCRIPTION((''),'2;1');
FILE_NAME('U:\\Paletti Norm\\Paletti Artikel f. Palkat\\STEP\\SV4123V.ipt.step','2007-09-10T15:15:19',(''),(''),'Autodesk Inventor 11','Autodesk Inventor 11','');
FILE_SCHEMA(('AUTOMOTIVE_DESIGN { 1 0 10303 214 1 1 1 1 }'));
ENDSEC;
DATA;
#5=APPLICATION_CONTEXT('automotive design');
#6=APPLICATION_PROTOCOL_DEFINITION('International Standard','automotive_design',2001,#5);
#7=PRODUCT_CONTEXT('',#5,'mechanical');
#8=PRODUCT('SV4123V','SV4123V',$,(#7));
#9=PRODUCT_RELATED_PRODUCT_CATEGORY('part',$,(#8));
#10=PRODUCT_DEFINITION_FORMATION('',$,#8);
#11=PRODUCT_DEFINITION_CONTEXT('part definition',#5,'design');
#12=PRODUCT_DEFINITION('',$,#10,#11);
#18=(NAMED_UNIT(*)PLANE_ANGLE_UNIT()SI_UNIT($,.RADIAN.));
#19=DIMENSIONAL_EXPONENTS(0.0,0.0,0.0,0.0,0.0,0.0,0.0);
#20=PLANE_ANGLE_MEASURE_WITH_UNIT(PLANE_ANGLE_MEASURE(0.017453292500000),#18);
#24=(CONVERSION_BASED_UNIT('DEGREE',#20)NAMED_UNIT(#19)PLANE_ANGLE_UNIT());
#28=(NAMED_UNIT(*)SI_UNIT($,.STERADIAN.)SOLID_ANGLE_UNIT());
#32=(LENGTH_UNIT()NAMED_UNIT(*)SI_UNIT(.MILLI.,.METRE.));
#34=UNCERTAINTY_MEASURE_WITH_UNIT(LENGTH_MEASURE(0.010000000000000),#32,'DISTANCE_ACCURACY_VALUE','');
#36=(GEOMETRIC_REPRESENTATION_CONTEXT(3)GLOBAL_UNCERTAINTY_ASSIGNED_CONTEXT((#34))GLOBAL_UNIT_ASSIGNED_CONTEXT((#24,#28,#32))REPRESENTATION_CONTEXT('None','None'));
#37=AXIS2_PLACEMENT_3D('',#38,#39,#40);
#38=CARTESIAN_POINT('',(0.0,0.0,0.0));
#39=DIRECTION('',(0.0,0.0,1.0));
#40=DIRECTION('',(1.0,0.0,0.0));
#41=SHAPE_REPRESENTATION('',(#37),#36);
#42=PRODUCT_DEFINITION_SHAPE('','',#12);
#43=SHAPE_DEFINITION_REPRESENTATION(#42,#41);
#44=CARTESIAN_POINT('',(6.250000000000004,4.826553E-015,2.500000000000000));
#45=CARTESIAN_POINT('',(6.250000000000004,4.826553E-015,-2.500000000000000));
#46=CARTESIAN_POINT('',(6.250000000000004,-6.249999999999994,2.500000000000000));
#47=CARTESIAN_POINT('',(6.250000000000004,-6.249999999999994,-2.500000000000000));
#48=CARTESIAN_POINT('',(12.500000000000004,-6.249999999999995,2.500000000000000));
#49=CARTESIAN_POINT('',(12.500000000000004,-6.249999999999995,-2.500000000000000));
#50=CARTESIAN_POINT('',(18.750000000000000,-6.249999999999992,2.500000000000000));
#51=CARTESIAN_POINT('',(18.750000000000000,-6.249999999999992,-2.500000000000000));
#52=CARTESIAN_POINT('',(18.750000000000004,6.357311E-015,2.500000000000000));
#53=CARTESIAN_POINT('',(18.750000000000004,6.357311E-015,-2.500000000000000));
#54=CARTESIAN_POINT('',(18.750000000000000,6.250000000000004,2.500000000000000));
#55=CARTESIAN_POINT('',(18.750000000000000,6.250000000000004,-2.500000000000000));
#56=CARTESIAN_POINT('',(12.500000000000004,6.250000000000005,2.500000000000000));
#57=CARTESIAN_POINT('',(12.500000000000004,6.250000000000005,-2.500000000000000));
#58=CARTESIAN_POINT('',(6.250000000000004,6.250000000000003,2.500000000000000));
#59=CARTESIAN_POINT('',(6.250000000000004,6.250000000000003,-2.500000000000000));
#60=CARTESIAN_POINT('',(6.250000000000004,4.826553E-015,2.500000000000000));
#61=CARTESIAN_POINT('',(6.250000000000004,4.826553E-015,-2.500000000000000));
#69=(BOUNDED_SURFACE()B_SPLINE_SURFACE(1,2,((#44,#46,#48,#50,#52,#54,#56,#58,#60),(#45,#47,#49,#51,#53,#55,#57,#59,#61)),.UNSPECIFIED.,.F.,.T.,.U.)B_SPLINE_SURFACE_WITH_KNOTS((2,2),(3,2,2,2,3),(-7.418894796396563,-6.618894796396563),(0.0,9.817477042468104,19.634954084936208,29.452431127404310,39.269908169872416),.UNSPECIFIED.)GEOMETRIC_REPRESENTATION_ITEM()RATIONAL_B_SPLINE_SURFACE(((1.0,0.707106781186548,1.0,0.707106781186548,1.0,0.707106781186548,1.0,0.707106781186548,1.0),(1.0,0.707106781186548,1.0,0.707106781186548,1.0,0.707106781186548,1.0,0.707106781186548,1.0)))REPRESENTATION_ITEM('')SURFACE());
#70=CARTESIAN_POINT('',(6.250000000000004,4.826553E-015,-2.500000000000000));
#71=VERTEX_POINT('',#70);
#72=CARTESIAN_POINT('',(12.500000000000004,5.591932E-015,-2.500000000000000));
#73=DIRECTION('',(0.0,0.0,1.0));
#74=DIRECTION('',(1.0,0.0,0.0));
#75=AXIS2_PLACEMENT_3D('',#72,#73,#74);
#76=CIRCLE('',#75,6.250000000000000);
#77=EDGE_CURVE('',#71,#71,#76,.T.);
#78=ORIENTED_EDGE('',*,*,#77,.F.);
#79=EDGE_LOOP('',(#78));
#80=FACE_OUTER_BOUND('',#79,.T.);
#81=CARTESIAN_POINT('',(18.750000000000004,5.591932E-015,2.500000000000000));
#82=VERTEX_POINT('',#81);
#83=CARTESIAN_POINT('',(12.500000000000004,5.591932E-015,2.500000000000000));
#84=DIRECTION('',(0.0,0.0,-1.0));
#85=DIRECTION('',(1.0,0.0,0.0));
#86=AXIS2_PLACEMENT_3D('',#83,#84,#85);
#87=CIRCLE('',#86,6.250000000000000);
#88=EDGE_CURVE('',#82,#82,#87,.T.);
#89=ORIENTED_EDGE('',*,*,#88,.F.);
#90=EDGE_LOOP('',(#89));
#91=FACE_BOUND('',#90,.T.);
#92=ADVANCED_FACE('',(#80,#91),#69,.F.);
#93=CARTESIAN_POINT('',(-18.999999999999996,7.500000000000002,0.0));
#94=DIRECTION('',(-0.707106781186547,0.707106781186548,0.0));
#95=DIRECTION('',(0.0,0.0,1.0));
#96=AXIS2_PLACEMENT_3D('',#93,#94,#95);
#97=PLANE('',#96);
#98=CARTESIAN_POINT('',(-20.999999999999996,5.500000000000003,2.500000000000000));
#99=VERTEX_POINT('',#98);
#100=CARTESIAN_POINT('',(-16.999999999999996,9.500000000000000,2.500000000000000));
#101=VERTEX_POINT('',#100);
#102=CARTESIAN_POINT('',(-20.999999999999996,5.500000000000003,2.500000000000000));
#103=DIRECTION('',(0.707106781186548,0.707106781186547,0.0));
#104=VECTOR('',#103,5.656854249492378);
#105=LINE('',#102,#104);
#106=EDGE_CURVE('',#99,#101,#105,.T.);
#107=ORIENTED_EDGE('',*,*,#106,.T.);
#108=CARTESIAN_POINT('',(-16.999999999999996,9.500000000000000,-2.500000000000000));
#109=VERTEX_POINT('',#108);
#110=CARTESIAN_POINT('',(-16.999999999999996,9.500000000000000,2.500000000000000));
#111=DIRECTION('',(0.0,0.0,-1.0));
#112=VECTOR('',#111,5.0);
#113=LINE('',#110,#112);
#114=EDGE_CURVE('',#101,#109,#113,.T.);
#115=ORIENTED_EDGE('',*,*,#114,.T.);
#116=CARTESIAN_POINT('',(-20.999999999999996,5.500000000000003,-2.500000000000000));
#117=VERTEX_POINT('',#116);
#118=CARTESIAN_POINT('',(-16.999999999999996,9.500000000000000,-2.500000000000000));
#119=DIRECTION('',(-0.707106781186548,-0.707106781186547,0.0));
#120=VECTOR('',#119,5.656854249492378);
#121=LINE('',#118,#120);
#122=EDGE_CURVE('',#109,#117,#121,.T.);
#123=ORIENTED_EDGE('',*,*,#122,.T.);
#124=CARTESIAN_POINT('',(-20.999999999999996,5.500000000000003,-2.500000000000000));
#125=DIRECTION('',(0.0,0.0,1.0));
#126=VECTOR('',#125,5.0);
#127=LINE('',#124,#126);
#128=EDGE_CURVE('',#117,#99,#127,.T.);
#129=ORIENTED_EDGE('',*,*,#128,.T.);
#130=EDGE_LOOP('',(#107,#115,#123,#129));
#131=FACE_OUTER_BOUND('',#130,.T.);
#132=ADVANCED_FACE('',(#131),#97,.T.);
#133=CARTESIAN_POINT('',(1.110223E-015,0.0,-2.500000000000000));
#134=DIRECTION('',(0.0,0.0,1.0));
#135=DIRECTION('',(1.0,0.0,0.0));
#136=AXIS2_PLACEMENT_3D('',#133,#134,#135);
#137=PLANE('',#136);
#138=ORIENTED_EDGE('',*,*,#122,.F.);
#139=CARTESIAN_POINT('',(17.000000000000007,9.499999999999995,-2.500000000000000));
#140=VERTEX_POINT('',#139);
#141=CARTESIAN_POINT('',(17.000000000000007,9.499999999999995,-2.500000000000000));
#142=DIRECTION('',(-1.0,0.0,0.0));
#143=VECTOR('',#142,34.0);
#144=LINE('',#141,#143);
#145=EDGE_CURVE('',#140,#109,#144,.T.);
#146=ORIENTED_EDGE('',*,*,#145,.F.);
#147=CARTESIAN_POINT('',(21.000000000000007,5.499999999999991,-2.500000000000000));
#148=VERTEX_POINT('',#147);
#149=CARTESIAN_POINT('',(21.000000000000007,5.499999999999991,-2.500000000000000));
#150=DIRECTION('',(-0.707106781186547,0.707106781186548,0.0));
#151=VECTOR('',#150,5.656854249492382);
#152=LINE('',#149,#151);
#153=EDGE_CURVE('',#148,#140,#152,.T.);
#154=ORIENTED_EDGE('',*,*,#153,.F.);
#155=CARTESIAN_POINT('',(21.000000000000007,-5.499999999999994,-2.500000000000000));
#156=VERTEX_POINT('',#155);
#157=CARTESIAN_POINT('',(21.000000000000007,-5.499999999999994,-2.500000000000000));
#158=DIRECTION('',(0.0,1.0,0.0));
#159=VECTOR('',#158,10.999999999999986);
#160=LINE('',#157,#159);
#161=EDGE_CURVE('',#156,#148,#160,.T.);
#162=ORIENTED_EDGE('',*,*,#161,.F.);
#163=CARTESIAN_POINT('',(17.000000000000007,-9.499999999999995,-2.500000000000000));
#164=VERTEX_POINT('',#163);
#165=CARTESIAN_POINT('',(17.000000000000007,-9.499999999999995,-2.500000000000000));
#166=DIRECTION('',(0.707106781186547,0.707106781186548,0.0));
#167=VECTOR('',#166,5.656854249492381);
#168=LINE('',#165,#167);
#169=EDGE_CURVE('',#164,#156,#168,.T.);
#170=ORIENTED_EDGE('',*,*,#169,.F.);
#171=CARTESIAN_POINT('',(-16.999999999999996,-9.500000000000000,-2.500000000000000));
#172=VERTEX_POINT('',#171);
#173=CARTESIAN_POINT('',(-16.999999999999996,-9.500000000000000,-2.500000000000000));
#174=DIRECTION('',(1.0,0.0,0.0));
#175=VECTOR('',#174,34.0);
#176=LINE('',#173,#175);
#177=EDGE_CURVE('',#172,#164,#176,.T.);
#178=ORIENTED_EDGE('',*,*,#177,.F.);
#179=CARTESIAN_POINT('',(-20.999999999999996,-5.500000000000003,-2.500000000000000));
#180=VERTEX_POINT('',#179);
#181=CARTESIAN_POINT('',(-20.999999999999996,-5.500000000000003,-2.500000000000000));
#182=DIRECTION('',(0.707106781186548,-0.707106781186547,0.0));
#183=VECTOR('',#182,5.656854249492378);
#184=LINE('',#181,#183);
#185=EDGE_CURVE('',#180,#172,#184,.T.);
#186=ORIENTED_EDGE('',*,*,#185,.F.);
#187=CARTESIAN_POINT('',(-20.999999999999996,5.500000000000003,-2.500000000000000));
#188=DIRECTION('',(0.0,-1.0,0.0));
#189=VECTOR('',#188,11.000000000000005);
#190=LINE('',#187,#189);
#191=EDGE_CURVE('',#117,#180,#190,.T.);
#192=ORIENTED_EDGE('',*,*,#191,.F.);
#193=EDGE_LOOP('',(#138,#146,#154,#162,#170,#178,#186,#192));
#194=FACE_OUTER_BOUND('',#193,.T.);
#195=ORIENTED_EDGE('',*,*,#77,.T.);
#196=EDGE_LOOP('',(#195));
#197=FACE_BOUND('',#196,.T.);
#198=CARTESIAN_POINT('',(-18.749999999999996,-7.148958E-017,-2.500000000000000));
#199=VERTEX_POINT('',#198);
#200=CARTESIAN_POINT('',(-12.499999999999996,6.938894E-016,-2.500000000000000));
#201=DIRECTION('',(0.0,0.0,1.0));
#202=DIRECTION('',(1.0,0.0,0.0));
#203=AXIS2_PLACEMENT_3D('',#200,#201,#202);
#204=CIRCLE('',#203,6.250000000000000);
#205=EDGE_CURVE('',#199,#199,#204,.T.);
#206=ORIENTED_EDGE('',*,*,#205,.T.);
#207=EDGE_LOOP('',(#206));
#208=FACE_BOUND('',#207,.T.);
#209=ADVANCED_FACE('',(#194,#197,#208),#137,.F.);
#210=CARTESIAN_POINT('',(-20.999999999999996,9.500000000000002,0.0));
#211=DIRECTION('',(0.0,1.0,0.0));
#212=DIRECTION('',(0.0,0.0,1.0));
#213=AXIS2_PLACEMENT_3D('',#210,#211,#212);
#214=PLANE('',#213);
#215=ORIENTED_EDGE('',*,*,#114,.F.);
#216=CARTESIAN_POINT('',(17.000000000000007,9.499999999999995,2.500000000000000));
#217=VERTEX_POINT('',#216);
#218=CARTESIAN_POINT('',(-16.999999999999996,9.500000000000000,2.500000000000000));
#219=DIRECTION('',(1.0,0.0,0.0));
#220=VECTOR('',#219,34.0);
#221=LINE('',#218,#220);
#222=EDGE_CURVE('',#101,#217,#221,.T.);
#223=ORIENTED_EDGE('',*,*,#222,.T.);
#224=CARTESIAN_POINT('',(17.000000000000007,9.499999999999995,-2.500000000000000));
#225=DIRECTION('',(0.0,0.0,1.0));
#226=VECTOR('',#225,5.0);
#227=LINE('',#224,#226);
#228=EDGE_CURVE('',#140,#217,#227,.T.);
#229=ORIENTED_EDGE('',*,*,#228,.F.);
#230=ORIENTED_EDGE('',*,*,#145,.T.);
#231=EDGE_LOOP('',(#215,#223,#229,#230));
#232=FACE_OUTER_BOUND('',#231,.T.);
#233=ADVANCED_FACE('',(#232),#214,.T.);
#234=CARTESIAN_POINT('',(19.000000000000007,7.499999999999993,0.0));
#235=DIRECTION('',(0.707106781186548,0.707106781186547,0.0));
#236=DIRECTION('',(0.0,0.0,-1.0));
#237=AXIS2_PLACEMENT_3D('',#234,#235,#236);
#238=PLANE('',#237);
#239=ORIENTED_EDGE('',*,*,#153,.T.);
#240=ORIENTED_EDGE('',*,*,#228,.T.);
#241=CARTESIAN_POINT('',(21.000000000000007,5.499999999999991,2.500000000000000));
#242=VERTEX_POINT('',#241);
#243=CARTESIAN_POINT('',(17.000000000000007,9.499999999999995,2.500000000000000));
#244=DIRECTION('',(0.707106781186547,-0.707106781186548,0.0));
#245=VECTOR('',#244,5.656854249492382);
#246=LINE('',#243,#245);
#247=EDGE_CURVE('',#217,#242,#246,.T.);
#248=ORIENTED_EDGE('',*,*,#247,.T.);
#249=CARTESIAN_POINT('',(21.000000000000007,5.499999999999991,2.500000000000000));
#250=DIRECTION('',(0.0,0.0,-1.0));
#251=VECTOR('',#250,5.0);
#252=LINE('',#249,#251);
#253=EDGE_CURVE('',#242,#148,#252,.T.);
#254=ORIENTED_EDGE('',*,*,#253,.T.);
#255=EDGE_LOOP('',(#239,#240,#248,#254));
#256=FACE_OUTER_BOUND('',#255,.T.);
#257=ADVANCED_FACE('',(#256),#238,.T.);
#258=CARTESIAN_POINT('',(19.000000000000007,-7.499999999999993,0.0));
#259=DIRECTION('',(0.707106781186548,-0.707106781186547,0.0));
#260=DIRECTION('',(0.0,0.0,-1.0));
#261=AXIS2_PLACEMENT_3D('',#258,#259,#260);
#262=PLANE('',#261);
#263=ORIENTED_EDGE('',*,*,#169,.T.);
#264=CARTESIAN_POINT('',(21.000000000000007,-5.499999999999994,2.500000000000000));
#265=VERTEX_POINT('',#264);
#266=CARTESIAN_POINT('',(21.000000000000007,-5.499999999999994,-2.500000000000000));
#267=DIRECTION('',(0.0,0.0,1.0));
#268=VECTOR('',#267,5.0);
#269=LINE('',#266,#268);
#270=EDGE_CURVE('',#156,#265,#269,.T.);
#271=ORIENTED_EDGE('',*,*,#270,.T.);
#272=CARTESIAN_POINT('',(17.000000000000007,-9.499999999999995,2.500000000000000));
#273=VERTEX_POINT('',#272);
#274=CARTESIAN_POINT('',(21.000000000000007,-5.499999999999994,2.500000000000000));
#275=DIRECTION('',(-0.707106781186547,-0.707106781186548,0.0));
#276=VECTOR('',#275,5.656854249492381);
#277=LINE('',#274,#276);
#278=EDGE_CURVE('',#265,#273,#277,.T.);
#279=ORIENTED_EDGE('',*,*,#278,.T.);
#280=CARTESIAN_POINT('',(17.000000000000007,-9.499999999999995,2.500000000000000));
#281=DIRECTION('',(0.0,0.0,-1.0));
#282=VECTOR('',#281,5.0);
#283=LINE('',#280,#282);
#284=EDGE_CURVE('',#273,#164,#283,.T.);
#285=ORIENTED_EDGE('',*,*,#284,.T.);
#286=EDGE_LOOP('',(#263,#271,#279,#285));
#287=FACE_OUTER_BOUND('',#286,.T.);
#288=ADVANCED_FACE('',(#287),#262,.T.);
#289=CARTESIAN_POINT('',(21.000000000000007,-9.499999999999993,0.0));
#290=DIRECTION('',(0.0,-1.0,0.0));
#291=DIRECTION('',(0.0,0.0,-1.0));
#292=AXIS2_PLACEMENT_3D('',#289,#290,#291);
#293=PLANE('',#292);
#294=ORIENTED_EDGE('',*,*,#284,.F.);
#295=CARTESIAN_POINT('',(-16.999999999999996,-9.500000000000000,2.500000000000000));
#296=VERTEX_POINT('',#295);
#297=CARTESIAN_POINT('',(17.000000000000007,-9.499999999999995,2.500000000000000));
#298=DIRECTION('',(-1.0,0.0,0.0));
#299=VECTOR('',#298,34.0);
#300=LINE('',#297,#299);
#301=EDGE_CURVE('',#273,#296,#300,.T.);
#302=ORIENTED_EDGE('',*,*,#301,.T.);
#303=CARTESIAN_POINT('',(-16.999999999999996,-9.500000000000000,-2.500000000000000));
#304=DIRECTION('',(0.0,0.0,1.0));
#305=VECTOR('',#304,5.0);
#306=LINE('',#303,#305);
#307=EDGE_CURVE('',#172,#296,#306,.T.);
#308=ORIENTED_EDGE('',*,*,#307,.F.);
#309=ORIENTED_EDGE('',*,*,#177,.T.);
#310=EDGE_LOOP('',(#294,#302,#308,#309));
#311=FACE_OUTER_BOUND('',#310,.T.);
#312=ADVANCED_FACE('',(#311),#293,.T.);
#313=CARTESIAN_POINT('',(-18.999999999999996,-7.500000000000002,0.0));
#314=DIRECTION('',(-0.707106781186547,-0.707106781186548,0.0));
#315=DIRECTION('',(0.0,0.0,1.0));
#316=AXIS2_PLACEMENT_3D('',#313,#314,#315);
#317=PLANE('',#316);
#318=ORIENTED_EDGE('',*,*,#185,.T.);
#319=ORIENTED_EDGE('',*,*,#307,.T.);
#320=CARTESIAN_POINT('',(-20.999999999999996,-5.500000000000003,2.500000000000000));
#321=VERTEX_POINT('',#320);
#322=CARTESIAN_POINT('',(-16.999999999999996,-9.500000000000000,2.500000000000000));
#323=DIRECTION('',(-0.707106781186548,0.707106781186547,0.0));
#324=VECTOR('',#323,5.656854249492378);
#325=LINE('',#322,#324);
#326=EDGE_CURVE('',#296,#321,#325,.T.);
#327=ORIENTED_EDGE('',*,*,#326,.T.);
#328=CARTESIAN_POINT('',(-20.999999999999996,-5.500000000000003,2.500000000000000));
#329=DIRECTION('',(0.0,0.0,-1.0));
#330=VECTOR('',#329,5.0);
#331=LINE('',#328,#330);
#332=EDGE_CURVE('',#321,#180,#331,.T.);
#333=ORIENTED_EDGE('',*,*,#332,.T.);
#334=EDGE_LOOP('',(#318,#319,#327,#333));
#335=FACE_OUTER_BOUND('',#334,.T.);
#336=ADVANCED_FACE('',(#335),#317,.T.);
#337=CARTESIAN_POINT('',(-18.749999999999996,-7.148958E-017,2.500000000000000));
#338=CARTESIAN_POINT('',(-18.749999999999996,-7.148958E-017,-2.500000000000000));
#339=CARTESIAN_POINT('',(-18.749999999999993,-6.249999999999998,2.500000000000000));
#340=CARTESIAN_POINT('',(-18.749999999999993,-6.249999999999998,-2.500000000000000));
#341=CARTESIAN_POINT('',(-12.499999999999996,-6.249999999999999,2.500000000000000));
#342=CARTESIAN_POINT('',(-12.499999999999996,-6.249999999999999,-2.500000000000000));
#343=CARTESIAN_POINT('',(-6.249999999999998,-6.249999999999996,2.500000000000000));
#344=CARTESIAN_POINT('',(-6.249999999999998,-6.249999999999996,-2.500000000000000));
#345=CARTESIAN_POINT('',(-6.249999999999996,1.459268E-015,2.500000000000000));
#346=CARTESIAN_POINT('',(-6.249999999999996,1.459268E-015,-2.500000000000000));
#347=CARTESIAN_POINT('',(-6.249999999999998,6.250000000000000,2.500000000000000));
#348=CARTESIAN_POINT('',(-6.249999999999998,6.250000000000000,-2.500000000000000));
#349=CARTESIAN_POINT('',(-12.499999999999996,6.250000000000001,2.500000000000000));
#350=CARTESIAN_POINT('',(-12.499999999999996,6.250000000000001,-2.500000000000000));
#351=CARTESIAN_POINT('',(-18.749999999999993,6.249999999999998,2.500000000000000));
#352=CARTESIAN_POINT('',(-18.749999999999993,6.249999999999998,-2.500000000000000));
#353=CARTESIAN_POINT('',(-18.749999999999996,-7.148958E-017,2.500000000000000));
#354=CARTESIAN_POINT('',(-18.749999999999996,-7.148958E-017,-2.500000000000000));
#362=(BOUNDED_SURFACE()B_SPLINE_SURFACE(1,2,((#337,#339,#341,#343,#345,#347,#349,#351,#353),(#338,#340,#342,#344,#346,#348,#350,#352,#354)),.UNSPECIFIED.,.F.,.T.,.U.)B_SPLINE_SURFACE_WITH_KNOTS((2,2),(3,2,2,2,3),(-7.418894796396563,-6.618894796396563),(0.0,9.817477042468104,19.634954084936208,29.452431127404310,39.269908169872416),.UNSPECIFIED.)GEOMETRIC_REPRESENTATION_ITEM()RATIONAL_B_SPLINE_SURFACE(((1.0,0.707106781186548,1.0,0.707106781186548,1.0,0.707106781186548,1.0,0.707106781186548,1.0),(1.0,0.707106781186548,1.0,0.707106781186548,1.0,0.707106781186548,1.0,0.707106781186548,1.0)))REPRESENTATION_ITEM('')SURFACE());
#363=ORIENTED_EDGE('',*,*,#205,.F.);
#364=EDGE_LOOP('',(#363));
#365=FACE_OUTER_BOUND('',#364,.T.);
#366=CARTESIAN_POINT('',(-6.249999999999996,6.938894E-016,2.500000000000000));
#367=VERTEX_POINT('',#366);
#368=CARTESIAN_POINT('',(-12.499999999999996,6.938894E-016,2.500000000000000));
#369=DIRECTION('',(0.0,0.0,-1.0));
#370=DIRECTION('',(1.0,0.0,0.0));
#371=AXIS2_PLACEMENT_3D('',#368,#369,#370);
#372=CIRCLE('',#371,6.250000000000000);
#373=EDGE_CURVE('',#367,#367,#372,.T.);
#374=ORIENTED_EDGE('',*,*,#373,.F.);
#375=EDGE_LOOP('',(#374));
#376=FACE_BOUND('',#375,.T.);
#377=ADVANCED_FACE('',(#365,#376),#362,.F.);
#378=CARTESIAN_POINT('',(21.000000000000007,9.499999999999993,0.0));
#379=DIRECTION('',(1.0,0.0,0.0));
#380=DIRECTION('',(0.0,0.0,-1.0));
#381=AXIS2_PLACEMENT_3D('',#378,#379,#380);
#382=PLANE('',#381);
#383=ORIENTED_EDGE('',*,*,#253,.F.);
#384=CARTESIAN_POINT('',(21.000000000000007,5.499999999999991,2.500000000000000));
#385=DIRECTION('',(0.0,-1.0,0.0));
#386=VECTOR('',#385,10.999999999999986);
#387=LINE('',#384,#386);
#388=EDGE_CURVE('',#242,#265,#387,.T.);
#389=ORIENTED_EDGE('',*,*,#388,.T.);
#390=ORIENTED_EDGE('',*,*,#270,.F.);
#391=ORIENTED_EDGE('',*,*,#161,.T.);
#392=EDGE_LOOP('',(#383,#389,#390,#391));
#393=FACE_OUTER_BOUND('',#392,.T.);
#394=ADVANCED_FACE('',(#393),#382,.T.);
#395=CARTESIAN_POINT('',(-20.999999999999996,-9.500000000000002,0.0));
#396=DIRECTION('',(-1.0,0.0,0.0));
#397=DIRECTION('',(0.0,0.0,1.0));
#398=AXIS2_PLACEMENT_3D('',#395,#396,#397);
#399=PLANE('',#398);
#400=ORIENTED_EDGE('',*,*,#128,.F.);
#401=ORIENTED_EDGE('',*,*,#191,.T.);
#402=ORIENTED_EDGE('',*,*,#332,.F.);
#403=CARTESIAN_POINT('',(-20.999999999999996,-5.500000000000003,2.500000000000000));
#404=DIRECTION('',(0.0,1.0,0.0));
#405=VECTOR('',#404,11.000000000000005);
#406=LINE('',#403,#405);
#407=EDGE_CURVE('',#321,#99,#406,.T.);
#408=ORIENTED_EDGE('',*,*,#407,.T.);
#409=EDGE_LOOP('',(#400,#401,#402,#408));
#410=FACE_OUTER_BOUND('',#409,.T.);
#411=ADVANCED_FACE('',(#410),#399,.T.);
#412=CARTESIAN_POINT('',(1.110223E-015,0.0,2.500000000000000));
#413=DIRECTION('',(0.0,0.0,1.0));
#414=DIRECTION('',(1.0,0.0,0.0));
#415=AXIS2_PLACEMENT_3D('',#412,#413,#414);
#416=PLANE('',#415);
#417=ORIENTED_EDGE('',*,*,#106,.F.);
#418=ORIENTED_EDGE('',*,*,#407,.F.);
#419=ORIENTED_EDGE('',*,*,#326,.F.);
#420=ORIENTED_EDGE('',*,*,#301,.F.);
#421=ORIENTED_EDGE('',*,*,#278,.F.);
#422=ORIENTED_EDGE('',*,*,#388,.F.);
#423=ORIENTED_EDGE('',*,*,#247,.F.);
#424=ORIENTED_EDGE('',*,*,#222,.F.);
#425=EDGE_LOOP('',(#417,#418,#419,#420,#421,#422,#423,#424));
#426=FACE_OUTER_BOUND('',#425,.T.);
#427=ORIENTED_EDGE('',*,*,#88,.T.);
#428=EDGE_LOOP('',(#427));
#429=FACE_BOUND('',#428,.T.);
#430=ORIENTED_EDGE('',*,*,#373,.T.);
#431=EDGE_LOOP('',(#430));
#432=FACE_BOUND('',#431,.T.);
#433=ADVANCED_FACE('',(#426,#429,#432),#416,.T.);
#434=CLOSED_SHELL('',(#92,#132,#209,#233,#257,#288,#312,#336,#377,#394,#411,#433));
#435=MANIFOLD_SOLID_BREP('',#434);
#436=COLOUR_RGB('Aluminium (gleichmig)',0.847058832645416,0.839215695858002,0.839215695858002);
#437=FILL_AREA_STYLE_COLOUR('Aluminium (gleichmig)',#436);
#438=FILL_AREA_STYLE('Aluminium (gleichmig)',(#437));
#439=SURFACE_STYLE_FILL_AREA(#438);
#440=SURFACE_SIDE_STYLE('Aluminium (gleichmig)',(#439));
#441=SURFACE_STYLE_USAGE(.BOTH.,#440);
#442=PRESENTATION_STYLE_ASSIGNMENT((#441));
#443=STYLED_ITEM('',(#442),#435);
#444=MECHANICAL_DESIGN_GEOMETRIC_PRESENTATION_REPRESENTATION('',(#443),#36);
#445=ADVANCED_BREP_SHAPE_REPRESENTATION('ABSR',(#435),#36);
#446=SHAPE_REPRESENTATION_RELATIONSHIP('SRR','None',#445,#41);
ENDSEC;
END-ISO-10303-21;
