ISO-10303-21;
HEADER;
/* Generated by software containing ST-Developer
 * from STEP Tools, Inc. (www.steptools.com) 
 */

FILE_DESCRIPTION(
/* description */ ('GK-Absteckh\X\FClse 12,5'),
/* implementation_level */ '2;1');

FILE_NAME(
/* name */ 'Q:\\ExterneArtikel_Webseite_Palkat\\SV\\SV_step\\SV1451N_A.
stp',
/* time_stamp */ '2015-11-30T14:41:21+01:00',
/* author */ ('Marina Kaa'),
/* organization */ (''),
/* preprocessor_version */ 'ST-DEVELOPER v15.6',
/* originating_system */ 'Autodesk Inventor 2015',
/* authorisation */ '');

FILE_SCHEMA (('AUTOMOTIVE_DESIGN { 1 0 10303 214 3 1 1 }'));
ENDSEC;

DATA;
#10=MECHANICAL_DESIGN_GEOMETRIC_PRESENTATION_REPRESENTATION('',(#25,#24),
#282);
#11=ITEM_DEFINED_TRANSFORMATION($,$,#152,#178);
#12=ITEM_DEFINED_TRANSFORMATION($,$,#173,#179);
#13=(
REPRESENTATION_RELATIONSHIP($,$,#297,#299)
REPRESENTATION_RELATIONSHIP_WITH_TRANSFORMATION(#11)
SHAPE_REPRESENTATION_RELATIONSHIP()
);
#14=(
REPRESENTATION_RELATIONSHIP($,$,#298,#299)
REPRESENTATION_RELATIONSHIP_WITH_TRANSFORMATION(#12)
SHAPE_REPRESENTATION_RELATIONSHIP()
);
#15=CONTEXT_DEPENDENT_SHAPE_REPRESENTATION(#13,#295);
#16=CONTEXT_DEPENDENT_SHAPE_REPRESENTATION(#14,#296);
#17=NEXT_ASSEMBLY_USAGE_OCCURRENCE('ME1501451_A:1',$,$,#303,#301,$);
#18=NEXT_ASSEMBLY_USAGE_OCCURRENCE('MK4111020_A:1',$,$,#303,#302,$);
#19=TOROIDAL_SURFACE('',#174,6.5,1.);
#20=SHAPE_REPRESENTATION_RELATIONSHIP('SRR','None',#297,#22);
#21=SHAPE_REPRESENTATION_RELATIONSHIP('SRR','None',#298,#23);
#22=ADVANCED_BREP_SHAPE_REPRESENTATION($,(#26),#279);
#23=ADVANCED_BREP_SHAPE_REPRESENTATION($,(#27),#280);
#24=STYLED_ITEM('',(#316),#26);
#25=STYLED_ITEM('',(#317),#27);
#26=MANIFOLD_SOLID_BREP('Volumenk\X\F6rper1',#150);
#27=MANIFOLD_SOLID_BREP('Volumenk\X\F6rper1',#151);
#28=PLANE('',#158);
#29=PLANE('',#163);
#30=PLANE('',#168);
#31=PLANE('',#172);
#32=CYLINDRICAL_SURFACE('',#156,6.25);
#33=CYLINDRICAL_SURFACE('',#165,6.25);
#34=CYLINDRICAL_SURFACE('',#167,4.);
#35=CYLINDRICAL_SURFACE('',#170,5.95);
#36=FACE_BOUND('',#58,.T.);
#37=FACE_BOUND('',#60,.T.);
#38=FACE_BOUND('',#62,.T.);
#39=FACE_BOUND('',#64,.T.);
#40=FACE_BOUND('',#66,.T.);
#41=FACE_BOUND('',#68,.T.);
#42=FACE_BOUND('',#70,.T.);
#43=FACE_BOUND('',#72,.T.);
#44=FACE_BOUND('',#74,.T.);
#45=FACE_BOUND('',#76,.T.);
#46=FACE_OUTER_BOUND('',#57,.T.);
#47=FACE_OUTER_BOUND('',#59,.T.);
#48=FACE_OUTER_BOUND('',#61,.T.);
#49=FACE_OUTER_BOUND('',#63,.T.);
#50=FACE_OUTER_BOUND('',#65,.T.);
#51=FACE_OUTER_BOUND('',#67,.T.);
#52=FACE_OUTER_BOUND('',#69,.T.);
#53=FACE_OUTER_BOUND('',#71,.T.);
#54=FACE_OUTER_BOUND('',#73,.T.);
#55=FACE_OUTER_BOUND('',#75,.T.);
#56=FACE_OUTER_BOUND('',#77,.T.);
#57=EDGE_LOOP('',(#113));
#58=EDGE_LOOP('',(#114));
#59=EDGE_LOOP('',(#115));
#60=EDGE_LOOP('',(#116));
#61=EDGE_LOOP('',(#117));
#62=EDGE_LOOP('',(#118));
#63=EDGE_LOOP('',(#119));
#64=EDGE_LOOP('',(#120));
#65=EDGE_LOOP('',(#121));
#66=EDGE_LOOP('',(#122));
#67=EDGE_LOOP('',(#123));
#68=EDGE_LOOP('',(#124));
#69=EDGE_LOOP('',(#125));
#70=EDGE_LOOP('',(#126));
#71=EDGE_LOOP('',(#127));
#72=EDGE_LOOP('',(#128));
#73=EDGE_LOOP('',(#129));
#74=EDGE_LOOP('',(#130));
#75=EDGE_LOOP('',(#131));
#76=EDGE_LOOP('',(#132));
#77=EDGE_LOOP('',(#133,#135,#134,#136));
#78=CIRCLE('',#154,6.25);
#79=CIRCLE('',#155,5.75);
#80=CIRCLE('',#157,6.25);
#81=CIRCLE('',#159,4.);
#82=CIRCLE('',#161,5.75);
#83=CIRCLE('',#162,6.25);
#84=CIRCLE('',#164,4.);
#85=CIRCLE('',#166,6.25);
#86=CIRCLE('',#169,5.95);
#87=CIRCLE('',#171,5.95);
#88=CIRCLE('',#175,1.);
#89=CIRCLE('',#176,7.5);
#90=VERTEX_POINT('',#238);
#91=VERTEX_POINT('',#240);
#92=VERTEX_POINT('',#243);
#93=VERTEX_POINT('',#246);
#94=VERTEX_POINT('',#249);
#95=VERTEX_POINT('',#251);
#96=VERTEX_POINT('',#254);
#97=VERTEX_POINT('',#257);
#98=VERTEX_POINT('',#261);
#99=VERTEX_POINT('',#264);
#100=VERTEX_POINT('',#271);
#101=EDGE_CURVE('',#90,#90,#78,.T.);
#102=EDGE_CURVE('',#91,#91,#79,.T.);
#103=EDGE_CURVE('',#92,#92,#80,.T.);
#104=EDGE_CURVE('',#93,#93,#81,.T.);
#105=EDGE_CURVE('',#94,#94,#82,.T.);
#106=EDGE_CURVE('',#95,#95,#83,.T.);
#107=EDGE_CURVE('',#96,#96,#84,.T.);
#108=EDGE_CURVE('',#97,#97,#85,.T.);
#109=EDGE_CURVE('',#98,#98,#86,.T.);
#110=EDGE_CURVE('',#99,#99,#87,.T.);
#111=EDGE_CURVE('',#100,#100,#88,.T.);
#112=EDGE_CURVE('',#100,#100,#89,.T.);
#113=ORIENTED_EDGE('',*,*,#101,.T.);
#114=ORIENTED_EDGE('',*,*,#102,.T.);
#115=ORIENTED_EDGE('',*,*,#103,.T.);
#116=ORIENTED_EDGE('',*,*,#101,.F.);
#117=ORIENTED_EDGE('',*,*,#102,.F.);
#118=ORIENTED_EDGE('',*,*,#104,.T.);
#119=ORIENTED_EDGE('',*,*,#105,.T.);
#120=ORIENTED_EDGE('',*,*,#106,.T.);
#121=ORIENTED_EDGE('',*,*,#105,.F.);
#122=ORIENTED_EDGE('',*,*,#107,.T.);
#123=ORIENTED_EDGE('',*,*,#108,.F.);
#124=ORIENTED_EDGE('',*,*,#106,.F.);
#125=ORIENTED_EDGE('',*,*,#104,.F.);
#126=ORIENTED_EDGE('',*,*,#107,.F.);
#127=ORIENTED_EDGE('',*,*,#108,.T.);
#128=ORIENTED_EDGE('',*,*,#109,.F.);
#129=ORIENTED_EDGE('',*,*,#110,.F.);
#130=ORIENTED_EDGE('',*,*,#109,.T.);
#131=ORIENTED_EDGE('',*,*,#103,.F.);
#132=ORIENTED_EDGE('',*,*,#110,.T.);
#133=ORIENTED_EDGE('',*,*,#111,.T.);
#134=ORIENTED_EDGE('',*,*,#111,.F.);
#135=ORIENTED_EDGE('',*,*,#112,.T.);
#136=ORIENTED_EDGE('',*,*,#112,.F.);
#137=CONICAL_SURFACE('',#153,6.,45.0000000000001);
#138=CONICAL_SURFACE('',#160,6.,45.0000000000001);
#139=ADVANCED_FACE('',(#46,#36),#137,.T.);
#140=ADVANCED_FACE('',(#47,#37),#32,.T.);
#141=ADVANCED_FACE('',(#48,#38),#28,.T.);
#142=ADVANCED_FACE('',(#49,#39),#138,.T.);
#143=ADVANCED_FACE('',(#50,#40),#29,.T.);
#144=ADVANCED_FACE('',(#51,#41),#33,.T.);
#145=ADVANCED_FACE('',(#52,#42),#34,.F.);
#146=ADVANCED_FACE('',(#53,#43),#30,.T.);
#147=ADVANCED_FACE('',(#54,#44),#35,.T.);
#148=ADVANCED_FACE('',(#55,#45),#31,.T.);
#149=ADVANCED_FACE('',(#56),#19,.T.);
#150=CLOSED_SHELL('',(#139,#140,#141,#142,#143,#144,#145,#146,#147,#148));
#151=CLOSED_SHELL('',(#149));
#152=AXIS2_PLACEMENT_3D('placement',#236,#180,#181);
#153=AXIS2_PLACEMENT_3D('',#237,#182,#183);
#154=AXIS2_PLACEMENT_3D('',#239,#184,#185);
#155=AXIS2_PLACEMENT_3D('',#241,#186,#187);
#156=AXIS2_PLACEMENT_3D('',#242,#188,#189);
#157=AXIS2_PLACEMENT_3D('',#244,#190,#191);
#158=AXIS2_PLACEMENT_3D('',#245,#192,#193);
#159=AXIS2_PLACEMENT_3D('',#247,#194,#195);
#160=AXIS2_PLACEMENT_3D('',#248,#196,#197);
#161=AXIS2_PLACEMENT_3D('',#250,#198,#199);
#162=AXIS2_PLACEMENT_3D('',#252,#200,#201);
#163=AXIS2_PLACEMENT_3D('',#253,#202,#203);
#164=AXIS2_PLACEMENT_3D('',#255,#204,#205);
#165=AXIS2_PLACEMENT_3D('',#256,#206,#207);
#166=AXIS2_PLACEMENT_3D('',#258,#208,#209);
#167=AXIS2_PLACEMENT_3D('',#259,#210,#211);
#168=AXIS2_PLACEMENT_3D('',#260,#212,#213);
#169=AXIS2_PLACEMENT_3D('',#262,#214,#215);
#170=AXIS2_PLACEMENT_3D('',#263,#216,#217);
#171=AXIS2_PLACEMENT_3D('',#265,#218,#219);
#172=AXIS2_PLACEMENT_3D('',#266,#220,#221);
#173=AXIS2_PLACEMENT_3D('placement',#267,#222,#223);
#174=AXIS2_PLACEMENT_3D('',#268,#224,#225);
#175=AXIS2_PLACEMENT_3D('',#269,#226,#227);
#176=AXIS2_PLACEMENT_3D('',#270,#228,#229);
#177=AXIS2_PLACEMENT_3D('placement',#272,#230,#231);
#178=AXIS2_PLACEMENT_3D('',#273,#232,#233);
#179=AXIS2_PLACEMENT_3D('',#274,#234,#235);
#180=DIRECTION('axis',(0.,0.,1.));
#181=DIRECTION('refdir',(1.,0.,0.));
#182=DIRECTION('center_axis',(0.,0.,1.));
#183=DIRECTION('ref_axis',(0.,-1.,0.));
#184=DIRECTION('center_axis',(0.,0.,-1.));
#185=DIRECTION('ref_axis',(0.,-1.,0.));
#186=DIRECTION('center_axis',(0.,0.,1.));
#187=DIRECTION('ref_axis',(0.,-1.,0.));
#188=DIRECTION('center_axis',(0.,0.,-1.));
#189=DIRECTION('ref_axis',(0.,1.,0.));
#190=DIRECTION('center_axis',(0.,0.,-1.));
#191=DIRECTION('ref_axis',(0.,1.,0.));
#192=DIRECTION('center_axis',(0.,0.,-1.));
#193=DIRECTION('ref_axis',(-1.,0.,0.));
#194=DIRECTION('center_axis',(0.,0.,1.));
#195=DIRECTION('ref_axis',(1.,0.,0.));
#196=DIRECTION('center_axis',(0.,0.,-1.));
#197=DIRECTION('ref_axis',(0.,-1.,0.));
#198=DIRECTION('center_axis',(0.,0.,-1.));
#199=DIRECTION('ref_axis',(0.,-1.,0.));
#200=DIRECTION('center_axis',(0.,0.,1.));
#201=DIRECTION('ref_axis',(0.,-1.,0.));
#202=DIRECTION('center_axis',(0.,0.,1.));
#203=DIRECTION('ref_axis',(1.,0.,0.));
#204=DIRECTION('center_axis',(0.,0.,-1.));
#205=DIRECTION('ref_axis',(1.,0.,0.));
#206=DIRECTION('center_axis',(0.,0.,-1.));
#207=DIRECTION('ref_axis',(0.,1.,0.));
#208=DIRECTION('center_axis',(0.,0.,-1.));
#209=DIRECTION('ref_axis',(0.,1.,0.));
#210=DIRECTION('center_axis',(0.,0.,1.));
#211=DIRECTION('ref_axis',(1.,0.,0.));
#212=DIRECTION('center_axis',(0.,0.,-1.));
#213=DIRECTION('ref_axis',(-1.,0.,0.));
#214=DIRECTION('center_axis',(0.,0.,-1.));
#215=DIRECTION('ref_axis',(0.,1.,0.));
#216=DIRECTION('center_axis',(0.,0.,-1.));
#217=DIRECTION('ref_axis',(0.,1.,0.));
#218=DIRECTION('center_axis',(0.,0.,-1.));
#219=DIRECTION('ref_axis',(0.,1.,0.));
#220=DIRECTION('center_axis',(0.,0.,1.));
#221=DIRECTION('ref_axis',(1.,0.,0.));
#222=DIRECTION('axis',(0.,0.,1.));
#223=DIRECTION('refdir',(1.,0.,0.));
#224=DIRECTION('center_axis',(0.,0.,-1.));
#225=DIRECTION('ref_axis',(-1.,0.,0.));
#226=DIRECTION('center_axis',(0.,-1.,0.));
#227=DIRECTION('ref_axis',(-1.,0.,0.));
#228=DIRECTION('center_axis',(0.,0.,1.));
#229=DIRECTION('ref_axis',(-1.,0.,0.));
#230=DIRECTION('axis',(0.,0.,1.));
#231=DIRECTION('refdir',(1.,0.,0.));
#232=DIRECTION('',(0.,0.,1.));
#233=DIRECTION('',(1.,0.,0.));
#234=DIRECTION('',(0.,0.,-1.));
#235=DIRECTION('',(1.,0.,0.));
#236=CARTESIAN_POINT('',(0.,0.,0.));
#237=CARTESIAN_POINT('Origin',(0.,0.,-4.25));
#238=CARTESIAN_POINT('',(7.65378971138986E-16,6.25,-4.));
#239=CARTESIAN_POINT('Origin',(0.,0.,-4.));
#240=CARTESIAN_POINT('',(-7.04148653447867E-16,5.75,-4.5));
#241=CARTESIAN_POINT('Origin',(0.,0.,-4.5));
#242=CARTESIAN_POINT('Origin',(0.,0.,-2.525));
#243=CARTESIAN_POINT('',(0.,6.25,-0.55));
#244=CARTESIAN_POINT('Origin',(0.,0.,-0.55));
#245=CARTESIAN_POINT('Origin',(0.,3.125,-4.5));
#246=CARTESIAN_POINT('',(-4.,-4.89842541528951E-16,-4.5));
#247=CARTESIAN_POINT('Origin',(0.,0.,-4.5));
#248=CARTESIAN_POINT('Origin',(0.,0.,4.25));
#249=CARTESIAN_POINT('',(7.04148653447867E-16,5.75,4.5));
#250=CARTESIAN_POINT('Origin',(0.,0.,4.5));
#251=CARTESIAN_POINT('',(-7.65378971138986E-16,6.25,4.));
#252=CARTESIAN_POINT('Origin',(0.,0.,4.));
#253=CARTESIAN_POINT('Origin',(0.,3.125,4.5));
#254=CARTESIAN_POINT('',(4.,0.,4.5));
#255=CARTESIAN_POINT('Origin',(0.,0.,4.5));
#256=CARTESIAN_POINT('Origin',(0.,0.,2.525));
#257=CARTESIAN_POINT('',(0.,6.25,0.55));
#258=CARTESIAN_POINT('Origin',(0.,0.,0.549999999999999));
#259=CARTESIAN_POINT('Origin',(0.,0.,-15.3368344248774));
#260=CARTESIAN_POINT('Origin',(0.,6.1,0.55));
#261=CARTESIAN_POINT('',(0.,5.95,0.55));
#262=CARTESIAN_POINT('Origin',(0.,0.,0.55));
#263=CARTESIAN_POINT('Origin',(0.,0.,0.));
#264=CARTESIAN_POINT('',(0.,5.95,-0.55));
#265=CARTESIAN_POINT('Origin',(0.,0.,-0.55));
#266=CARTESIAN_POINT('Origin',(0.,6.1,-0.55));
#267=CARTESIAN_POINT('',(0.,0.,0.));
#268=CARTESIAN_POINT('Origin',(0.,0.,0.));
#269=CARTESIAN_POINT('Origin',(-6.5,0.,0.));
#270=CARTESIAN_POINT('Origin',(0.,0.,0.));
#271=CARTESIAN_POINT('',(-7.5,0.,0.));
#272=CARTESIAN_POINT('',(0.,0.,0.));
#273=CARTESIAN_POINT('',(0.,0.,0.));
#274=CARTESIAN_POINT('',(0.,0.,0.));
#275=UNCERTAINTY_MEASURE_WITH_UNIT(LENGTH_MEASURE(0.01),#283,
'DISTANCE_ACCURACY_VALUE',
'Maximum model space distance between geometric entities at asserted c
onnectivities');
#276=UNCERTAINTY_MEASURE_WITH_UNIT(LENGTH_MEASURE(0.01),#283,
'DISTANCE_ACCURACY_VALUE',
'Maximum model space distance between geometric entities at asserted c
onnectivities');
#277=UNCERTAINTY_MEASURE_WITH_UNIT(LENGTH_MEASURE(0.01),#283,
'DISTANCE_ACCURACY_VALUE',
'Maximum model space distance between geometric entities at asserted c
onnectivities');
#278=UNCERTAINTY_MEASURE_WITH_UNIT(LENGTH_MEASURE(1.E-6),#283,
'DISTANCE_ACCURACY_VALUE',
'Maximum model space distance between geometric entities at asserted c
onnectivities');
#279=(
GEOMETRIC_REPRESENTATION_CONTEXT(3)
GLOBAL_UNCERTAINTY_ASSIGNED_CONTEXT((#275))
GLOBAL_UNIT_ASSIGNED_CONTEXT((#283,#286,#284))
REPRESENTATION_CONTEXT('','3D')
);
#280=(
GEOMETRIC_REPRESENTATION_CONTEXT(3)
GLOBAL_UNCERTAINTY_ASSIGNED_CONTEXT((#276))
GLOBAL_UNIT_ASSIGNED_CONTEXT((#283,#286,#284))
REPRESENTATION_CONTEXT('','3D')
);
#281=(
GEOMETRIC_REPRESENTATION_CONTEXT(3)
GLOBAL_UNCERTAINTY_ASSIGNED_CONTEXT((#277))
GLOBAL_UNIT_ASSIGNED_CONTEXT((#283,#286,#284))
REPRESENTATION_CONTEXT('','3D')
);
#282=(
GEOMETRIC_REPRESENTATION_CONTEXT(3)
GLOBAL_UNCERTAINTY_ASSIGNED_CONTEXT((#278))
GLOBAL_UNIT_ASSIGNED_CONTEXT((#283,#286,#284))
REPRESENTATION_CONTEXT('','3D')
);
#283=(
LENGTH_UNIT()
NAMED_UNIT(*)
SI_UNIT(.MILLI.,.METRE.)
);
#284=(
NAMED_UNIT(*)
SI_UNIT($,.STERADIAN.)
SOLID_ANGLE_UNIT()
);
#285=DIMENSIONAL_EXPONENTS(0.,0.,0.,0.,0.,0.,0.);
#286=(
CONVERSION_BASED_UNIT('degree',#288)
NAMED_UNIT(#285)
PLANE_ANGLE_UNIT()
);
#287=(
NAMED_UNIT(*)
PLANE_ANGLE_UNIT()
SI_UNIT($,.RADIAN.)
);
#288=PLANE_ANGLE_MEASURE_WITH_UNIT(PLANE_ANGLE_MEASURE(0.01745329252),#287);
#289=SHAPE_DEFINITION_REPRESENTATION(#292,#297);
#290=SHAPE_DEFINITION_REPRESENTATION(#293,#298);
#291=SHAPE_DEFINITION_REPRESENTATION(#294,#299);
#292=PRODUCT_DEFINITION_SHAPE('',$,#301);
#293=PRODUCT_DEFINITION_SHAPE('',$,#302);
#294=PRODUCT_DEFINITION_SHAPE('',$,#303);
#295=PRODUCT_DEFINITION_SHAPE($,$,#17);
#296=PRODUCT_DEFINITION_SHAPE($,$,#18);
#297=SHAPE_REPRESENTATION('',(#152),#279);
#298=SHAPE_REPRESENTATION('',(#173),#280);
#299=SHAPE_REPRESENTATION('',(#177,#178,#179),#281);
#300=PRODUCT_DEFINITION_CONTEXT('part definition',#311,'design');
#301=PRODUCT_DEFINITION('ME1501451_A','ME1501451_A',#304,#300);
#302=PRODUCT_DEFINITION('MK4111020_A','MK4111020_A',#305,#300);
#303=PRODUCT_DEFINITION('SV1451N_A','SV1451N_A',#306,#300);
#304=PRODUCT_DEFINITION_FORMATION('',$,#313);
#305=PRODUCT_DEFINITION_FORMATION('',$,#314);
#306=PRODUCT_DEFINITION_FORMATION('',$,#315);
#307=PRODUCT_RELATED_PRODUCT_CATEGORY('ME1501451_A','ME1501451_A',(#313));
#308=PRODUCT_RELATED_PRODUCT_CATEGORY('MK4111020_A','MK4111020_A',(#314));
#309=PRODUCT_RELATED_PRODUCT_CATEGORY('SV1451N_A','SV1451N_A',(#315));
#310=APPLICATION_PROTOCOL_DEFINITION('international standard',
'automotive_design',2009,#311);
#311=APPLICATION_CONTEXT(
'Core Data for Automotive Mechanical Design Process');
#312=PRODUCT_CONTEXT('part definition',#311,'mechanical');
#313=PRODUCT('ME1501451_A','ME1501451_A',$,(#312));
#314=PRODUCT('MK4111020_A','MK4111020_A',$,(#312));
#315=PRODUCT('SV1451N_A','SV1451N_A',$,(#312));
#316=PRESENTATION_STYLE_ASSIGNMENT((#318));
#317=PRESENTATION_STYLE_ASSIGNMENT((#319));
#318=SURFACE_STYLE_USAGE(.BOTH.,#320);
#319=SURFACE_STYLE_USAGE(.BOTH.,#321);
#320=SURFACE_SIDE_STYLE($,(#322));
#321=SURFACE_SIDE_STYLE($,(#323));
#322=SURFACE_STYLE_FILL_AREA(#324);
#323=SURFACE_STYLE_FILL_AREA(#325);
#324=FILL_AREA_STYLE($,(#326));
#325=FILL_AREA_STYLE($,(#327));
#326=FILL_AREA_STYLE_COLOUR($,#328);
#327=FILL_AREA_STYLE_COLOUR($,#329);
#328=COLOUR_RGB('',0.847058823529412,0.83921568627451,0.83921568627451);
#329=COLOUR_RGB('',0.32156862745098,0.32156862745098,0.32156862745098);
ENDSEC;
END-ISO-10303-21;
