                                                                        S      1
,,22HZuganker G 50 M12 lang,9HSV7308V_A,22HAutodesk Inventor 2015,7HunknG      1
own,32,38,7,99,15,,1.,2,2HMM,1,0.08,15H20151127.085232,0.01,10000.,,,11,G      2
0,;                                                                     G      3
     186       1                                                00000000D      1
     186             -73       1       0                               0D      2
     514       2                                                00010000D      3
     514                       1       1                               0D      4
     510       3                                                00010000D      5
     510             -73       1       1                               0D      6
     510       4                                                00010000D      7
     510             -73       1       1                               0D      8
     510       5                                                00010000D      9
     510             -73       1       1                               0D     10
     510       6                                                00010000D     11
     510             -73       1       1                               0D     12
     510       7                                                00010000D     13
     510             -73       1       1                               0D     14
     510       8                                                00010000D     15
     510             -73       1       1                               0D     16
     508       9                                                00010000D     17
     508                       1       1                               0D     18
     508      10                                                00010000D     19
     508                       2       1                               0D     20
     508      12                                                00010000D     21
     508                       1       1                               0D     22
     508      13                                                00010000D     23
     508                       1       1                               0D     24
     508      14                                                00010000D     25
     508                       1       1                               0D     26
     508      15                                                00010000D     27
     508                       1       1                               0D     28
     508      16                                                00010000D     29
     508                       1       1                               0D     30
     126      17                                                00010000D     31
     126       0              12       0                               0D     32
     126      29                                                00010000D     33
     126       0               4       0                               0D     34
     126      33                                                00010000D     35
     126       0               6       0                               0D     36
     126      39                                                00010000D     37
     126       0               7       0                               0D     38
     126      46                                                00010000D     39
     126       0               4       0                               0D     40
     126      50                                                00010000D     41
     126       0               8       0                               0D     42
     126      58                                                00010000D     43
     126       0               8       0                               0D     44
     126      66                                                00010000D     45
     126       0              38       0                               0D     46
     126     104                                                00010000D     47
     126       0              38       0                               0D     48
     126     142                                                00010000D     49
     126       0               4       0                               0D     50
     126     146                                                00010000D     51
     126       0               9       0                               0D     52
     126     155                                                00010000D     53
     126       0               4       0                               0D     54
     128     159                                                00010000D     55
     128       0     -73      18       0                               0D     56
     128     177                                                00010000D     57
     128       0     -73      17       0                               0D     58
     128     194                                                00010000D     59
     128       0     -73       7       0                               0D     60
     128     201                                                00010000D     61
     128       0     -73      19       0                               0D     62
     128     220                                                00010000D     63
     128       0     -73       2       0                               0D     64
     128     222                                                00010000D     65
     128       0     -73      15       0                               0D     66
     502     237                                                00010000D     67
     502                       6       1                               0D     68
     504     243                                                00010001D     69
     504                       3       1                               0D     70
     406     246                                                00000000D     71
     406                       1      15                               0D     72
     314     247                                                00000200D     73
     314                       1       0                               0D     74
186,3,1,0,0,1,71;                                                      1P      1
514,6,5,1,7,1,9,1,11,1,13,1,15,1;                                      3P      2
510,55,1,1,17;                                                         5P      3
510,57,2,1,19,21;                                                      7P      4
510,59,1,1,23;                                                         9P      5
510,61,1,1,25;                                                        11P      6
510,63,1,1,27;                                                        13P      7
510,65,1,1,29;                                                        15P      8
508,5,0,69,1,1,0,0,69,2,1,0,0,69,3,1,0,0,69,4,1,0,0,69,2,0,0;         17P      9
508,6,0,69,3,0,0,0,69,4,0,0,0,69,5,1,0,0,69,6,0,0,0,69,7,0,0,0,       19P     10
69,5,0,0;                                                             19P     11
508,2,0,69,8,1,0,0,69,9,1,0;                                          21P     12
508,1,0,69,1,0,0;                                                     23P     13
508,5,0,69,6,1,0,0,69,7,1,0,0,69,10,1,0,0,69,11,1,0,0,69,10,0,0;      25P     14
508,1,0,69,11,0,0;                                                    27P     15
508,4,0,69,12,1,0,0,69,9,0,0,0,69,8,0,0,0,69,12,0,0;                  29P     16
126,8,2,0,1,0,0,-3.14159265358979,-3.14159265358979,                  31P     17
-3.14159265358979,-1.5707963267949,-1.5707963267949,0.,0.,            31P     18
1.5707963267949,1.5707963267949,3.14159265358979,                     31P     19
3.14159265358979,3.14159265358979,1.,0.707106781186547,1.,            31P     20
0.707106781186547,1.,0.707106781186547,1.,0.707106781186547,1.,       31P     21
-6.12323399573678D-16,5.00000000000001,-60.,-5.00000000000001,        31P     22
5.00000000000001,-60.,-5.00000000000001,-3.06161699786839D-16,        31P     23
-60.,-5.00000000000001,-5.00000000000001,-60.,0.,                     31P     24
-5.00000000000001,-60.,5.00000000000001,-5.00000000000001,-60.,       31P     25
5.00000000000001,-3.06161699786839D-16,-60.,5.00000000000001,         31P     26
5.00000000000001,-60.,6.12323399573678D-16,5.00000000000001,          31P     27
-60.,-3.14159265358979,3.14159265358979,0.,0.,0.;                     31P     28
126,1,1,0,0,1,0,-0.128564869306645,-0.128564869306645,                33P     29
0.128564869306645,0.128564869306645,1.,1.,0.,5.00000000000001,        33P     30
-60.,0.,6.00000000000001,-59.,-0.128564869306645,                     33P     31
0.128564869306645,0.,0.,0.;                                           33P     32
126,4,2,0,0,0,0,-3.14159265358979,-3.14159265358979,                  35P     33
-3.14159265358979,-1.5707963267949,-1.5707963267949,0.,0.,0.,1.,      35P     34
0.707106781186548,1.,0.707106781186547,1.,7.34788079488412D-16,       35P     35
6.00000000000001,-59.,6.00000000000001,6.,-59.,6.00000000000001,      35P     36
-3.67394039744206D-16,-59.,6.00000000000001,-6.00000000000001,        35P     37
-59.,0.,-6.00000000000001,-59.,-3.14159265358979,0.,0.,0.,0.;         35P     38
126,4,2,0,0,0,0,0.,0.,0.,1.5707963267949,1.5707963267949,             37P     39
3.14159265358979,3.14159265358979,3.14159265358979,1.,                37P     40
0.707106781186547,1.,0.707106781186548,1.,0.,-6.00000000000001,       37P     41
-59.,-6.00000000000001,-6.00000000000001,-59.,-6.00000000000001,      37P     42
-3.67394039744206D-16,-59.,-6.00000000000001,6.,-59.,                 37P     43
-7.34788079488412D-16,6.00000000000001,-59.,0.,3.14159265358979,      37P     44
0.,0.,0.;                                                             37P     45
126,1,1,0,0,1,0,-2.41666666666666,-2.41666666666666,                  39P     46
7.24999999999999,7.24999999999999,1.,1.,0.,-6.00000000000001,         39P     47
-59.,0.,-6.00000000000001,-0.999999999999996,-2.41666666666666,       39P     48
7.24999999999999,0.,0.,0.;                                            39P     49
126,4,2,0,0,0,0,-3.14159265358979,-3.14159265358979,                  41P     50
-3.14159265358979,-1.5707963267949,-1.5707963267949,0.,0.,0.,1.,      41P     51
0.707106781186548,1.,0.707106781186547,1.,-7.34788079488412D-16,      41P     52
6.00000000000001,-0.999999999999996,-6.00000000000001,6.,             41P     53
-0.999999999999996,-6.00000000000001,-3.67394039744206D-16,           41P     54
-0.999999999999996,-6.00000000000001,-6.00000000000001,               41P     55
-0.999999999999996,0.,-6.00000000000001,-0.999999999999996,           41P     56
-3.14159265358979,0.,0.,0.,0.;                                        41P     57
126,4,2,0,0,0,0,0.,0.,0.,1.5707963267949,1.5707963267949,             43P     58
3.14159265358979,3.14159265358979,3.14159265358979,1.,                43P     59
0.707106781186547,1.,0.707106781186548,1.,0.,-6.00000000000001,       43P     60
-0.999999999999996,6.00000000000001,-6.00000000000001,                43P     61
-0.999999999999996,6.00000000000001,-3.67394039744206D-16,            43P     62
-0.999999999999996,6.00000000000001,6.,-0.999999999999996,            43P     63
7.34788079488412D-16,6.00000000000001,-0.999999999999996,0.,          43P     64
3.14159265358979,0.,0.,0.;                                            43P     65
126,25,3,0,0,1,0,0.791033343779221,0.791033343779221,                 45P     66
0.791033343779221,0.791033343779221,0.886690442504063,                45P     67
0.886690442504063,0.982347541228905,0.982347541228905,                45P     68
1.09128518644051,1.09128518644051,1.20022283165212,                   45P     69
1.20022283165212,1.39114475960528,1.39114475960528,                   45P     70
1.58206668755844,1.58206668755844,1.7729886155116,                    45P     71
1.7729886155116,1.96391054346476,1.96391054346476,                    45P     72
2.07284818867637,2.07284818867637,2.18178583388798,                   45P     73
2.18178583388798,2.27744293261282,2.27744293261282,                   45P     74
2.37310003133766,2.37310003133766,2.37310003133766,                   45P     75
2.37310003133766,1.,1.,1.,1.,1.,1.,1.,1.,1.,1.,1.,1.,1.,1.,1.,        45P     76
1.,1.,1.,1.,1.,1.,1.,1.,1.,1.,1.,6.00000000000001,                    45P     77
-6.93889390390723D-17,-19.,6.00000000000001,-0.318856995749474,       45P     78
-19.,5.97247876080393,-0.65958113560018,-18.9453305576781,            45P     79
5.86633898118755,-1.30062152532763,-18.7300799728422,                 45P     80
5.78850078199156,-1.601397891709,-18.5704864095542,                   45P     81
5.61201747597235,-2.14420702043316,-18.1972411882743,                 45P     82
5.49487867836402,-2.42533765204821,-17.9434119030741,                 45P     83
5.24940422435544,-2.91885404607907,-17.3774909602401,                 45P     84
5.1217924756341,-3.13196013099747,-17.0657139677627,                  45P     85
4.81150729805338,-3.60252612610597,-16.2402717874572,                 45P     86
4.60930464536533,-3.84714689481865,-15.6217380995677,                 45P     87
4.32211533736875,-4.16719881097873,-14.3204092614629,                 45P     88
4.24264068711929,-4.24264068711929,-13.6364064265105,                 45P     89
4.24264068711929,-4.24264068711929,-12.3635935734895,                 45P     90
4.32211533736875,-4.16719881097873,-11.6795907385372,                 45P     91
4.60930464536533,-3.84714689481865,-10.3782619004323,                 45P     92
4.81150729805337,-3.60252612610597,-9.75972821254281,                 45P     93
5.1217924756341,-3.13196013099747,-8.93428603223735,                  45P     94
5.24940422435544,-2.91885404607907,-8.62250903975994,                 45P     95
5.49487867836402,-2.42533765204821,-8.05658809692587,                 45P     96
5.61201747597235,-2.14420702043316,-7.80275881172569,                 45P     97
5.78850078199156,-1.601397891709,-7.4295135904458,                    45P     98
5.86633898118755,-1.30062152532763,-7.2699200271578,                  45P     99
5.97247876080393,-0.659581135600182,-7.05466944232192,                45P    100
6.00000000000001,-0.318856995749474,-7.,6.00000000000001,             45P    101
1.38777878078145D-16,-7.,0.791033343779221,2.37310003133766,0.,       45P    102
0.,0.;                                                                45P    103
126,26,3,0,0,1,0,2.37310003133766,2.37310003133766,                   47P    104
2.37310003133766,2.37310003133766,2.4687571300625,                    47P    105
2.4687571300625,2.56441422878735,2.56441422878735,                    47P    106
2.67335187399896,2.67335187399896,2.78228951921057,                   47P    107
2.78228951921057,2.97321144716372,2.97321144716372,                   47P    108
3.16413337511688,3.16413337511688,3.16413337511688,                   47P    109
3.35505530307004,3.35505530307004,3.5459772310232,                    47P    110
3.5459772310232,3.65491487623481,3.65491487623481,                    47P    111
3.76385252144642,3.76385252144642,3.85950962017126,                   47P    112
3.85950962017126,3.9551667188961,3.9551667188961,                     47P    113
3.9551667188961,3.9551667188961,1.,1.,1.,1.,1.,1.,1.,1.,1.,1.,        47P    114
1.,1.,1.,1.,1.,1.,1.,1.,1.,1.,1.,1.,1.,1.,1.,1.,1.,                   47P    115
6.00000000000001,0.,-7.,6.00000000000001,0.318856995749472,-7.,       47P    116
5.97247876080392,0.659581135600177,-7.05466944232191,                 47P    117
5.86633898118755,1.30062152532763,-7.2699200271578,                   47P    118
5.78850078199156,1.601397891709,-7.42951359044579,                    47P    119
5.61201747597236,2.14420702043316,-7.80275881172568,                  47P    120
5.49487867836402,2.4253376520482,-8.05658809692587,                   47P    121
5.24940422435544,2.91885404607907,-8.62250903975993,                  47P    122
5.1217924756341,3.13196013099747,-8.93428603223734,                   47P    123
4.81150729805338,3.60252612610597,-9.75972821254281,                  47P    124
4.60930464536533,3.84714689481865,-10.3782619004323,                  47P    125
4.32211533736875,4.16719881097873,-11.6795907385372,                  47P    126
4.24264068711929,4.24264068711929,-12.3635935734895,                  47P    127
4.24264068711929,4.24264068711929,-13.,4.24264068711929,              47P    128
4.24264068711929,-13.6364064265105,4.32211533736875,                  47P    129
4.16719881097873,-14.3204092614629,4.60930464536533,                  47P    130
3.84714689481865,-15.6217380995677,4.81150729805338,                  47P    131
3.60252612610597,-16.2402717874572,5.1217924756341,                   47P    132
3.13196013099747,-17.0657139677627,5.24940422435544,                  47P    133
2.91885404607907,-17.3774909602401,5.49487867836402,                  47P    134
2.42533765204821,-17.9434119030741,5.61201747597235,                  47P    135
2.14420702043316,-18.1972411882743,5.78850078199156,                  47P    136
1.601397891709,-18.5704864095542,5.86633898118755,                    47P    137
1.30062152532763,-18.7300799728422,5.97247876080392,                  47P    138
0.65958113560018,-18.9453305576781,6.00000000000001,                  47P    139
0.318856995749476,-19.,6.00000000000001,1.94289029309402D-15,         47P    140
-19.,2.37310003133766,3.9551667188961,0.,0.,0.;                       47P    141
126,1,1,0,0,1,0,-0.128564869306645,-0.128564869306645,                49P    142
0.128564869306645,0.128564869306645,1.,1.,0.,6.00000000000001,        49P    143
-0.999999999999996,0.,5.,2.77555756156289D-16,                        49P    144
-0.128564869306645,0.128564869306645,0.,0.,0.;                        49P    145
126,8,2,0,1,0,0,-3.14159265358979,-3.14159265358979,                  51P    146
-3.14159265358979,-1.5707963267949,-1.5707963267949,0.,0.,            51P    147
1.5707963267949,1.5707963267949,3.14159265358979,                     51P    148
3.14159265358979,3.14159265358979,1.,0.707106781186548,1.,            51P    149
0.707106781186548,1.,0.707106781186548,1.,0.707106781186548,1.,       51P    150
6.12323399573677D-16,5.,0.,5.,5.,0.,5.,-3.06161699786838D-16,0.,      51P    151
5.,-5.,0.,0.,-5.,0.,-5.,-5.,0.,-5.,-3.06161699786838D-16,0.,-5.,      51P    152
5.,0.,-6.12323399573677D-16,5.,0.,-3.14159265358979,                  51P    153
3.14159265358979,0.,0.,0.;                                            51P    154
126,1,1,0,0,1,0,-1.4142135623731,-1.4142135623731,                    53P    155
1.4142135623731,1.4142135623731,1.,1.,0.,0.,-13.,                     53P    156
6.00000000000001,0.,-19.,-1.4142135623731,1.4142135623731,0.,0.,      53P    157
0.;                                                                   53P    158
128,1,8,1,2,0,1,0,0,0,-0.128564869306645,-0.128564869306645,          55P    159
0.128564869306645,0.128564869306645,-3.14159265358979,                55P    160
-3.14159265358979,-3.14159265358979,-1.5707963267949,                 55P    161
-1.5707963267949,0.,0.,1.5707963267949,1.5707963267949,               55P    162
3.14159265358979,3.14159265358979,3.14159265358979,1.,1.,             55P    163
0.707106781186548,0.707106781186548,1.,1.,0.707106781186548,          55P    164
0.707106781186548,1.,1.,0.707106781186548,0.707106781186548,1.,       55P    165
1.,0.707106781186548,0.707106781186548,1.,1.,0.,                      55P    166
5.00000000000001,-60.,0.,6.00000000000001,-59.,5.00000000000001,      55P    167
5.00000000000001,-60.,6.,6.,-59.,5.00000000000001,0.,-60.,            55P    168
6.00000000000001,0.,-59.,5.00000000000001,-5.00000000000001,          55P    169
-60.,6.,-6.,-59.,0.,-5.00000000000001,-60.,0.,-6.00000000000001,      55P    170
-59.,-5.00000000000001,-5.00000000000001,-60.,-6.,-6.,-59.,           55P    171
-5.00000000000001,0.,-60.,-6.00000000000001,0.,-59.,                  55P    172
-5.00000000000001,5.00000000000001,-60.,-6.,6.,-59.,0.,               55P    173
5.00000000000001,-60.,0.,6.00000000000001,-59.,                       55P    174
-0.128564869306645,0.128564869306645,-3.14159265358979,               55P    175
3.14159265358979;                                                     55P    176
128,1,8,1,2,0,1,0,0,0,-7.24999999999999,-7.24999999999999,            57P    177
2.41666666666666,2.41666666666666,-3.14159265358979,                  57P    178
-3.14159265358979,-3.14159265358979,-1.5707963267949,                 57P    179
-1.5707963267949,0.,0.,1.5707963267949,1.5707963267949,               57P    180
3.14159265358979,3.14159265358979,3.14159265358979,1.,1.,             57P    181
0.707106781186548,0.707106781186548,1.,1.,0.707106781186548,          57P    182
0.707106781186548,1.,1.,0.707106781186548,0.707106781186548,1.,       57P    183
1.,0.707106781186548,0.707106781186548,1.,1.,0.,                      57P    184
-6.00000000000001,-59.,0.,-6.00000000000001,-0.999999999999996,       57P    185
-6.,-6.,-59.,-6.,-6.,-0.999999999999996,-6.00000000000001,0.,         57P    186
-59.,-6.00000000000001,0.,-0.999999999999996,-6.,6.,-59.,-6.,6.,      57P    187
-0.999999999999996,0.,6.00000000000001,-59.,0.,6.00000000000001,      57P    188
-0.999999999999996,6.,6.,-59.,6.,6.,-0.999999999999996,               57P    189
6.00000000000001,0.,-59.,6.00000000000001,0.,-0.999999999999996,      57P    190
6.,-6.,-59.,6.,-6.,-0.999999999999996,0.,-6.00000000000001,-59.,      57P    191
0.,-6.00000000000001,-0.999999999999996,-7.24999999999999,            57P    192
2.41666666666666,-3.14159265358979,3.14159265358979;                  57P    193
128,1,1,1,1,0,0,1,0,0,-0.500000000000001,-0.500000000000001,          59P    194
0.500000000000001,0.500000000000001,-0.800000000000001,               59P    195
-0.800000000000001,0.2,0.2,1.,1.,1.,1.,5.00000000000001,              59P    196
-5.00000000000001,-60.,-5.00000000000001,-5.00000000000001,-60.,      59P    197
5.00000000000001,5.00000000000001,-60.,-5.00000000000001,             59P    198
5.00000000000001,-60.,-0.500000000000001,0.500000000000001,           59P    199
-0.800000000000001,0.2;                                               59P    200
128,1,8,1,2,0,1,0,0,0,-0.128564869306645,-0.128564869306645,          61P    201
0.128564869306645,0.128564869306645,-3.14159265358979,                61P    202
-3.14159265358979,-3.14159265358979,-1.5707963267949,                 61P    203
-1.5707963267949,0.,0.,1.5707963267949,1.5707963267949,               61P    204
3.14159265358979,3.14159265358979,3.14159265358979,1.,1.,             61P    205
0.707106781186548,0.707106781186548,1.,1.,0.707106781186548,          61P    206
0.707106781186548,1.,1.,0.707106781186548,0.707106781186548,1.,       61P    207
1.,0.707106781186548,0.707106781186548,1.,1.,0.,                      61P    208
6.00000000000001,-0.999999999999996,0.,5.,2.77555756156289D-16,       61P    209
6.,6.,-0.999999999999996,5.,5.,2.77555756156289D-16,                  61P    210
6.00000000000001,0.,-0.999999999999996,5.,0.,                         61P    211
2.77555756156289D-16,6.,-6.,-0.999999999999996,5.,-5.,                61P    212
2.77555756156289D-16,0.,-6.00000000000001,-0.999999999999996,0.,      61P    213
-5.,2.77555756156289D-16,-6.,-6.,-0.999999999999996,-5.,-5.,          61P    214
2.77555756156289D-16,-6.00000000000001,0.,-0.999999999999996,         61P    215
-5.,0.,2.77555756156289D-16,-6.,6.,-0.999999999999996,-5.,5.,         61P    216
2.77555756156289D-16,0.,6.00000000000001,-0.999999999999996,0.,       61P    217
5.,2.77555756156289D-16,-0.128564869306645,0.128564869306645,         61P    218
-3.14159265358979,3.14159265358979;                                   61P    219
128,1,1,1,1,0,0,1,0,0,-0.5,-0.5,0.5,0.5,-0.8,-0.8,0.2,0.2,1.,1.,      63P    220
1.,1.,-5.,-5.,0.,5.,-5.,0.,-5.,5.,0.,5.,5.,0.,-0.5,0.5,-0.8,0.2;      63P    221
128,1,8,1,2,0,1,0,0,0,-1.4142135623731,-1.4142135623731,              65P    222
1.4142135623731,1.4142135623731,-3.14159265358979,                    65P    223
-3.14159265358979,-3.14159265358979,-1.5707963267949,                 65P    224
-1.5707963267949,0.,0.,1.5707963267949,1.5707963267949,               65P    225
3.14159265358979,3.14159265358979,3.14159265358979,1.,1.,             65P    226
0.707106781186548,0.707106781186548,1.,1.,0.707106781186548,          65P    227
0.707106781186548,1.,1.,0.707106781186548,0.707106781186548,1.,       65P    228
1.,0.707106781186548,0.707106781186548,1.,1.,0.,0.,-13.,              65P    229
6.00000000000001,0.,-19.,0.,0.,-13.,6.00000000000001,6.,-19.,0.,      65P    230
0.,-13.,6.00000000000001,6.00000000000001,-13.,0.,0.,-13.,            65P    231
6.00000000000001,6.,-7.,0.,0.,-13.,6.00000000000001,0.,-7.,0.,        65P    232
0.,-13.,6.00000000000001,-6.,-7.,0.,0.,-13.,6.00000000000001,         65P    233
-6.00000000000001,-13.,0.,0.,-13.,6.00000000000001,-6.,-19.,0.,       65P    234
0.,-13.,6.00000000000001,0.,-19.,-1.4142135623731,                    65P    235
1.4142135623731,-3.14159265358979,3.14159265358979;                   65P    236
502,9,-6.12323399573678D-16,5.00000000000001,-60.,                    67P    237
7.34788079488412D-16,6.00000000000001,-59.,0.,-6.00000000000001,      67P    238
-59.,0.,-6.00000000000001,-0.999999999999996,                         67P    239
-7.34788079488412D-16,6.00000000000001,-0.999999999999996,            67P    240
6.00000000000001,0.,-19.,6.00000000000001,0.,-7.,                     67P    241
6.12323399573677D-16,5.,0.,0.,0.,-13.;                                67P    242
504,12,31,67,1,67,1,33,67,1,67,2,35,67,2,67,3,37,67,3,67,2,39,        69P    243
67,3,67,4,41,67,5,67,4,43,67,4,67,5,45,67,6,67,7,47,67,7,67,6,        69P    244
49,67,5,67,8,51,67,8,67,8,53,67,9,67,6;                               69P    245
406,1,15HVolumenkörper1;                                             71P    246
314,63.921568627451,63.921568627451,68.6274509803922,;                73P    247
S      1G      3D     74P    247                                        T      1
