ISO-10303-21;
HEADER;
/****************************************************************
 * Generated by software with PDElib inside                    *
 * PDElib Version v51a, created Wed 07/06/2011                  *
 * ITI Transcendata (http://www.transcendata.com/)              *
 ****************************************************************/
FILE_DESCRIPTION((''),'2;1');
FILE_NAME('U:\\Paletti Norm\\Paletti Artikel\\SZ\\SZ0912N-A.stp','2013-08-27T13:27:07',('janine behrens'),(''),'Autodesk Inventor 2012','Autodesk Inventor 2012','');
FILE_SCHEMA(('AUTOMOTIVE_DESIGN { 1 0 10303 214 1 1 1 1 }'));
ENDSEC;
DATA;
#5=APPLICATION_CONTEXT('automotive design');
#6=APPLICATION_PROTOCOL_DEFINITION('International Standard','automotive_design',2001,#5);
#7=PRODUCT_CONTEXT('',#5,'mechanical');
#8=PRODUCT('SZ0912N-A','SZ0912N-A',$,(#7));
#9=PRODUCT_RELATED_PRODUCT_CATEGORY('part',$,(#8));
#10=PRODUCT_DEFINITION_FORMATION('',$,#8);
#11=PRODUCT_DEFINITION_CONTEXT('part definition',#5,'design');
#12=PRODUCT_DEFINITION('',$,#10,#11);
#18=(NAMED_UNIT(*)PLANE_ANGLE_UNIT()SI_UNIT($,.RADIAN.));
#19=DIMENSIONAL_EXPONENTS(0.0,0.0,0.0,0.0,0.0,0.0,0.0);
#20=PLANE_ANGLE_MEASURE_WITH_UNIT(PLANE_ANGLE_MEASURE(0.0174532925),#18);
#24=(CONVERSION_BASED_UNIT('DEGREE',#20)NAMED_UNIT(#19)PLANE_ANGLE_UNIT());
#28=(NAMED_UNIT(*)SI_UNIT($,.STERADIAN.)SOLID_ANGLE_UNIT());
#32=(LENGTH_UNIT()NAMED_UNIT(*)SI_UNIT(.MILLI.,.METRE.));
#34=UNCERTAINTY_MEASURE_WITH_UNIT(LENGTH_MEASURE(0.01),#32,'DISTANCE_ACCURACY_VALUE','');
#36=(GEOMETRIC_REPRESENTATION_CONTEXT(3)GLOBAL_UNCERTAINTY_ASSIGNED_CONTEXT((#34))GLOBAL_UNIT_ASSIGNED_CONTEXT((#24,#28,#32))REPRESENTATION_CONTEXT('None','None'));
#37=AXIS2_PLACEMENT_3D('',#38,#39,#40);
#38=CARTESIAN_POINT('',(0.0,0.0,0.0));
#39=DIRECTION('',(0.0,0.0,1.0));
#40=DIRECTION('',(1.0,0.0,0.0));
#41=SHAPE_REPRESENTATION('',(#37),#36);
#42=PRODUCT_DEFINITION_SHAPE('','',#12);
#43=SHAPE_DEFINITION_REPRESENTATION(#42,#41);
#49=(NAMED_UNIT(*)PLANE_ANGLE_UNIT()SI_UNIT($,.RADIAN.));
#50=DIMENSIONAL_EXPONENTS(0.0,0.0,0.0,0.0,0.0,0.0,0.0);
#51=PLANE_ANGLE_MEASURE_WITH_UNIT(PLANE_ANGLE_MEASURE(0.0174532925),#49);
#55=(CONVERSION_BASED_UNIT('DEGREE',#51)NAMED_UNIT(#50)PLANE_ANGLE_UNIT());
#59=(NAMED_UNIT(*)SI_UNIT($,.STERADIAN.)SOLID_ANGLE_UNIT());
#63=(LENGTH_UNIT()NAMED_UNIT(*)SI_UNIT(.MILLI.,.METRE.));
#65=UNCERTAINTY_MEASURE_WITH_UNIT(LENGTH_MEASURE(0.000001),#63,'DISTANCE_ACCURACY_VALUE','');
#67=(GEOMETRIC_REPRESENTATION_CONTEXT(3)GLOBAL_UNCERTAINTY_ASSIGNED_CONTEXT((#65))GLOBAL_UNIT_ASSIGNED_CONTEXT((#55,#59,#63))REPRESENTATION_CONTEXT('','3D'));
#68=CARTESIAN_POINT('',(27.500000000000004,-2.973812E-016,0.0));
#69=DIRECTION('',(4.440892E-016,-1.0,0.0));
#70=DIRECTION('',(0.0,0.0,1.0));
#71=AXIS2_PLACEMENT_3D('',#68,#69,#70);
#72=CYLINDRICAL_SURFACE('',#71,3.25);
#73=CARTESIAN_POINT('',(27.500000000000007,-5.000000000000001,3.25));
#74=VERTEX_POINT('',#73);
#75=CARTESIAN_POINT('',(27.500000000000007,-5.000000000000001,-3.249999999999997));
#76=VERTEX_POINT('',#75);
#77=CARTESIAN_POINT('',(27.500000000000004,-5.0,0.0));
#78=DIRECTION('',(0.0,1.0,0.0));
#79=DIRECTION('',(0.0,0.0,1.0));
#80=AXIS2_PLACEMENT_3D('',#77,#78,#79);
#81=CIRCLE('',#80,3.25);
#82=EDGE_CURVE('',#74,#76,#81,.T.);
#83=ORIENTED_EDGE('',*,*,#82,.F.);
#84=CARTESIAN_POINT('',(27.500000000000004,-2.973812E-016,3.25));
#85=VERTEX_POINT('',#84);
#86=CARTESIAN_POINT('',(27.500000000000004,-2.973812E-016,3.25));
#87=DIRECTION('',(0.0,-1.0,0.0));
#88=VECTOR('',#87,5.000000000000001);
#89=LINE('',#86,#88);
#90=EDGE_CURVE('',#85,#74,#89,.T.);
#91=ORIENTED_EDGE('',*,*,#90,.F.);
#92=CARTESIAN_POINT('',(27.500000000000004,-2.973812E-016,-3.249999999999997));
#93=VERTEX_POINT('',#92);
#94=CARTESIAN_POINT('',(27.500000000000004,-1.387779E-015,0.0));
#95=DIRECTION('',(0.0,-1.0,0.0));
#96=DIRECTION('',(0.0,0.0,1.0));
#97=AXIS2_PLACEMENT_3D('',#94,#95,#96);
#98=CIRCLE('',#97,3.25);
#99=EDGE_CURVE('',#93,#85,#98,.T.);
#100=ORIENTED_EDGE('',*,*,#99,.F.);
#101=CARTESIAN_POINT('',(27.500000000000004,-2.973812E-016,-3.249999999999997));
#102=DIRECTION('',(0.0,-1.0,0.0));
#103=VECTOR('',#102,5.000000000000001);
#104=LINE('',#101,#103);
#105=EDGE_CURVE('',#93,#76,#104,.T.);
#106=ORIENTED_EDGE('',*,*,#105,.T.);
#107=EDGE_LOOP('',(#83,#91,#100,#106));
#108=FACE_OUTER_BOUND('',#107,.T.);
#109=ADVANCED_FACE('',(#108),#72,.F.);
#110=CARTESIAN_POINT('',(27.500000000000004,-2.973812E-016,-3.249999999999997));
#111=DIRECTION('',(0.0,0.0,-1.0));
#112=DIRECTION('',(-1.0,0.0,0.0));
#113=AXIS2_PLACEMENT_3D('',#110,#111,#112);
#114=PLANE('',#113);
#115=CARTESIAN_POINT('',(7.500000000000007,-5.00000000000001,-3.249999999999997));
#116=VERTEX_POINT('',#115);
#117=CARTESIAN_POINT('',(27.500000000000007,-5.0,-3.249999999999997));
#118=DIRECTION('',(-1.0,0.0,0.0));
#119=VECTOR('',#118,20.000000000000004);
#120=LINE('',#117,#119);
#121=EDGE_CURVE('',#76,#116,#120,.T.);
#122=ORIENTED_EDGE('',*,*,#121,.F.);
#123=ORIENTED_EDGE('',*,*,#105,.F.);
#124=CARTESIAN_POINT('',(7.500000000000004,-9.972182E-015,-3.249999999999997));
#125=VERTEX_POINT('',#124);
#126=CARTESIAN_POINT('',(7.500000000000004,-9.972182E-015,-3.249999999999997));
#127=DIRECTION('',(1.0,0.0,0.0));
#128=VECTOR('',#127,20.0);
#129=LINE('',#126,#128);
#130=EDGE_CURVE('',#125,#93,#129,.T.);
#131=ORIENTED_EDGE('',*,*,#130,.F.);
#132=CARTESIAN_POINT('',(7.500000000000004,-9.972182E-015,-3.249999999999997));
#133=DIRECTION('',(0.0,-1.0,0.0));
#134=VECTOR('',#133,5.0);
#135=LINE('',#132,#134);
#136=EDGE_CURVE('',#125,#116,#135,.T.);
#137=ORIENTED_EDGE('',*,*,#136,.T.);
#138=EDGE_LOOP('',(#122,#123,#131,#137));
#139=FACE_OUTER_BOUND('',#138,.T.);
#140=ADVANCED_FACE('',(#139),#114,.F.);
#141=CARTESIAN_POINT('',(7.500000000000004,-9.972182E-015,0.0));
#142=DIRECTION('',(4.440892E-016,-1.0,0.0));
#143=DIRECTION('',(0.0,0.0,-1.0));
#144=AXIS2_PLACEMENT_3D('',#141,#142,#143);
#145=CYLINDRICAL_SURFACE('',#144,3.25);
#146=CARTESIAN_POINT('',(7.500000000000007,-5.00000000000001,3.250000000000002));
#147=VERTEX_POINT('',#146);
#148=CARTESIAN_POINT('',(7.500000000000007,-5.000000000000009,0.0));
#149=DIRECTION('',(0.0,1.0,0.0));
#150=DIRECTION('',(0.0,0.0,-1.0));
#151=AXIS2_PLACEMENT_3D('',#148,#149,#150);
#152=CIRCLE('',#151,3.25);
#153=EDGE_CURVE('',#116,#147,#152,.T.);
#154=ORIENTED_EDGE('',*,*,#153,.F.);
#155=ORIENTED_EDGE('',*,*,#136,.F.);
#156=CARTESIAN_POINT('',(7.500000000000004,-9.972182E-015,3.250000000000002));
#157=VERTEX_POINT('',#156);
#158=CARTESIAN_POINT('',(7.500000000000004,-1.026956E-014,0.0));
#159=DIRECTION('',(0.0,-1.0,0.0));
#160=DIRECTION('',(0.0,0.0,-1.0));
#161=AXIS2_PLACEMENT_3D('',#158,#159,#160);
#162=CIRCLE('',#161,3.25);
#163=EDGE_CURVE('',#157,#125,#162,.T.);
#164=ORIENTED_EDGE('',*,*,#163,.F.);
#165=CARTESIAN_POINT('',(7.500000000000004,-9.972182E-015,3.250000000000002));
#166=DIRECTION('',(0.0,-1.0,0.0));
#167=VECTOR('',#166,5.0);
#168=LINE('',#165,#167);
#169=EDGE_CURVE('',#157,#147,#168,.T.);
#170=ORIENTED_EDGE('',*,*,#169,.T.);
#171=EDGE_LOOP('',(#154,#155,#164,#170));
#172=FACE_OUTER_BOUND('',#171,.T.);
#173=ADVANCED_FACE('',(#172),#145,.F.);
#174=CARTESIAN_POINT('',(7.500000000000004,-9.972182E-015,3.250000000000002));
#175=DIRECTION('',(0.0,0.0,1.0));
#176=DIRECTION('',(1.0,0.0,0.0));
#177=AXIS2_PLACEMENT_3D('',#174,#175,#176);
#178=PLANE('',#177);
#179=CARTESIAN_POINT('',(7.500000000000005,-5.000000000000007,3.250000000000001));
#180=DIRECTION('',(1.0,0.0,0.0));
#181=VECTOR('',#180,20.0);
#182=LINE('',#179,#181);
#183=EDGE_CURVE('',#147,#74,#182,.T.);
#184=ORIENTED_EDGE('',*,*,#183,.F.);
#185=ORIENTED_EDGE('',*,*,#169,.F.);
#186=CARTESIAN_POINT('',(27.500000000000004,-2.973812E-016,3.25));
#187=DIRECTION('',(-1.0,0.0,0.0));
#188=VECTOR('',#187,20.0);
#189=LINE('',#186,#188);
#190=EDGE_CURVE('',#85,#157,#189,.T.);
#191=ORIENTED_EDGE('',*,*,#190,.F.);
#192=ORIENTED_EDGE('',*,*,#90,.T.);
#193=EDGE_LOOP('',(#184,#185,#191,#192));
#194=FACE_OUTER_BOUND('',#193,.T.);
#195=ADVANCED_FACE('',(#194),#178,.F.);
#196=CARTESIAN_POINT('',(-48.989794855663561,7.499999999999999,0.0));
#197=DIRECTION('',(1.0,-1.211144E-016,0.0));
#198=DIRECTION('',(0.0,0.0,-1.0));
#199=AXIS2_PLACEMENT_3D('',#196,#197,#198);
#200=CYLINDRICAL_SURFACE('',#199,3.25);
#201=CARTESIAN_POINT('',(-5.0,7.499999999999993,3.25));
#202=VERTEX_POINT('',#201);
#203=CARTESIAN_POINT('',(-5.0,7.499999999999993,0.0));
#204=DIRECTION('',(1.0,0.0,0.0));
#205=DIRECTION('',(0.0,0.0,-1.0));
#206=AXIS2_PLACEMENT_3D('',#203,#204,#205);
#207=CIRCLE('',#206,3.25);
#208=EDGE_CURVE('',#202,#202,#207,.T.);
#209=ORIENTED_EDGE('',*,*,#208,.F.);
#210=EDGE_LOOP('',(#209));
#211=FACE_OUTER_BOUND('',#210,.T.);
#212=CARTESIAN_POINT('',(9.083581E-016,7.499999999999993,-3.25));
#213=VERTEX_POINT('',#212);
#214=CARTESIAN_POINT('',(0.0,7.499999999999993,0.0));
#215=DIRECTION('',(-1.0,0.0,0.0));
#216=DIRECTION('',(0.0,0.0,-1.0));
#217=AXIS2_PLACEMENT_3D('',#214,#215,#216);
#218=CIRCLE('',#217,3.25);
#219=EDGE_CURVE('',#213,#213,#218,.T.);
#220=ORIENTED_EDGE('',*,*,#219,.F.);
#221=EDGE_LOOP('',(#220));
#222=FACE_BOUND('',#221,.T.);
#223=ADVANCED_FACE('',(#211,#222),#200,.F.);
#224=CARTESIAN_POINT('',(10.625000000000002,0.624999999999995,-10.0));
#225=DIRECTION('',(0.0,0.0,1.0));
#226=DIRECTION('',(1.0,0.0,0.0));
#227=AXIS2_PLACEMENT_3D('',#224,#225,#226);
#228=PLANE('',#227);
#229=CARTESIAN_POINT('',(1.816716E-015,14.999999999999993,-10.0));
#230=VERTEX_POINT('',#229);
#231=CARTESIAN_POINT('',(-4.999999999999998,14.999999999999993,-10.0));
#232=VERTEX_POINT('',#231);
#233=CARTESIAN_POINT('',(1.816716E-015,14.999999999999993,-10.0));
#234=DIRECTION('',(-1.0,0.0,0.0));
#235=VECTOR('',#234,5.0);
#236=LINE('',#233,#235);
#237=EDGE_CURVE('',#230,#232,#236,.T.);
#238=ORIENTED_EDGE('',*,*,#237,.F.);
#239=CARTESIAN_POINT('',(0.0,-1.360023E-014,-10.0));
#240=VERTEX_POINT('',#239);
#241=CARTESIAN_POINT('',(0.0,-1.360023E-014,-10.0));
#242=DIRECTION('',(0.0,1.0,0.0));
#243=VECTOR('',#242,15.000000000000007);
#244=LINE('',#241,#243);
#245=EDGE_CURVE('',#240,#230,#244,.T.);
#246=ORIENTED_EDGE('',*,*,#245,.F.);
#247=CARTESIAN_POINT('',(35.000000000000007,3.330669E-015,-10.0));
#248=VERTEX_POINT('',#247);
#249=CARTESIAN_POINT('',(35.000000000000007,3.330669E-015,-10.0));
#250=DIRECTION('',(-1.0,0.0,0.0));
#251=VECTOR('',#250,35.000000000000007);
#252=LINE('',#249,#251);
#253=EDGE_CURVE('',#248,#240,#252,.T.);
#254=ORIENTED_EDGE('',*,*,#253,.F.);
#255=CARTESIAN_POINT('',(35.000000000000007,-4.999999999999996,-10.0));
#256=VERTEX_POINT('',#255);
#257=CARTESIAN_POINT('',(35.000000000000007,-4.999999999999996,-10.0));
#258=DIRECTION('',(0.0,1.0,0.0));
#259=VECTOR('',#258,5.0);
#260=LINE('',#257,#259);
#261=EDGE_CURVE('',#256,#248,#260,.T.);
#262=ORIENTED_EDGE('',*,*,#261,.F.);
#263=CARTESIAN_POINT('',(-4.999999999999997,-5.000000000000011,-10.0));
#264=VERTEX_POINT('',#263);
#265=CARTESIAN_POINT('',(-4.999999999999997,-5.000000000000011,-10.0));
#266=DIRECTION('',(1.0,0.0,0.0));
#267=VECTOR('',#266,40.0);
#268=LINE('',#265,#267);
#269=EDGE_CURVE('',#264,#256,#268,.T.);
#270=ORIENTED_EDGE('',*,*,#269,.F.);
#271=CARTESIAN_POINT('',(-4.999999999999998,14.999999999999993,-10.0));
#272=DIRECTION('',(0.0,-1.0,0.0));
#273=VECTOR('',#272,20.000000000000004);
#274=LINE('',#271,#273);
#275=EDGE_CURVE('',#232,#264,#274,.T.);
#276=ORIENTED_EDGE('',*,*,#275,.F.);
#277=EDGE_LOOP('',(#238,#246,#254,#262,#270,#276));
#278=FACE_OUTER_BOUND('',#277,.T.);
#279=ADVANCED_FACE('',(#278),#228,.F.);
#280=CARTESIAN_POINT('',(0.0,-1.360023E-014,0.0));
#281=DIRECTION('',(0.0,1.0,0.0));
#282=DIRECTION('',(0.0,0.0,1.0));
#283=AXIS2_PLACEMENT_3D('',#280,#281,#282);
#284=PLANE('',#283);
#285=CARTESIAN_POINT('',(0.0,-1.360023E-014,10.0));
#286=VERTEX_POINT('',#285);
#287=CARTESIAN_POINT('',(35.000000000000007,3.330669E-015,10.0));
#288=VERTEX_POINT('',#287);
#289=CARTESIAN_POINT('',(0.0,-1.360023E-014,10.0));
#290=DIRECTION('',(1.0,0.0,0.0));
#291=VECTOR('',#290,35.000000000000007);
#292=LINE('',#289,#291);
#293=EDGE_CURVE('',#286,#288,#292,.T.);
#294=ORIENTED_EDGE('',*,*,#293,.T.);
#295=CARTESIAN_POINT('',(35.000000000000007,3.330669E-015,-10.0));
#296=DIRECTION('',(0.0,0.0,1.0));
#297=VECTOR('',#296,20.0);
#298=LINE('',#295,#297);
#299=EDGE_CURVE('',#248,#288,#298,.T.);
#300=ORIENTED_EDGE('',*,*,#299,.F.);
#301=ORIENTED_EDGE('',*,*,#253,.T.);
#302=CARTESIAN_POINT('',(0.0,-1.360023E-014,10.0));
#303=DIRECTION('',(0.0,0.0,-1.0));
#304=VECTOR('',#303,20.0);
#305=LINE('',#302,#304);
#306=EDGE_CURVE('',#286,#240,#305,.T.);
#307=ORIENTED_EDGE('',*,*,#306,.F.);
#308=EDGE_LOOP('',(#294,#300,#301,#307));
#309=FACE_OUTER_BOUND('',#308,.T.);
#310=ORIENTED_EDGE('',*,*,#99,.T.);
#311=ORIENTED_EDGE('',*,*,#190,.T.);
#312=ORIENTED_EDGE('',*,*,#163,.T.);
#313=ORIENTED_EDGE('',*,*,#130,.T.);
#314=EDGE_LOOP('',(#310,#311,#312,#313));
#315=FACE_BOUND('',#314,.T.);
#316=ADVANCED_FACE('',(#309,#315),#284,.T.);
#317=CARTESIAN_POINT('',(35.000000000000007,3.330669E-015,0.0));
#318=DIRECTION('',(1.0,0.0,0.0));
#319=DIRECTION('',(0.0,0.0,-1.0));
#320=AXIS2_PLACEMENT_3D('',#317,#318,#319);
#321=PLANE('',#320);
#322=CARTESIAN_POINT('',(35.000000000000007,-4.999999999999996,10.0));
#323=VERTEX_POINT('',#322);
#324=CARTESIAN_POINT('',(35.000000000000007,3.552714E-015,10.0));
#325=DIRECTION('',(0.0,-1.0,0.0));
#326=VECTOR('',#325,5.0);
#327=LINE('',#324,#326);
#328=EDGE_CURVE('',#288,#323,#327,.T.);
#329=ORIENTED_EDGE('',*,*,#328,.T.);
#330=CARTESIAN_POINT('',(35.000000000000007,-4.999999999999996,-10.0));
#331=DIRECTION('',(0.0,0.0,1.0));
#332=VECTOR('',#331,20.0);
#333=LINE('',#330,#332);
#334=EDGE_CURVE('',#256,#323,#333,.T.);
#335=ORIENTED_EDGE('',*,*,#334,.F.);
#336=ORIENTED_EDGE('',*,*,#261,.T.);
#337=ORIENTED_EDGE('',*,*,#299,.T.);
#338=EDGE_LOOP('',(#329,#335,#336,#337));
#339=FACE_OUTER_BOUND('',#338,.T.);
#340=ADVANCED_FACE('',(#339),#321,.T.);
#341=CARTESIAN_POINT('',(35.000000000000007,-4.999999999999996,0.0));
#342=DIRECTION('',(0.0,-1.0,0.0));
#343=DIRECTION('',(0.0,0.0,-1.0));
#344=AXIS2_PLACEMENT_3D('',#341,#342,#343);
#345=PLANE('',#344);
#346=CARTESIAN_POINT('',(-4.999999999999997,-5.000000000000011,10.0));
#347=VERTEX_POINT('',#346);
#348=CARTESIAN_POINT('',(35.0,-4.999999999999996,10.0));
#349=DIRECTION('',(-1.0,0.0,0.0));
#350=VECTOR('',#349,40.0);
#351=LINE('',#348,#350);
#352=EDGE_CURVE('',#323,#347,#351,.T.);
#353=ORIENTED_EDGE('',*,*,#352,.T.);
#354=CARTESIAN_POINT('',(-4.999999999999997,-5.000000000000011,-10.0));
#355=DIRECTION('',(0.0,0.0,1.0));
#356=VECTOR('',#355,20.0);
#357=LINE('',#354,#356);
#358=EDGE_CURVE('',#264,#347,#357,.T.);
#359=ORIENTED_EDGE('',*,*,#358,.F.);
#360=ORIENTED_EDGE('',*,*,#269,.T.);
#361=ORIENTED_EDGE('',*,*,#334,.T.);
#362=EDGE_LOOP('',(#353,#359,#360,#361));
#363=FACE_OUTER_BOUND('',#362,.T.);
#364=ORIENTED_EDGE('',*,*,#82,.T.);
#365=ORIENTED_EDGE('',*,*,#121,.T.);
#366=ORIENTED_EDGE('',*,*,#153,.T.);
#367=ORIENTED_EDGE('',*,*,#183,.T.);
#368=EDGE_LOOP('',(#364,#365,#366,#367));
#369=FACE_BOUND('',#368,.T.);
#370=ADVANCED_FACE('',(#363,#369),#345,.T.);
#371=CARTESIAN_POINT('',(-4.999999999999997,-5.000000000000011,0.0));
#372=DIRECTION('',(-1.0,0.0,0.0));
#373=DIRECTION('',(0.0,0.0,1.0));
#374=AXIS2_PLACEMENT_3D('',#371,#372,#373);
#375=PLANE('',#374);
#376=CARTESIAN_POINT('',(-4.999999999999998,14.999999999999993,10.0));
#377=VERTEX_POINT('',#376);
#378=CARTESIAN_POINT('',(-4.999999999999997,-5.000000000000011,10.0));
#379=DIRECTION('',(0.0,1.0,0.0));
#380=VECTOR('',#379,20.000000000000004);
#381=LINE('',#378,#380);
#382=EDGE_CURVE('',#347,#377,#381,.T.);
#383=ORIENTED_EDGE('',*,*,#382,.T.);
#384=CARTESIAN_POINT('',(-4.999999999999998,14.999999999999993,-10.0));
#385=DIRECTION('',(0.0,0.0,1.0));
#386=VECTOR('',#385,20.0);
#387=LINE('',#384,#386);
#388=EDGE_CURVE('',#232,#377,#387,.T.);
#389=ORIENTED_EDGE('',*,*,#388,.F.);
#390=ORIENTED_EDGE('',*,*,#275,.T.);
#391=ORIENTED_EDGE('',*,*,#358,.T.);
#392=EDGE_LOOP('',(#383,#389,#390,#391));
#393=FACE_OUTER_BOUND('',#392,.T.);
#394=ORIENTED_EDGE('',*,*,#208,.T.);
#395=EDGE_LOOP('',(#394));
#396=FACE_BOUND('',#395,.T.);
#397=ADVANCED_FACE('',(#393,#396),#375,.T.);
#398=CARTESIAN_POINT('',(-4.999999999999998,14.999999999999993,0.0));
#399=DIRECTION('',(0.0,1.0,0.0));
#400=DIRECTION('',(0.0,0.0,1.0));
#401=AXIS2_PLACEMENT_3D('',#398,#399,#400);
#402=PLANE('',#401);
#403=CARTESIAN_POINT('',(1.816716E-015,14.999999999999993,10.0));
#404=VERTEX_POINT('',#403);
#405=CARTESIAN_POINT('',(-4.999999999999998,14.999999999999993,10.0));
#406=DIRECTION('',(1.0,0.0,0.0));
#407=VECTOR('',#406,5.0);
#408=LINE('',#405,#407);
#409=EDGE_CURVE('',#377,#404,#408,.T.);
#410=ORIENTED_EDGE('',*,*,#409,.T.);
#411=CARTESIAN_POINT('',(1.816716E-015,14.999999999999993,-10.0));
#412=DIRECTION('',(0.0,0.0,1.0));
#413=VECTOR('',#412,20.0);
#414=LINE('',#411,#413);
#415=EDGE_CURVE('',#230,#404,#414,.T.);
#416=ORIENTED_EDGE('',*,*,#415,.F.);
#417=ORIENTED_EDGE('',*,*,#237,.T.);
#418=ORIENTED_EDGE('',*,*,#388,.T.);
#419=EDGE_LOOP('',(#410,#416,#417,#418));
#420=FACE_OUTER_BOUND('',#419,.T.);
#421=ADVANCED_FACE('',(#420),#402,.T.);
#422=CARTESIAN_POINT('',(1.816716E-015,14.999999999999993,0.0));
#423=DIRECTION('',(1.0,0.0,0.0));
#424=DIRECTION('',(0.0,0.0,-1.0));
#425=AXIS2_PLACEMENT_3D('',#422,#423,#424);
#426=PLANE('',#425);
#427=CARTESIAN_POINT('',(1.816716E-015,14.999999999999993,10.0));
#428=DIRECTION('',(0.0,-1.0,0.0));
#429=VECTOR('',#428,15.000000000000007);
#430=LINE('',#427,#429);
#431=EDGE_CURVE('',#404,#286,#430,.T.);
#432=ORIENTED_EDGE('',*,*,#431,.T.);
#433=ORIENTED_EDGE('',*,*,#306,.T.);
#434=ORIENTED_EDGE('',*,*,#245,.T.);
#435=ORIENTED_EDGE('',*,*,#415,.T.);
#436=EDGE_LOOP('',(#432,#433,#434,#435));
#437=FACE_OUTER_BOUND('',#436,.T.);
#438=ORIENTED_EDGE('',*,*,#219,.T.);
#439=EDGE_LOOP('',(#438));
#440=FACE_BOUND('',#439,.T.);
#441=ADVANCED_FACE('',(#437,#440),#426,.T.);
#442=CARTESIAN_POINT('',(10.625,0.624999999999995,10.0));
#443=DIRECTION('',(0.0,0.0,1.0));
#444=DIRECTION('',(1.0,0.0,0.0));
#445=AXIS2_PLACEMENT_3D('',#442,#443,#444);
#446=PLANE('',#445);
#447=ORIENTED_EDGE('',*,*,#293,.F.);
#448=ORIENTED_EDGE('',*,*,#431,.F.);
#449=ORIENTED_EDGE('',*,*,#409,.F.);
#450=ORIENTED_EDGE('',*,*,#382,.F.);
#451=ORIENTED_EDGE('',*,*,#352,.F.);
#452=ORIENTED_EDGE('',*,*,#328,.F.);
#453=EDGE_LOOP('',(#447,#448,#449,#450,#451,#452));
#454=FACE_OUTER_BOUND('',#453,.T.);
#455=ADVANCED_FACE('',(#454),#446,.T.);
#456=CLOSED_SHELL('',(#109,#140,#173,#195,#223,#279,#316,#340,#370,#397,#421,#441,#455));
#457=MANIFOLD_SOLID_BREP('Volumenk\S\vrper1',#456);
#458=COLOUR_RGB('Aluminium (gleichm\X2\FFFDFFFD\X0\ig)',0.847059011459351,0.839215993881226,0.839215993881226);
#459=FILL_AREA_STYLE_COLOUR('Aluminium (gleichm\X2\FFFDFFFD\X0\ig)',#458);
#460=FILL_AREA_STYLE('Aluminium (gleichm\X2\FFFDFFFD\X0\ig)',(#459));
#461=SURFACE_STYLE_FILL_AREA(#460);
#462=SURFACE_SIDE_STYLE('Aluminium (gleichm\X2\FFFDFFFD\X0\ig)',(#461));
#463=SURFACE_STYLE_USAGE(.BOTH.,#462);
#464=PRESENTATION_STYLE_ASSIGNMENT((#463));
#465=STYLED_ITEM('',(#464),#457);
#466=MECHANICAL_DESIGN_GEOMETRIC_PRESENTATION_REPRESENTATION('',(#465),#36);
#467=ADVANCED_BREP_SHAPE_REPRESENTATION('ABSR',(#457),#36);
#468=SHAPE_REPRESENTATION_RELATIONSHIP('SRR','None',#467,#41);
ENDSEC;
END-ISO-10303-21;
