ISO-10303-21;
HEADER;
/* Generated by software containing ST-Developer
 * from STEP Tools, Inc. (www.steptools.com) 
 */

FILE_DESCRIPTION(
/* description */ ('Winkel 40 x 40 St.'),
/* implementation_level */ '2;1');

FILE_NAME(
/* name */ 'Q:\\ExterneArtikel_Webseite_Palkat\\SZ\\SZ0950S-A.stp',
/* time_stamp */ '2015-11-19T16:15:00+01:00',
/* author */ ('Marina Kaa'),
/* organization */ (''),
/* preprocessor_version */ 'ST-DEVELOPER v15.6',
/* originating_system */ 'Autodesk Inventor 2015',
/* authorisation */ '');

FILE_SCHEMA (('AUTOMOTIVE_DESIGN { 1 0 10303 214 3 1 1 }'));
ENDSEC;

DATA;
#10=MECHANICAL_DESIGN_GEOMETRIC_PRESENTATION_REPRESENTATION('',(#13),#555);
#11=SHAPE_REPRESENTATION_RELATIONSHIP('SRR','None',#564,#12);
#12=ADVANCED_BREP_SHAPE_REPRESENTATION($,(#14),#554);
#13=STYLED_ITEM('',(#573),#14);
#14=MANIFOLD_SOLID_BREP('Volumenk\X\F6rper1',#325);
#15=CONICAL_SURFACE('',#352,6.55,45.);
#16=CONICAL_SURFACE('',#356,6.55,45.);
#17=FACE_BOUND('',#53,.T.);
#18=FACE_BOUND('',#58,.T.);
#19=FACE_BOUND('',#62,.T.);
#20=FACE_BOUND('',#65,.T.);
#21=FACE_BOUND('',#67,.T.);
#22=FACE_BOUND('',#69,.T.);
#23=FACE_BOUND('',#71,.T.);
#24=FACE_BOUND('',#74,.T.);
#25=PLANE('',#330);
#26=PLANE('',#333);
#27=PLANE('',#339);
#28=PLANE('',#340);
#29=PLANE('',#347);
#30=PLANE('',#349);
#31=PLANE('',#360);
#32=PLANE('',#362);
#33=FACE_OUTER_BOUND('',#51,.T.);
#34=FACE_OUTER_BOUND('',#52,.T.);
#35=FACE_OUTER_BOUND('',#54,.T.);
#36=FACE_OUTER_BOUND('',#55,.T.);
#37=FACE_OUTER_BOUND('',#56,.T.);
#38=FACE_OUTER_BOUND('',#57,.T.);
#39=FACE_OUTER_BOUND('',#59,.T.);
#40=FACE_OUTER_BOUND('',#60,.T.);
#41=FACE_OUTER_BOUND('',#61,.T.);
#42=FACE_OUTER_BOUND('',#63,.T.);
#43=FACE_OUTER_BOUND('',#64,.T.);
#44=FACE_OUTER_BOUND('',#66,.T.);
#45=FACE_OUTER_BOUND('',#68,.T.);
#46=FACE_OUTER_BOUND('',#70,.T.);
#47=FACE_OUTER_BOUND('',#72,.T.);
#48=FACE_OUTER_BOUND('',#73,.T.);
#49=FACE_OUTER_BOUND('',#75,.T.);
#50=FACE_OUTER_BOUND('',#76,.T.);
#51=EDGE_LOOP('',(#215,#216,#217,#218));
#52=EDGE_LOOP('',(#219,#220,#221,#222,#223,#224));
#53=EDGE_LOOP('',(#225));
#54=EDGE_LOOP('',(#226,#227,#228,#229,#230,#231,#232,#233));
#55=EDGE_LOOP('',(#234,#235,#236,#237));
#56=EDGE_LOOP('',(#238,#239,#240,#241));
#57=EDGE_LOOP('',(#242,#243,#244,#245,#246,#247));
#58=EDGE_LOOP('',(#248));
#59=EDGE_LOOP('',(#249,#250,#251,#252));
#60=EDGE_LOOP('',(#253,#254,#255,#256));
#61=EDGE_LOOP('',(#257,#258,#259,#260,#261,#262));
#62=EDGE_LOOP('',(#263));
#63=EDGE_LOOP('',(#264,#265,#266,#267,#268,#269,#270,#271));
#64=EDGE_LOOP('',(#272));
#65=EDGE_LOOP('',(#273));
#66=EDGE_LOOP('',(#274));
#67=EDGE_LOOP('',(#275));
#68=EDGE_LOOP('',(#276));
#69=EDGE_LOOP('',(#277));
#70=EDGE_LOOP('',(#278));
#71=EDGE_LOOP('',(#279));
#72=EDGE_LOOP('',(#280,#281,#282,#283));
#73=EDGE_LOOP('',(#284,#285,#286,#287,#288,#289));
#74=EDGE_LOOP('',(#290));
#75=EDGE_LOOP('',(#291,#292,#293,#294));
#76=EDGE_LOOP('',(#295,#296,#297,#298));
#77=LINE('',#467,#101);
#78=LINE('',#470,#102);
#79=LINE('',#473,#103);
#80=LINE('',#475,#104);
#81=LINE('',#477,#105);
#82=LINE('',#480,#106);
#83=LINE('',#485,#107);
#84=LINE('',#489,#108);
#85=LINE('',#491,#109);
#86=LINE('',#493,#110);
#87=LINE('',#500,#111);
#88=LINE('',#503,#112);
#89=LINE('',#506,#113);
#90=LINE('',#508,#114);
#91=LINE('',#509,#115);
#92=LINE('',#512,#116);
#93=LINE('',#513,#117);
#94=LINE('',#523,#118);
#95=LINE('',#524,#119);
#96=LINE('',#526,#120);
#97=LINE('',#528,#121);
#98=LINE('',#529,#122);
#99=LINE('',#534,#123);
#100=LINE('',#549,#124);
#101=VECTOR('',#369,5.);
#102=VECTOR('',#372,5.);
#103=VECTOR('',#375,25.4999999999999);
#104=VECTOR('',#376,40.);
#105=VECTOR('',#377,25.4999999999999);
#106=VECTOR('',#380,33.);
#107=VECTOR('',#385,25.4999999999999);
#108=VECTOR('',#388,25.5);
#109=VECTOR('',#389,5.);
#110=VECTOR('',#390,25.5);
#111=VECTOR('',#397,5.);
#112=VECTOR('',#400,5.);
#113=VECTOR('',#403,33.);
#114=VECTOR('',#404,5.);
#115=VECTOR('',#405,33.);
#116=VECTOR('',#408,25.5);
#117=VECTOR('',#409,40.);
#118=VECTOR('',#422,5.);
#119=VECTOR('',#423,5.);
#120=VECTOR('',#426,33.);
#121=VECTOR('',#427,25.4999999999999);
#122=VECTOR('',#428,40.);
#123=VECTOR('',#433,25.5);
#124=VECTOR('',#456,40.);
#125=CIRCLE('',#328,3.5);
#126=CIRCLE('',#329,3.5);
#127=CIRCLE('',#331,3.5);
#128=CIRCLE('',#332,4.5);
#129=CIRCLE('',#334,6.);
#130=CIRCLE('',#335,11.);
#131=CIRCLE('',#337,3.5);
#132=CIRCLE('',#338,3.5);
#133=CIRCLE('',#341,3.5);
#134=CIRCLE('',#342,4.5);
#135=CIRCLE('',#344,3.5);
#136=CIRCLE('',#346,3.5);
#137=CIRCLE('',#348,8.6);
#138=CIRCLE('',#350,6.);
#139=CIRCLE('',#351,11.);
#140=CIRCLE('',#353,8.6);
#141=CIRCLE('',#354,4.5);
#142=CIRCLE('',#357,4.5);
#143=VERTEX_POINT('',#463);
#144=VERTEX_POINT('',#464);
#145=VERTEX_POINT('',#466);
#146=VERTEX_POINT('',#468);
#147=VERTEX_POINT('',#472);
#148=VERTEX_POINT('',#474);
#149=VERTEX_POINT('',#476);
#150=VERTEX_POINT('',#478);
#151=VERTEX_POINT('',#481);
#152=VERTEX_POINT('',#484);
#153=VERTEX_POINT('',#486);
#154=VERTEX_POINT('',#488);
#155=VERTEX_POINT('',#490);
#156=VERTEX_POINT('',#492);
#157=VERTEX_POINT('',#496);
#158=VERTEX_POINT('',#497);
#159=VERTEX_POINT('',#499);
#160=VERTEX_POINT('',#501);
#161=VERTEX_POINT('',#505);
#162=VERTEX_POINT('',#507);
#163=VERTEX_POINT('',#511);
#164=VERTEX_POINT('',#515);
#165=VERTEX_POINT('',#520);
#166=VERTEX_POINT('',#521);
#167=VERTEX_POINT('',#527);
#168=VERTEX_POINT('',#530);
#169=VERTEX_POINT('',#533);
#170=VERTEX_POINT('',#538);
#171=VERTEX_POINT('',#540);
#172=VERTEX_POINT('',#544);
#173=EDGE_CURVE('',#143,#144,#125,.T.);
#174=EDGE_CURVE('',#144,#145,#77,.T.);
#175=EDGE_CURVE('',#145,#146,#126,.T.);
#176=EDGE_CURVE('',#146,#143,#78,.T.);
#177=EDGE_CURVE('',#143,#147,#79,.T.);
#178=EDGE_CURVE('',#147,#148,#80,.T.);
#179=EDGE_CURVE('',#148,#149,#81,.T.);
#180=EDGE_CURVE('',#150,#149,#127,.T.);
#181=EDGE_CURVE('',#150,#144,#82,.T.);
#182=EDGE_CURVE('',#151,#151,#128,.T.);
#183=EDGE_CURVE('',#152,#146,#83,.T.);
#184=EDGE_CURVE('',#153,#152,#129,.T.);
#185=EDGE_CURVE('',#154,#153,#84,.T.);
#186=EDGE_CURVE('',#155,#154,#85,.T.);
#187=EDGE_CURVE('',#156,#155,#86,.T.);
#188=EDGE_CURVE('',#147,#156,#130,.T.);
#189=EDGE_CURVE('',#157,#158,#131,.T.);
#190=EDGE_CURVE('',#158,#159,#87,.T.);
#191=EDGE_CURVE('',#159,#160,#132,.T.);
#192=EDGE_CURVE('',#160,#157,#88,.T.);
#193=EDGE_CURVE('',#161,#158,#89,.T.);
#194=EDGE_CURVE('',#162,#161,#90,.T.);
#195=EDGE_CURVE('',#162,#159,#91,.T.);
#196=EDGE_CURVE('',#157,#163,#92,.T.);
#197=EDGE_CURVE('',#156,#163,#93,.T.);
#198=EDGE_CURVE('',#161,#155,#133,.T.);
#199=EDGE_CURVE('',#164,#164,#134,.T.);
#200=EDGE_CURVE('',#154,#162,#135,.T.);
#201=EDGE_CURVE('',#165,#166,#136,.T.);
#202=EDGE_CURVE('',#166,#150,#94,.T.);
#203=EDGE_CURVE('',#149,#165,#95,.T.);
#204=EDGE_CURVE('',#145,#166,#96,.T.);
#205=EDGE_CURVE('',#165,#167,#97,.T.);
#206=EDGE_CURVE('',#152,#167,#98,.T.);
#207=EDGE_CURVE('',#168,#168,#137,.T.);
#208=EDGE_CURVE('',#169,#160,#99,.T.);
#209=EDGE_CURVE('',#167,#169,#138,.T.);
#210=EDGE_CURVE('',#163,#148,#139,.T.);
#211=EDGE_CURVE('',#170,#170,#140,.T.);
#212=EDGE_CURVE('',#171,#171,#141,.T.);
#213=EDGE_CURVE('',#172,#172,#142,.T.);
#214=EDGE_CURVE('',#153,#169,#100,.T.);
#215=ORIENTED_EDGE('',*,*,#173,.T.);
#216=ORIENTED_EDGE('',*,*,#174,.T.);
#217=ORIENTED_EDGE('',*,*,#175,.T.);
#218=ORIENTED_EDGE('',*,*,#176,.T.);
#219=ORIENTED_EDGE('',*,*,#173,.F.);
#220=ORIENTED_EDGE('',*,*,#177,.T.);
#221=ORIENTED_EDGE('',*,*,#178,.T.);
#222=ORIENTED_EDGE('',*,*,#179,.T.);
#223=ORIENTED_EDGE('',*,*,#180,.F.);
#224=ORIENTED_EDGE('',*,*,#181,.T.);
#225=ORIENTED_EDGE('',*,*,#182,.T.);
#226=ORIENTED_EDGE('',*,*,#176,.F.);
#227=ORIENTED_EDGE('',*,*,#183,.F.);
#228=ORIENTED_EDGE('',*,*,#184,.F.);
#229=ORIENTED_EDGE('',*,*,#185,.F.);
#230=ORIENTED_EDGE('',*,*,#186,.F.);
#231=ORIENTED_EDGE('',*,*,#187,.F.);
#232=ORIENTED_EDGE('',*,*,#188,.F.);
#233=ORIENTED_EDGE('',*,*,#177,.F.);
#234=ORIENTED_EDGE('',*,*,#189,.T.);
#235=ORIENTED_EDGE('',*,*,#190,.T.);
#236=ORIENTED_EDGE('',*,*,#191,.T.);
#237=ORIENTED_EDGE('',*,*,#192,.T.);
#238=ORIENTED_EDGE('',*,*,#190,.F.);
#239=ORIENTED_EDGE('',*,*,#193,.F.);
#240=ORIENTED_EDGE('',*,*,#194,.F.);
#241=ORIENTED_EDGE('',*,*,#195,.T.);
#242=ORIENTED_EDGE('',*,*,#189,.F.);
#243=ORIENTED_EDGE('',*,*,#196,.T.);
#244=ORIENTED_EDGE('',*,*,#197,.F.);
#245=ORIENTED_EDGE('',*,*,#187,.T.);
#246=ORIENTED_EDGE('',*,*,#198,.F.);
#247=ORIENTED_EDGE('',*,*,#193,.T.);
#248=ORIENTED_EDGE('',*,*,#199,.T.);
#249=ORIENTED_EDGE('',*,*,#200,.T.);
#250=ORIENTED_EDGE('',*,*,#194,.T.);
#251=ORIENTED_EDGE('',*,*,#198,.T.);
#252=ORIENTED_EDGE('',*,*,#186,.T.);
#253=ORIENTED_EDGE('',*,*,#201,.T.);
#254=ORIENTED_EDGE('',*,*,#202,.T.);
#255=ORIENTED_EDGE('',*,*,#180,.T.);
#256=ORIENTED_EDGE('',*,*,#203,.T.);
#257=ORIENTED_EDGE('',*,*,#175,.F.);
#258=ORIENTED_EDGE('',*,*,#204,.T.);
#259=ORIENTED_EDGE('',*,*,#201,.F.);
#260=ORIENTED_EDGE('',*,*,#205,.T.);
#261=ORIENTED_EDGE('',*,*,#206,.F.);
#262=ORIENTED_EDGE('',*,*,#183,.T.);
#263=ORIENTED_EDGE('',*,*,#207,.T.);
#264=ORIENTED_EDGE('',*,*,#192,.F.);
#265=ORIENTED_EDGE('',*,*,#208,.F.);
#266=ORIENTED_EDGE('',*,*,#209,.F.);
#267=ORIENTED_EDGE('',*,*,#205,.F.);
#268=ORIENTED_EDGE('',*,*,#203,.F.);
#269=ORIENTED_EDGE('',*,*,#179,.F.);
#270=ORIENTED_EDGE('',*,*,#210,.F.);
#271=ORIENTED_EDGE('',*,*,#196,.F.);
#272=ORIENTED_EDGE('',*,*,#211,.F.);
#273=ORIENTED_EDGE('',*,*,#212,.F.);
#274=ORIENTED_EDGE('',*,*,#199,.F.);
#275=ORIENTED_EDGE('',*,*,#212,.T.);
#276=ORIENTED_EDGE('',*,*,#207,.F.);
#277=ORIENTED_EDGE('',*,*,#213,.F.);
#278=ORIENTED_EDGE('',*,*,#182,.F.);
#279=ORIENTED_EDGE('',*,*,#213,.T.);
#280=ORIENTED_EDGE('',*,*,#188,.T.);
#281=ORIENTED_EDGE('',*,*,#197,.T.);
#282=ORIENTED_EDGE('',*,*,#210,.T.);
#283=ORIENTED_EDGE('',*,*,#178,.F.);
#284=ORIENTED_EDGE('',*,*,#191,.F.);
#285=ORIENTED_EDGE('',*,*,#195,.F.);
#286=ORIENTED_EDGE('',*,*,#200,.F.);
#287=ORIENTED_EDGE('',*,*,#185,.T.);
#288=ORIENTED_EDGE('',*,*,#214,.T.);
#289=ORIENTED_EDGE('',*,*,#208,.T.);
#290=ORIENTED_EDGE('',*,*,#211,.T.);
#291=ORIENTED_EDGE('',*,*,#184,.T.);
#292=ORIENTED_EDGE('',*,*,#206,.T.);
#293=ORIENTED_EDGE('',*,*,#209,.T.);
#294=ORIENTED_EDGE('',*,*,#214,.F.);
#295=ORIENTED_EDGE('',*,*,#174,.F.);
#296=ORIENTED_EDGE('',*,*,#181,.F.);
#297=ORIENTED_EDGE('',*,*,#202,.F.);
#298=ORIENTED_EDGE('',*,*,#204,.F.);
#299=CYLINDRICAL_SURFACE('',#327,3.5);
#300=CYLINDRICAL_SURFACE('',#336,3.5);
#301=CYLINDRICAL_SURFACE('',#343,3.5);
#302=CYLINDRICAL_SURFACE('',#345,3.5);
#303=CYLINDRICAL_SURFACE('',#355,4.5);
#304=CYLINDRICAL_SURFACE('',#358,4.5);
#305=CYLINDRICAL_SURFACE('',#359,11.);
#306=CYLINDRICAL_SURFACE('',#361,6.);
#307=ADVANCED_FACE('',(#33),#299,.T.);
#308=ADVANCED_FACE('',(#34,#17),#25,.T.);
#309=ADVANCED_FACE('',(#35),#26,.T.);
#310=ADVANCED_FACE('',(#36),#300,.T.);
#311=ADVANCED_FACE('',(#37),#27,.T.);
#312=ADVANCED_FACE('',(#38,#18),#28,.T.);
#313=ADVANCED_FACE('',(#39),#301,.T.);
#314=ADVANCED_FACE('',(#40),#302,.T.);
#315=ADVANCED_FACE('',(#41,#19),#29,.T.);
#316=ADVANCED_FACE('',(#42),#30,.F.);
#317=ADVANCED_FACE('',(#43,#20),#15,.F.);
#318=ADVANCED_FACE('',(#44,#21),#303,.F.);
#319=ADVANCED_FACE('',(#45,#22),#16,.F.);
#320=ADVANCED_FACE('',(#46,#23),#304,.F.);
#321=ADVANCED_FACE('',(#47),#305,.T.);
#322=ADVANCED_FACE('',(#48,#24),#31,.T.);
#323=ADVANCED_FACE('',(#49),#306,.F.);
#324=ADVANCED_FACE('',(#50),#32,.T.);
#325=CLOSED_SHELL('',(#307,#308,#309,#310,#311,#312,#313,#314,#315,#316,
#317,#318,#319,#320,#321,#322,#323,#324));
#326=AXIS2_PLACEMENT_3D('placement',#461,#363,#364);
#327=AXIS2_PLACEMENT_3D('',#462,#365,#366);
#328=AXIS2_PLACEMENT_3D('',#465,#367,#368);
#329=AXIS2_PLACEMENT_3D('',#469,#370,#371);
#330=AXIS2_PLACEMENT_3D('',#471,#373,#374);
#331=AXIS2_PLACEMENT_3D('',#479,#378,#379);
#332=AXIS2_PLACEMENT_3D('',#482,#381,#382);
#333=AXIS2_PLACEMENT_3D('',#483,#383,#384);
#334=AXIS2_PLACEMENT_3D('',#487,#386,#387);
#335=AXIS2_PLACEMENT_3D('',#494,#391,#392);
#336=AXIS2_PLACEMENT_3D('',#495,#393,#394);
#337=AXIS2_PLACEMENT_3D('',#498,#395,#396);
#338=AXIS2_PLACEMENT_3D('',#502,#398,#399);
#339=AXIS2_PLACEMENT_3D('',#504,#401,#402);
#340=AXIS2_PLACEMENT_3D('',#510,#406,#407);
#341=AXIS2_PLACEMENT_3D('',#514,#410,#411);
#342=AXIS2_PLACEMENT_3D('',#516,#412,#413);
#343=AXIS2_PLACEMENT_3D('',#517,#414,#415);
#344=AXIS2_PLACEMENT_3D('',#518,#416,#417);
#345=AXIS2_PLACEMENT_3D('',#519,#418,#419);
#346=AXIS2_PLACEMENT_3D('',#522,#420,#421);
#347=AXIS2_PLACEMENT_3D('',#525,#424,#425);
#348=AXIS2_PLACEMENT_3D('',#531,#429,#430);
#349=AXIS2_PLACEMENT_3D('',#532,#431,#432);
#350=AXIS2_PLACEMENT_3D('',#535,#434,#435);
#351=AXIS2_PLACEMENT_3D('',#536,#436,#437);
#352=AXIS2_PLACEMENT_3D('',#537,#438,#439);
#353=AXIS2_PLACEMENT_3D('',#539,#440,#441);
#354=AXIS2_PLACEMENT_3D('',#541,#442,#443);
#355=AXIS2_PLACEMENT_3D('',#542,#444,#445);
#356=AXIS2_PLACEMENT_3D('',#543,#446,#447);
#357=AXIS2_PLACEMENT_3D('',#545,#448,#449);
#358=AXIS2_PLACEMENT_3D('',#546,#450,#451);
#359=AXIS2_PLACEMENT_3D('',#547,#452,#453);
#360=AXIS2_PLACEMENT_3D('',#548,#454,#455);
#361=AXIS2_PLACEMENT_3D('',#550,#457,#458);
#362=AXIS2_PLACEMENT_3D('',#551,#459,#460);
#363=DIRECTION('axis',(0.,0.,1.));
#364=DIRECTION('refdir',(1.,0.,0.));
#365=DIRECTION('center_axis',(-1.,0.,0.));
#366=DIRECTION('ref_axis',(0.,0.707106781186548,0.707106781186547));
#367=DIRECTION('center_axis',(1.,0.,0.));
#368=DIRECTION('ref_axis',(0.,0.707106781186548,0.707106781186547));
#369=DIRECTION('',(1.,0.,0.));
#370=DIRECTION('center_axis',(-1.,0.,1.53134210293125E-16));
#371=DIRECTION('ref_axis',(0.,0.707106781186548,0.707106781186547));
#372=DIRECTION('',(-1.,0.,0.));
#373=DIRECTION('center_axis',(-1.,0.,0.));
#374=DIRECTION('ref_axis',(0.,0.,1.));
#375=DIRECTION('',(0.,0.,-1.));
#376=DIRECTION('',(0.,-1.,0.));
#377=DIRECTION('',(0.,0.,1.));
#378=DIRECTION('center_axis',(1.,0.,0.));
#379=DIRECTION('ref_axis',(0.,-0.707106781186548,0.707106781186547));
#380=DIRECTION('',(0.,1.,0.));
#381=DIRECTION('center_axis',(1.,0.,0.));
#382=DIRECTION('ref_axis',(-1.53134210293125E-16,0.,-1.));
#383=DIRECTION('center_axis',(0.,1.,0.));
#384=DIRECTION('ref_axis',(0.,0.,1.));
#385=DIRECTION('',(1.53134210293125E-16,0.,1.));
#386=DIRECTION('center_axis',(0.,1.,0.));
#387=DIRECTION('ref_axis',(-1.85037170770859E-16,0.,-1.));
#388=DIRECTION('',(-1.,0.,1.91417762866406E-16));
#389=DIRECTION('',(1.77635683940025E-15,0.,1.));
#390=DIRECTION('',(1.,0.,-3.0626842058625E-16));
#391=DIRECTION('center_axis',(0.,-1.,0.));
#392=DIRECTION('ref_axis',(3.02788097625043E-16,0.,1.));
#393=DIRECTION('center_axis',(-1.77635683940025E-15,0.,-1.));
#394=DIRECTION('ref_axis',(0.707106781186547,-0.707106781186548,-1.34579353601466E-15));
#395=DIRECTION('center_axis',(3.0626842058625E-16,0.,1.));
#396=DIRECTION('ref_axis',(0.707106781186547,-0.707106781186548,-1.34579353601466E-15));
#397=DIRECTION('',(1.77635683940025E-15,0.,1.));
#398=DIRECTION('center_axis',(-1.91417762866406E-16,0.,-1.));
#399=DIRECTION('ref_axis',(0.707106781186547,-0.707106781186548,-1.34579353601466E-15));
#400=DIRECTION('',(-1.77635683940025E-15,0.,-1.));
#401=DIRECTION('center_axis',(1.,0.,-1.77635683940025E-15));
#402=DIRECTION('ref_axis',(-1.77635683940025E-15,0.,-1.));
#403=DIRECTION('',(0.,-1.,0.));
#404=DIRECTION('',(-1.77635683940025E-15,0.,-1.));
#405=DIRECTION('',(0.,-1.,0.));
#406=DIRECTION('center_axis',(-3.0626842058625E-16,0.,-1.));
#407=DIRECTION('ref_axis',(-1.,0.,3.5527136788005E-16));
#408=DIRECTION('',(-1.,0.,3.0626842058625E-16));
#409=DIRECTION('',(0.,-1.,0.));
#410=DIRECTION('center_axis',(3.0626842058625E-16,0.,1.));
#411=DIRECTION('ref_axis',(0.707106781186547,0.707106781186548,-1.12149461334555E-15));
#412=DIRECTION('center_axis',(3.0626842058625E-16,0.,1.));
#413=DIRECTION('ref_axis',(1.,0.,-1.91417762866406E-16));
#414=DIRECTION('center_axis',(1.77635683940025E-15,0.,1.));
#415=DIRECTION('ref_axis',(0.707106781186547,0.707106781186548,-1.12149461334555E-15));
#416=DIRECTION('center_axis',(-1.91417762866406E-16,0.,-1.));
#417=DIRECTION('ref_axis',(0.707106781186547,0.707106781186548,-1.12149461334555E-15));
#418=DIRECTION('center_axis',(1.,0.,0.));
#419=DIRECTION('ref_axis',(0.,-0.707106781186548,0.707106781186547));
#420=DIRECTION('center_axis',(-1.,0.,1.53134210293125E-16));
#421=DIRECTION('ref_axis',(0.,-0.707106781186548,0.707106781186547));
#422=DIRECTION('',(-1.,0.,0.));
#423=DIRECTION('',(1.,0.,0.));
#424=DIRECTION('center_axis',(1.,0.,-1.53134210293125E-16));
#425=DIRECTION('ref_axis',(-1.77635683940025E-16,0.,-1.));
#426=DIRECTION('',(0.,-1.,0.));
#427=DIRECTION('',(-1.53134210293125E-16,0.,-1.));
#428=DIRECTION('',(0.,-1.,0.));
#429=DIRECTION('center_axis',(-1.,0.,1.53134210293125E-16));
#430=DIRECTION('ref_axis',(-1.53134210293125E-16,0.,-1.));
#431=DIRECTION('center_axis',(0.,1.,0.));
#432=DIRECTION('ref_axis',(0.,0.,1.));
#433=DIRECTION('',(1.,0.,-1.91417762866406E-16));
#434=DIRECTION('center_axis',(0.,-1.,0.));
#435=DIRECTION('ref_axis',(-1.85037170770859E-16,0.,-1.));
#436=DIRECTION('center_axis',(0.,1.,0.));
#437=DIRECTION('ref_axis',(3.02788097625043E-16,0.,1.));
#438=DIRECTION('center_axis',(1.91417762866406E-16,0.,1.));
#439=DIRECTION('ref_axis',(1.,0.,-1.91417762866406E-16));
#440=DIRECTION('center_axis',(-1.91417762866406E-16,0.,-1.));
#441=DIRECTION('ref_axis',(1.,0.,-1.91417762866406E-16));
#442=DIRECTION('center_axis',(1.91417762866406E-16,0.,1.));
#443=DIRECTION('ref_axis',(1.,0.,-1.91417762866406E-16));
#444=DIRECTION('center_axis',(1.91417762866406E-16,0.,1.));
#445=DIRECTION('ref_axis',(1.,0.,-1.91417762866406E-16));
#446=DIRECTION('center_axis',(1.,0.,-1.53134210293125E-16));
#447=DIRECTION('ref_axis',(-1.53134210293125E-16,0.,-1.));
#448=DIRECTION('center_axis',(1.,0.,-1.53134210293125E-16));
#449=DIRECTION('ref_axis',(-1.53134210293125E-16,0.,-1.));
#450=DIRECTION('center_axis',(1.,0.,-1.53134210293125E-16));
#451=DIRECTION('ref_axis',(-1.53134210293125E-16,0.,-1.));
#452=DIRECTION('center_axis',(0.,1.,0.));
#453=DIRECTION('ref_axis',(3.02788097625043E-16,0.,1.));
#454=DIRECTION('center_axis',(1.91417762866406E-16,0.,1.));
#455=DIRECTION('ref_axis',(1.,0.,-1.77635683940025E-16));
#456=DIRECTION('',(0.,-1.,0.));
#457=DIRECTION('center_axis',(0.,1.,0.));
#458=DIRECTION('ref_axis',(-1.85037170770859E-16,0.,-1.));
#459=DIRECTION('center_axis',(0.,0.,1.));
#460=DIRECTION('ref_axis',(1.,0.,0.));
#461=CARTESIAN_POINT('',(0.,0.,0.));
#462=CARTESIAN_POINT('Origin',(-2.02799715649763,16.5,25.4999999999999));
#463=CARTESIAN_POINT('',(-11.,20.,25.4999999999999));
#464=CARTESIAN_POINT('',(-11.,16.5,28.9999999999999));
#465=CARTESIAN_POINT('Origin',(-11.,16.5,25.4999999999999));
#466=CARTESIAN_POINT('',(-6.,16.5,28.9999999999999));
#467=CARTESIAN_POINT('',(-2.02799715649763,16.5,28.9999999999999));
#468=CARTESIAN_POINT('',(-6.,20.,25.4999999999999));
#469=CARTESIAN_POINT('Origin',(-6.00000000000001,16.5,25.4999999999999));
#470=CARTESIAN_POINT('',(-2.02799715649763,20.,25.4999999999999));
#471=CARTESIAN_POINT('Origin',(-11.,0.,28.9999999999999));
#472=CARTESIAN_POINT('',(-11.,20.,3.33066907387547E-15));
#473=CARTESIAN_POINT('',(-11.,20.,28.9999999999999));
#474=CARTESIAN_POINT('',(-11.,-20.,3.33066907387547E-15));
#475=CARTESIAN_POINT('',(-11.,0.,3.33066907387547E-15));
#476=CARTESIAN_POINT('',(-11.,-20.,25.4999999999999));
#477=CARTESIAN_POINT('',(-11.,-20.,28.9999999999999));
#478=CARTESIAN_POINT('',(-11.,-16.5,28.9999999999999));
#479=CARTESIAN_POINT('Origin',(-11.,-16.5,25.4999999999999));
#480=CARTESIAN_POINT('',(-11.,0.,28.9999999999999));
#481=CARTESIAN_POINT('',(-11.,-5.5107285922007E-16,13.4999999999999));
#482=CARTESIAN_POINT('Origin',(-11.,0.,8.99999999999993));
#483=CARTESIAN_POINT('Origin',(1.94400568700475,20.,1.94400568700471));
#484=CARTESIAN_POINT('',(-6.00000000000001,20.,7.34763812293427E-16));
#485=CARTESIAN_POINT('',(-6.00000000000001,20.,0.));
#486=CARTESIAN_POINT('',(-5.55111512312578E-15,20.,-6.));
#487=CARTESIAN_POINT('Origin',(-4.44089209850063E-15,20.,0.));
#488=CARTESIAN_POINT('',(25.5,20.,-6.00000000000001));
#489=CARTESIAN_POINT('',(29.,20.,-6.00000000000001));
#490=CARTESIAN_POINT('',(25.5,20.,-11.));
#491=CARTESIAN_POINT('',(25.5,20.,-4.52799715649766));
#492=CARTESIAN_POINT('',(-3.33066907387547E-15,20.,-11.));
#493=CARTESIAN_POINT('',(-4.44089209850063E-15,20.,-11.));
#494=CARTESIAN_POINT('Origin',(0.,20.,3.33066907387547E-15));
#495=CARTESIAN_POINT('Origin',(25.5,-16.5,-4.52799715649767));
#496=CARTESIAN_POINT('',(25.5,-20.,-11.));
#497=CARTESIAN_POINT('',(29.,-16.5,-11.));
#498=CARTESIAN_POINT('Origin',(25.5,-16.5,-11.));
#499=CARTESIAN_POINT('',(29.,-16.5,-6.00000000000001));
#500=CARTESIAN_POINT('',(29.,-16.5,-4.52799715649767));
#501=CARTESIAN_POINT('',(25.5,-20.,-6.00000000000001));
#502=CARTESIAN_POINT('Origin',(25.5,-16.5,-6.));
#503=CARTESIAN_POINT('',(25.5,-20.,-4.52799715649767));
#504=CARTESIAN_POINT('Origin',(29.,0.,-11.));
#505=CARTESIAN_POINT('',(29.,16.5,-11.));
#506=CARTESIAN_POINT('',(29.,0.,-11.));
#507=CARTESIAN_POINT('',(29.,16.5,-6.00000000000001));
#508=CARTESIAN_POINT('',(29.,16.5,-4.52799715649767));
#509=CARTESIAN_POINT('',(29.,0.,-6.00000000000001));
#510=CARTESIAN_POINT('Origin',(-3.33066907387547E-15,0.,-11.));
#511=CARTESIAN_POINT('',(-3.33066907387547E-15,-20.,-11.));
#512=CARTESIAN_POINT('',(-4.44089209850063E-15,-20.,-11.));
#513=CARTESIAN_POINT('',(-3.33066907387547E-15,0.,-11.));
#514=CARTESIAN_POINT('Origin',(25.5,16.5,-11.));
#515=CARTESIAN_POINT('',(4.5,-5.5107285922007E-16,-11.));
#516=CARTESIAN_POINT('Origin',(9.,0.,-11.));
#517=CARTESIAN_POINT('Origin',(25.5,16.5,-4.52799715649766));
#518=CARTESIAN_POINT('Origin',(25.5,16.5,-6.));
#519=CARTESIAN_POINT('Origin',(-2.02799715649763,-16.5,25.4999999999999));
#520=CARTESIAN_POINT('',(-6.,-20.,25.4999999999999));
#521=CARTESIAN_POINT('',(-6.,-16.5,28.9999999999999));
#522=CARTESIAN_POINT('Origin',(-6.00000000000001,-16.5,25.4999999999999));
#523=CARTESIAN_POINT('',(-2.02799715649763,-16.5,28.9999999999999));
#524=CARTESIAN_POINT('',(-2.02799715649763,-20.,25.4999999999999));
#525=CARTESIAN_POINT('Origin',(-6.00000000000001,0.,7.34763812293427E-16));
#526=CARTESIAN_POINT('',(-6.,0.,28.9999999999999));
#527=CARTESIAN_POINT('',(-6.00000000000001,-20.,7.34763812293427E-16));
#528=CARTESIAN_POINT('',(-6.00000000000001,-20.,0.));
#529=CARTESIAN_POINT('',(-6.00000000000001,0.,7.34763812293427E-16));
#530=CARTESIAN_POINT('',(-6.00000000000001,0.,0.399999999999929));
#531=CARTESIAN_POINT('Origin',(-6.,0.,8.99999999999993));
#532=CARTESIAN_POINT('Origin',(1.94400568700475,-20.,1.94400568700471));
#533=CARTESIAN_POINT('',(-5.55111512312578E-15,-20.,-6.));
#534=CARTESIAN_POINT('',(29.,-20.,-6.00000000000001));
#535=CARTESIAN_POINT('Origin',(-4.44089209850063E-15,-20.,0.));
#536=CARTESIAN_POINT('Origin',(0.,-20.,3.33066907387547E-15));
#537=CARTESIAN_POINT('Origin',(9.,0.,-8.05));
#538=CARTESIAN_POINT('',(17.6,0.,-6.));
#539=CARTESIAN_POINT('Origin',(9.,0.,-6.));
#540=CARTESIAN_POINT('',(13.5,0.,-10.1));
#541=CARTESIAN_POINT('Origin',(9.,0.,-10.1));
#542=CARTESIAN_POINT('Origin',(8.99999999999999,0.,-75.2820323027551));
#543=CARTESIAN_POINT('Origin',(-8.05,0.,8.99999999999993));
#544=CARTESIAN_POINT('',(-10.1,0.,4.49999999999993));
#545=CARTESIAN_POINT('Origin',(-10.1,0.,8.99999999999993));
#546=CARTESIAN_POINT('Origin',(-75.2820323027551,0.,8.99999999999994));
#547=CARTESIAN_POINT('Origin',(0.,0.,3.33066907387547E-15));
#548=CARTESIAN_POINT('Origin',(29.,0.,-6.00000000000001));
#549=CARTESIAN_POINT('',(-5.55111512312578E-15,0.,-6.));
#550=CARTESIAN_POINT('Origin',(-4.44089209850063E-15,0.,0.));
#551=CARTESIAN_POINT('Origin',(-6.,0.,28.9999999999999));
#552=UNCERTAINTY_MEASURE_WITH_UNIT(LENGTH_MEASURE(0.01),#556,
'DISTANCE_ACCURACY_VALUE',
'Maximum model space distance between geometric entities at asserted c
onnectivities');
#553=UNCERTAINTY_MEASURE_WITH_UNIT(LENGTH_MEASURE(1.E-6),#556,
'DISTANCE_ACCURACY_VALUE',
'Maximum model space distance between geometric entities at asserted c
onnectivities');
#554=(
GEOMETRIC_REPRESENTATION_CONTEXT(3)
GLOBAL_UNCERTAINTY_ASSIGNED_CONTEXT((#552))
GLOBAL_UNIT_ASSIGNED_CONTEXT((#556,#559,#557))
REPRESENTATION_CONTEXT('','3D')
);
#555=(
GEOMETRIC_REPRESENTATION_CONTEXT(3)
GLOBAL_UNCERTAINTY_ASSIGNED_CONTEXT((#553))
GLOBAL_UNIT_ASSIGNED_CONTEXT((#556,#559,#557))
REPRESENTATION_CONTEXT('','3D')
);
#556=(
LENGTH_UNIT()
NAMED_UNIT(*)
SI_UNIT(.MILLI.,.METRE.)
);
#557=(
NAMED_UNIT(*)
SI_UNIT($,.STERADIAN.)
SOLID_ANGLE_UNIT()
);
#558=DIMENSIONAL_EXPONENTS(0.,0.,0.,0.,0.,0.,0.);
#559=(
CONVERSION_BASED_UNIT('degree',#561)
NAMED_UNIT(#558)
PLANE_ANGLE_UNIT()
);
#560=(
NAMED_UNIT(*)
PLANE_ANGLE_UNIT()
SI_UNIT($,.RADIAN.)
);
#561=PLANE_ANGLE_MEASURE_WITH_UNIT(PLANE_ANGLE_MEASURE(0.01745329252),#560);
#562=SHAPE_DEFINITION_REPRESENTATION(#563,#564);
#563=PRODUCT_DEFINITION_SHAPE('',$,#566);
#564=SHAPE_REPRESENTATION('',(#326),#554);
#565=PRODUCT_DEFINITION_CONTEXT('part definition',#570,'design');
#566=PRODUCT_DEFINITION('SZ0950S-A','SZ0950S-A',#567,#565);
#567=PRODUCT_DEFINITION_FORMATION('',$,#572);
#568=PRODUCT_RELATED_PRODUCT_CATEGORY('SZ0950S-A','SZ0950S-A',(#572));
#569=APPLICATION_PROTOCOL_DEFINITION('international standard',
'automotive_design',2009,#570);
#570=APPLICATION_CONTEXT(
'Core Data for Automotive Mechanical Design Process');
#571=PRODUCT_CONTEXT('part definition',#570,'mechanical');
#572=PRODUCT('SZ0950S-A','SZ0950S-A',$,(#571));
#573=PRESENTATION_STYLE_ASSIGNMENT((#574));
#574=SURFACE_STYLE_USAGE(.BOTH.,#575);
#575=SURFACE_SIDE_STYLE($,(#576));
#576=SURFACE_STYLE_FILL_AREA(#577);
#577=FILL_AREA_STYLE($,(#578));
#578=FILL_AREA_STYLE_COLOUR($,#579);
#579=COLOUR_RGB('',0.32156862745098,0.32156862745098,0.32156862745098);
ENDSEC;
END-ISO-10303-21;
