                                                                        S      1
,,22HZuganker G 25 M6 19 mm,9HSV7107V_A,22HAutodesk Inventor 2015,7HunknG      1
own,32,38,7,99,15,,1.,2,2HMM,1,0.08,15H20151127.093723,0.01,10000.,9HM. G      2
 Boeke,,11,0,;                                                          G      3
     186       1                                                00000000D      1
     186             -73       1       0                               0D      2
     514       2                                                00010000D      3
     514                       1       1                               0D      4
     510       3                                                00010000D      5
     510             -73       1       1                               0D      6
     510       4                                                00010000D      7
     510             -73       1       1                               0D      8
     510       5                                                00010000D      9
     510             -73       1       1                               0D     10
     510       6                                                00010000D     11
     510             -73       1       1                               0D     12
     510       7                                                00010000D     13
     510             -73       1       1                               0D     14
     510       8                                                00010000D     15
     510             -73       1       1                               0D     16
     508       9                                                00010000D     17
     508                       1       1                               0D     18
     508      10                                                00010000D     19
     508                       2       1                               0D     20
     508      12                                                00010000D     21
     508                       1       1                               0D     22
     508      13                                                00010000D     23
     508                       1       1                               0D     24
     508      14                                                00010000D     25
     508                       1       1                               0D     26
     508      15                                                00010000D     27
     508                       1       1                               0D     28
     508      16                                                00010000D     29
     508                       1       1                               0D     30
     126      17                                                00010000D     31
     126       0               9       0                               0D     32
     126      26                                                00010000D     33
     126       0               3       0                               0D     34
     126      29                                                00010000D     35
     126       0               5       0                               0D     36
     126      34                                                00010000D     37
     126       0               5       0                               0D     38
     126      39                                                00010000D     39
     126       0               3       0                               0D     40
     126      42                                                00010000D     41
     126       0               5       0                               0D     42
     126      47                                                00010000D     43
     126       0               5       0                               0D     44
     126      52                                                00010000D     45
     126       0              31       0                               0D     46
     126      83                                                00010000D     47
     126       0              32       0                               0D     48
     126     115                                                00010000D     49
     126       0               4       0                               0D     50
     126     119                                                00010000D     51
     126       0               9       0                               0D     52
     126     128                                                00010000D     53
     126       0               3       0                               0D     54
     128     131                                                00010000D     55
     128       0     -73      13       0                               0D     56
     128     144                                                00010000D     57
     128       0     -73      13       0                               0D     58
     128     157                                                00010000D     59
     128       0     -73       3       0                               0D     60
     128     160                                                00010000D     61
     128       0     -73      15       0                               0D     62
     128     175                                                00010000D     63
     128       0     -73       3       0                               0D     64
     128     178                                                00010000D     65
     128       0     -73      16       0                               0D     66
     502     194                                                00010000D     67
     502                       3       1                               0D     68
     504     197                                                00010001D     69
     504                       3       1                               0D     70
     406     200                                                00000000D     71
     406                       1      15                               0D     72
     314     201                                                00000200D     73
     314                       1       0                               0D     74
186,3,1,0,0,1,71;                                                      1P      1
514,6,5,1,7,1,9,1,11,1,13,1,15,1;                                      3P      2
510,55,1,1,17;                                                         5P      3
510,57,2,1,19,21;                                                      7P      4
510,59,1,1,23;                                                         9P      5
510,61,1,1,25;                                                        11P      6
510,63,1,1,27;                                                        13P      7
510,65,1,1,29;                                                        15P      8
508,5,0,69,1,1,0,0,69,2,1,0,0,69,3,1,0,0,69,4,1,0,0,69,2,0,0;         17P      9
508,6,0,69,3,0,0,0,69,4,0,0,0,69,5,1,0,0,69,6,0,0,0,69,7,0,0,0,       19P     10
69,5,0,0;                                                             19P     11
508,2,0,69,8,1,0,0,69,9,1,0;                                          21P     12
508,1,0,69,1,0,0;                                                     23P     13
508,5,0,69,6,1,0,0,69,7,1,0,0,69,10,1,0,0,69,11,1,0,0,69,10,0,0;      25P     14
508,1,0,69,11,0,0;                                                    27P     15
508,4,0,69,12,1,0,0,69,9,0,0,0,69,8,0,0,0,69,12,0,0;                  29P     16
126,8,2,0,1,0,0,-3.14159265358979,-3.14159265358979,                  31P     17
-3.14159265358979,-1.5707963267949,-1.5707963267949,0.,0.,            31P     18
1.5707963267949,1.5707963267949,3.14159265358979,                     31P     19
3.14159265358979,3.14159265358979,1.,0.707106781186548,1.,            31P     20
0.707106781186548,1.,0.707106781186548,1.,0.707106781186548,1.,       31P     21
-2.44929359829471D-16,2.,-19.,-2.,2.,-19.,-2.,                        31P     22
-1.22464679914735D-16,-19.,-2.,-2.,-19.,0.,-2.,-19.,2.,-2.,-19.,      31P     23
2.,-1.22464679914735D-16,-19.,2.,2.,-19.,2.44929359829471D-16,        31P     24
2.,-19.,-3.14159265358979,3.14159265358979,0.,0.,0.;                  31P     25
126,1,1,0,0,1,0,-0.282842712474619,-0.282842712474619,                33P     26
0.282842712474619,0.282842712474619,1.,1.,0.,2.,-19.,0.,3.,-18.,      33P     27
-0.282842712474619,0.282842712474619,0.,0.,0.;                        33P     28
126,4,2,0,0,0,0,-3.14159265358979,-3.14159265358979,                  35P     29
-3.14159265358979,-1.5707963267949,-1.5707963267949,0.,0.,0.,1.,      35P     30
0.707106781186548,1.,0.707106781186548,1.,3.67394039744206D-16,       35P     31
3.,-18.,3.,3.,-18.,3.,-1.83697019872103D-16,-18.,3.,-3.,-18.,0.,      35P     32
-3.,-18.,-3.14159265358979,0.,0.,0.,0.;                               35P     33
126,4,2,0,0,0,0,0.,0.,0.,1.5707963267949,1.5707963267949,             37P     34
3.14159265358979,3.14159265358979,3.14159265358979,1.,                37P     35
0.707106781186548,1.,0.707106781186548,1.,0.,-3.,-18.,-3.,-3.,        37P     36
-18.,-3.,-1.83697019872103D-16,-18.,-3.,3.,-18.,                      37P     37
-3.67394039744206D-16,3.,-18.,0.,3.14159265358979,0.,0.,0.;           37P     38
126,1,1,0,0,1,0,-1.33333333333333,-1.33333333333333,                  39P     39
4.33333333333333,4.33333333333333,1.,1.,0.,-3.,-18.,0.,-3.,-1.,       39P     40
-1.33333333333333,4.33333333333333,0.,0.,0.;                          39P     41
126,4,2,0,0,0,0,-3.14159265358979,-3.14159265358979,                  41P     42
-3.14159265358979,-1.5707963267949,-1.5707963267949,0.,0.,0.,1.,      41P     43
0.707106781186548,1.,0.707106781186548,1.,-3.67394039744206D-16,      41P     44
3.,-1.,-3.,3.,-1.,-3.,-1.83697019872103D-16,-1.,-3.,-3.,-1.,0.,       41P     45
-3.,-1.,-3.14159265358979,0.,0.,0.,0.;                                41P     46
126,4,2,0,0,0,0,0.,0.,0.,1.5707963267949,1.5707963267949,             43P     47
3.14159265358979,3.14159265358979,3.14159265358979,1.,                43P     48
0.707106781186548,1.,0.707106781186548,1.,0.,-3.,-1.,3.,-3.,-1.,      43P     49
3.,-1.83697019872103D-16,-1.,3.,3.,-1.,3.67394039744206D-16,3.,       43P     50
-1.,0.,3.14159265358979,0.,0.,0.;                                     43P     51
126,21,3,0,0,1,0,0.39551667188961,0.39551667188961,                   45P     52
0.39551667188961,0.39551667188961,0.443345221252031,                  45P     53
0.443345221252031,0.491173770614452,0.491173770614452,                45P     54
0.600111415826061,0.600111415826061,0.69557237980264,                 45P     55
0.69557237980264,0.79103334377922,0.79103334377922,                   45P     56
0.886494307755799,0.886494307755799,0.981955271732378,                45P     57
0.981955271732378,1.09089291694399,1.09089291694399,                  45P     58
1.13872146630641,1.13872146630641,1.18655001566883,                   45P     59
1.18655001566883,1.18655001566883,1.18655001566883,1.,1.,1.,1.,       45P     60
1.,1.,1.,1.,1.,1.,1.,1.,1.,1.,1.,1.,1.,1.,1.,1.,1.,1.,3.,             45P     61
6.93889390390723D-17,-7.5,3.,-0.159428497874736,-7.5,                 45P     62
2.98623938040196,-0.329790567800089,-7.47266527883904,                45P     63
2.93316949059377,-0.650310762663814,-7.3650399864211,                 45P     64
2.89425039099578,-0.800698945854499,-7.2852432047771,                 45P     65
2.75902396358048,-1.21661442761567,-6.99925231440914,                 45P     66
2.61725884820991,-1.4805028021205,-6.68279671472227,                  45P     67
2.40575364902669,-1.80126306305298,-6.1201358937286,                  45P     68
2.30465232268267,-1.92357344740932,-5.81086904978387,                 45P     69
2.16105766868437,-2.08359940548936,-5.16020463073143,                 45P     70
2.12132034355964,-2.12132034355964,-4.81820321325526,                 45P     71
2.12132034355964,-2.12132034355964,-4.18179678674474,                 45P     72
2.16105766868437,-2.08359940548936,-3.83979536926858,                 45P     73
2.30465232268266,-1.92357344740932,-3.18913095021613,                 45P     74
2.40575364902669,-1.80126306305298,-2.87986410627141,                 45P     75
2.61725884820991,-1.4805028021205,-2.31720328527773,                  45P     76
2.75902396358048,-1.21661442761567,-2.00074768559086,                 45P     77
2.89425039099578,-0.8006989458545,-1.7147567952229,                   45P     78
2.93316949059377,-0.650310762663815,-1.6349600135789,                 45P     79
2.98623938040196,-0.32979056780009,-1.52733472116096,3.,              45P     80
-0.159428497874736,-1.5,3.,3.46944695195361D-17,-1.5,                 45P     81
0.39551667188961,1.18655001566883,0.,0.,0.;                           45P     82
126,22,3,0,0,1,0,1.18655001566883,1.18655001566883,                   47P     83
1.18655001566883,1.18655001566883,1.23437856503125,                   47P     84
1.23437856503125,1.28220711439367,1.28220711439367,                   47P     85
1.39114475960528,1.39114475960528,1.48660572358186,                   47P     86
1.48660572358186,1.58206668755844,1.58206668755844,                   47P     87
1.58206668755844,1.67752765153502,1.67752765153502,                   47P     88
1.7729886155116,1.7729886155116,1.88192626072321,                     47P     89
1.88192626072321,1.92975481008563,1.92975481008563,                   47P     90
1.97758335944805,1.97758335944805,1.97758335944805,                   47P     91
1.97758335944805,1.,1.,1.,1.,1.,1.,1.,1.,1.,1.,1.,1.,1.,1.,1.,        47P     92
1.,1.,1.,1.,1.,1.,1.,1.,3.,3.46944695195361D-17,-1.5,3.,              47P     93
0.159428497874736,-1.5,2.98623938040196,0.329790567800088,            47P     94
-1.52733472116096,2.93316949059377,0.650310762663813,                 47P     95
-1.6349600135789,2.89425039099578,0.800698945854499,                  47P     96
-1.7147567952229,2.75902396358048,1.21661442761567,                   47P     97
-2.00074768559086,2.61725884820991,1.4805028021205,                   47P     98
-2.31720328527773,2.40575364902669,1.80126306305298,                  47P     99
-2.87986410627141,2.30465232268266,1.92357344740932,                  47P    100
-3.18913095021613,2.16105766868437,2.08359940548936,                  47P    101
-3.83979536926857,2.12132034355964,2.12132034355964,                  47P    102
-4.18179678674474,2.12132034355964,2.12132034355964,-4.5,             47P    103
2.12132034355964,2.12132034355964,-4.81820321325526,                  47P    104
2.16105766868437,2.08359940548936,-5.16020463073143,                  47P    105
2.30465232268267,1.92357344740932,-5.81086904978387,                  47P    106
2.40575364902669,1.80126306305298,-6.12013589372859,                  47P    107
2.61725884820991,1.4805028021205,-6.68279671472227,                   47P    108
2.75902396358048,1.21661442761567,-6.99925231440914,                  47P    109
2.89425039099578,0.8006989458545,-7.2852432047771,                    47P    110
2.93316949059377,0.650310762663815,-7.3650399864211,                  47P    111
2.98623938040196,0.32979056780009,-7.47266527883904,3.,               47P    112
0.159428497874737,-7.5,3.,1.38777878078145D-16,-7.5,                  47P    113
1.18655001566883,1.97758335944805,0.,0.,0.;                           47P    114
126,1,1,0,0,1,0,-0.28284271247462,-0.28284271247462,                  49P    115
0.28284271247462,0.28284271247462,1.,1.,0.,3.,-1.,0.,2.,              49P    116
6.93889390390723D-17,-0.28284271247462,0.28284271247462,0.,0.,        49P    117
0.;                                                                   49P    118
126,8,2,0,1,0,0,-3.14159265358979,-3.14159265358979,                  51P    119
-3.14159265358979,-1.5707963267949,-1.5707963267949,0.,0.,            51P    120
1.5707963267949,1.5707963267949,3.14159265358979,                     51P    121
3.14159265358979,3.14159265358979,1.,0.707106781186548,1.,            51P    122
0.707106781186548,1.,0.707106781186548,1.,0.707106781186548,1.,       51P    123
2.4492935982947D-16,2.,0.,2.,2.,0.,2.,-1.22464679914735D-16,0.,       51P    124
2.,-2.,0.,0.,-2.,0.,-2.,-2.,0.,-2.,-1.22464679914735D-16,0.,-2.,      51P    125
2.,0.,-2.4492935982947D-16,2.,0.,-3.14159265358979,                   51P    126
3.14159265358979,0.,0.,0.;                                            51P    127
126,1,1,0,0,1,0,-1.4142135623731,-1.4142135623731,                    53P    128
1.4142135623731,1.4142135623731,1.,1.,-2.77555756156289D-16,0.,       53P    129
-4.5,3.,0.,-7.5,-1.4142135623731,1.4142135623731,0.,0.,0.;            53P    130
128,1,8,1,2,0,1,0,0,0,-0.282842712474619,-0.282842712474619,          55P    131
0.282842712474619,0.282842712474619,-3.14159265358979,                55P    132
-3.14159265358979,-3.14159265358979,-1.5707963267949,                 55P    133
-1.5707963267949,0.,0.,1.5707963267949,1.5707963267949,               55P    134
3.14159265358979,3.14159265358979,3.14159265358979,1.,1.,             55P    135
0.707106781186548,0.707106781186548,1.,1.,0.707106781186548,          55P    136
0.707106781186548,1.,1.,0.707106781186548,0.707106781186548,1.,       55P    137
1.,0.707106781186548,0.707106781186548,1.,1.,0.,2.,-19.,0.,3.,        55P    138
-18.,2.,2.,-19.,3.,3.,-18.,2.,0.,-19.,3.,0.,-18.,2.,-2.,-19.,3.,      55P    139
-3.,-18.,0.,-2.,-19.,0.,-3.,-18.,-2.,-2.,-19.,-3.,-3.,-18.,-2.,       55P    140
0.,-19.,-3.,0.,-18.,-2.,2.,-19.,-3.,3.,-18.,0.,2.,-19.,0.,3.,         55P    141
-18.,-0.282842712474619,0.282842712474619,-3.14159265358979,          55P    142
3.14159265358979;                                                     55P    143
128,1,8,1,2,0,1,0,0,0,-4.33333333333333,-4.33333333333333,            57P    144
1.33333333333333,1.33333333333333,-3.14159265358979,                  57P    145
-3.14159265358979,-3.14159265358979,-1.5707963267949,                 57P    146
-1.5707963267949,0.,0.,1.5707963267949,1.5707963267949,               57P    147
3.14159265358979,3.14159265358979,3.14159265358979,1.,1.,             57P    148
0.707106781186548,0.707106781186548,1.,1.,0.707106781186548,          57P    149
0.707106781186548,1.,1.,0.707106781186548,0.707106781186548,1.,       57P    150
1.,0.707106781186548,0.707106781186548,1.,1.,0.,-3.,-18.,0.,-3.,      57P    151
-1.,-3.,-3.,-18.,-3.,-3.,-1.,-3.,0.,-18.,-3.,0.,-1.,-3.,3.,-18.,      57P    152
-3.,3.,-1.,0.,3.,-18.,0.,3.,-1.,3.,3.,-18.,3.,3.,-1.,3.,0.,-18.,      57P    153
3.,0.,-1.,3.,-3.,-18.,3.,-3.,-1.,0.,-3.,-18.,0.,-3.,-1.,              57P    154
-4.33333333333333,1.33333333333333,-3.14159265358979,                 57P    155
3.14159265358979;                                                     57P    156
128,1,1,1,1,0,0,1,0,0,-0.2,-0.2,0.2,0.2,-0.35,-0.35,0.05,0.05,        59P    157
1.,1.,1.,1.,2.,-2.,-19.,-2.,-2.,-19.,2.,2.,-19.,-2.,2.,-19.,          59P    158
-0.2,0.2,-0.35,0.05;                                                  59P    159
128,1,8,1,2,0,1,0,0,0,-0.28284271247462,-0.28284271247462,            61P    160
0.28284271247462,0.28284271247462,-3.14159265358979,                  61P    161
-3.14159265358979,-3.14159265358979,-1.5707963267949,                 61P    162
-1.5707963267949,0.,0.,1.5707963267949,1.5707963267949,               61P    163
3.14159265358979,3.14159265358979,3.14159265358979,1.,1.,             61P    164
0.707106781186548,0.707106781186548,1.,1.,0.707106781186548,          61P    165
0.707106781186548,1.,1.,0.707106781186548,0.707106781186548,1.,       61P    166
1.,0.707106781186548,0.707106781186548,1.,1.,0.,3.,-1.,0.,2.,         61P    167
6.93889390390723D-17,3.,3.,-1.,2.,2.,6.93889390390723D-17,3.,0.,      61P    168
-1.,2.,0.,6.93889390390723D-17,3.,-3.,-1.,2.,-2.,                     61P    169
6.93889390390723D-17,0.,-3.,-1.,0.,-2.,6.93889390390723D-17,-3.,      61P    170
-3.,-1.,-2.,-2.,6.93889390390723D-17,-3.,0.,-1.,-2.,0.,               61P    171
6.93889390390723D-17,-3.,3.,-1.,-2.,2.,6.93889390390723D-17,0.,       61P    172
3.,-1.,0.,2.,6.93889390390723D-17,-0.28284271247462,                  61P    173
0.28284271247462,-3.14159265358979,3.14159265358979;                  61P    174
128,1,1,1,1,0,0,1,0,0,-0.2,-0.2,0.2,0.2,-0.35,-0.35,                  63P    175
0.0499999999999999,0.0499999999999999,1.,1.,1.,1.,-2.,-2.,0.,2.,      63P    176
-2.,0.,-2.,2.,0.,2.,2.,0.,-0.2,0.2,-0.35,0.0499999999999999;          63P    177
128,1,8,1,2,0,1,0,0,0,-1.4142135623731,-1.4142135623731,              65P    178
1.4142135623731,1.4142135623731,-3.14159265358979,                    65P    179
-3.14159265358979,-3.14159265358979,-1.5707963267949,                 65P    180
-1.5707963267949,0.,0.,1.5707963267949,1.5707963267949,               65P    181
3.14159265358979,3.14159265358979,3.14159265358979,1.,1.,             65P    182
0.707106781186548,0.707106781186548,1.,1.,0.707106781186548,          65P    183
0.707106781186548,1.,1.,0.707106781186548,0.707106781186548,1.,       65P    184
1.,0.707106781186548,0.707106781186548,1.,1.,                         65P    185
-2.77555756156289D-16,0.,-4.5,3.,0.,-7.5,-2.77555756156289D-16,       65P    186
0.,-4.5,3.,3.,-7.5,-2.77555756156289D-16,0.,-4.5,3.,3.,-4.5,          65P    187
-2.77555756156289D-16,0.,-4.5,3.,3.,-1.5,-2.77555756156289D-16,       65P    188
0.,-4.5,3.,0.,-1.5,-2.77555756156289D-16,0.,-4.5,3.,-3.,-1.5,         65P    189
-2.77555756156289D-16,0.,-4.5,3.,-3.,-4.5,-2.77555756156289D-16,      65P    190
0.,-4.5,3.,-3.,-7.5,-2.77555756156289D-16,0.,-4.5,3.,0.,-7.5,         65P    191
-1.4142135623731,1.4142135623731,-3.14159265358979,                   65P    192
3.14159265358979;                                                     65P    193
502,9,-2.44921270764476D-16,2.,-19.,3.67381906146713D-16,3.,          67P    194
-18.,0.,-3.,-18.,0.,-3.,-1.,-3.67381906146713D-16,3.,-1.,3.,0.,       67P    195
-7.5,3.,0.,-1.5,2.44921270764475D-16,2.,0.,0.,0.,-4.5;                67P    196
504,12,31,67,1,67,1,33,67,1,67,2,35,67,2,67,3,37,67,3,67,2,39,        69P    197
67,3,67,4,41,67,5,67,4,43,67,4,67,5,45,67,6,67,7,47,67,7,67,6,        69P    198
49,67,5,67,8,51,67,8,67,8,53,67,9,67,6;                               69P    199
406,1,15HVolumenkörper1;                                             71P    200
314,63.921568627451,63.921568627451,68.6274509803922,;                73P    201
S      1G      3D     74P    201                                        T      1
