  0
SECTION
  2
HEADER
  9
$ACADVER
  1
AC1014
  9
$ACADMAINTVER
 70
     9
  9
$DWGCODEPAGE
  3
ANSI_1252
  9
$INSBASE
 10
0.0
 20
0.0
 30
0.0
  9
$EXTMIN
 10
-20.733711
 20
-40.724847
 30
0.0
  9
$EXTMAX
 10
20.733738
 20
40.74667
 30
0.0
  9
$LIMMIN
 10
0.0
 20
0.0
  9
$LIMMAX
 10
210.0
 20
297.0
  9
$ORTHOMODE
 70
     0
  9
$REGENMODE
 70
     1
  9
$FILLMODE
 70
     1
  9
$QTEXTMODE
 70
     0
  9
$MIRRTEXT
 70
     1
  9
$DRAGMODE
 70
     2
  9
$LTSCALE
 40
5.0
  9
$OSMODE
 70
    23
  9
$ATTMODE
 70
     1
  9
$TEXTSIZE
 40
3.5
  9
$TRACEWID
 40
1.0
  9
$TEXTSTYLE
  7
STANDARD
  9
$CLAYER
  8
2D_PROFILE
  9
$CELTYPE
  6
BYLAYER
  9
$CECOLOR
 62
   256
  9
$CELTSCALE
 40
1.0
  9
$DELOBJ
 70
     1
  9
$DISPSILH
 70
     0
  9
$DIMSCALE
 40
1.0
  9
$DIMASZ
 40
2.5
  9
$DIMEXO
 40
1.0
  9
$DIMDLI
 40
7.0
  9
$DIMRND
 40
0.0
  9
$DIMDLE
 40
0.0
  9
$DIMEXE
 40
1.0
  9
$DIMTP
 40
0.1
  9
$DIMTM
 40
0.1
  9
$DIMTXT
 40
3.5
  9
$DIMCEN
 40
0.0
  9
$DIMTSZ
 40
0.0
  9
$DIMTOL
 70
     0
  9
$DIMLIM
 70
     0
  9
$DIMTIH
 70
     0
  9
$DIMTOH
 70
     0
  9
$DIMSE1
 70
     0
  9
$DIMSE2
 70
     0
  9
$DIMTAD
 70
     1
  9
$DIMZIN
 70
     8
  9
$DIMBLK
  1

  9
$DIMASO
 70
     1
  9
$DIMSHO
 70
     1
  9
$DIMPOST
  1

  9
$DIMAPOST
  1
"
  9
$DIMALT
 70
     0
  9
$DIMALTD
 70
     2
  9
$DIMALTF
 40
0.03937
  9
$DIMLFAC
 40
1.0
  9
$DIMTOFL
 70
     1
  9
$DIMTVP
 40
0.0
  9
$DIMTIX
 70
     0
  9
$DIMSOXD
 70
     0
  9
$DIMSAH
 70
     0
  9
$DIMBLK1
  1

  9
$DIMBLK2
  1

  9
$DIMSTYLE
  2
GEN-ISO
  9
$DIMCLRD
 70
   256
  9
$DIMCLRE
 70
   256
  9
$DIMCLRT
 70
     2
  9
$DIMTFAC
 40
0.71
  9
$DIMGAP
 40
0.6
  9
$DIMJUST
 70
     0
  9
$DIMSD1
 70
     0
  9
$DIMSD2
 70
     0
  9
$DIMTOLJ
 70
     1
  9
$DIMTZIN
 70
     8
  9
$DIMALTZ
 70
     8
  9
$DIMALTTZ
 70
     8
  9
$DIMFIT
 70
     5
  9
$DIMUPT
 70
     0
  9
$DIMUNIT
 70
     2
  9
$DIMDEC
 70
     4
  9
$DIMTDEC
 70
     4
  9
$DIMALTU
 70
     2
  9
$DIMALTTD
 70
     2
  9
$DIMTXSTY
  7
STANDARD
  9
$DIMAUNIT
 70
     0
  9
$LUNITS
 70
     2
  9
$LUPREC
 70
     4
  9
$SKETCHINC
 40
1.0
  9
$FILLETRAD
 40
3.5
  9
$AUNITS
 70
     0
  9
$AUPREC
 70
     0
  9
$MENU
  1
acad
  9
$ELEVATION
 40
0.0
  9
$PELEVATION
 40
0.0
  9
$THICKNESS
 40
0.0
  9
$LIMCHECK
 70
     0
  9
$BLIPMODE
 70
     0
  9
$CHAMFERA
 40
10.0
  9
$CHAMFERB
 40
10.0
  9
$CHAMFERC
 40
0.0
  9
$CHAMFERD
 40
0.0
  9
$SKPOLY
 70
     0
  9
$TDCREATE
 40
2451229.670072210
  9
$TDUPDATE
 40
2451229.670072210
  9
$TDINDWG
 40
0.0000000000
  9
$TDUSRTIMER
 40
0.0000000000
  9
$USRTIMER
 70
     1
  9
$ANGBASE
 50
0.0
  9
$ANGDIR
 70
     0
  9
$PDMODE
 70
     0
  9
$PDSIZE
 40
0.0
  9
$PLINEWID
 40
0.0
  9
$COORDS
 70
     1
  9
$SPLFRAME
 70
     0
  9
$SPLINETYPE
 70
     6
  9
$SPLINESEGS
 70
     8
  9
$ATTDIA
 70
     1
  9
$ATTREQ
 70
     1
  9
$HANDLING
 70
     1
  9
$HANDSEED
  5
85
  9
$SURFTAB1
 70
     6
  9
$SURFTAB2
 70
     6
  9
$SURFTYPE
 70
     6
  9
$SURFU
 70
     6
  9
$SURFV
 70
     6
  9
$UCSNAME
  2

  9
$UCSORG
 10
0.0
 20
0.0
 30
0.0
  9
$UCSXDIR
 10
1.0
 20
0.0
 30
0.0
  9
$UCSYDIR
 10
0.0
 20
1.0
 30
0.0
  9
$PUCSNAME
  2

  9
$PUCSORG
 10
0.0
 20
0.0
 30
0.0
  9
$PUCSXDIR
 10
1.0
 20
0.0
 30
0.0
  9
$PUCSYDIR
 10
0.0
 20
1.0
 30
0.0
  9
$USERI1
 70
     0
  9
$USERI2
 70
     0
  9
$USERI3
 70
     0
  9
$USERI4
 70
     0
  9
$USERI5
 70
     0
  9
$USERR1
 40
1.0
  9
$USERR2
 40
0.0
  9
$USERR3
 40
0.0
  9
$USERR4
 40
0.0
  9
$USERR5
 40
0.0
  9
$WORLDVIEW
 70
     1
  9
$SHADEDGE
 70
     3
  9
$SHADEDIF
 70
    70
  9
$TILEMODE
 70
     1
  9
$MAXACTVP
 70
    16
  9
$PINSBASE
 10
0.0
 20
0.0
 30
0.0
  9
$PLIMCHECK
 70
     0
  9
$PEXTMIN
 10
1.000000E+20
 20
1.000000E+20
 30
1.000000E+20
  9
$PEXTMAX
 10
-1.000000E+20
 20
-1.000000E+20
 30
-1.000000E+20
  9
$PLIMMIN
 10
0.0
 20
0.0
  9
$PLIMMAX
 10
420.0
 20
297.0
  9
$UNITMODE
 70
     0
  9
$VISRETAIN
 70
     0
  9
$PLINEGEN
 70
     0
  9
$PSLTSCALE
 70
     1
  9
$TREEDEPTH
 70
  3020
  9
$PICKSTYLE
 70
     1
  9
$CMLSTYLE
  2
STANDARD
  9
$CMLJUST
 70
     0
  9
$CMLSCALE
 40
1.0
  9
$PROXYGRAPHICS
 70
     1
  9
$MEASUREMENT
 70
     0
  0
ENDSEC
  0
SECTION
  2
CLASSES
  0
CLASS
  1
DICTIONARYVAR
  2
AcDbDictionaryVar
  3
"AutoCAD"
 90
        0
280
     0
281
     0
  0
ENDSEC
  0
SECTION
  2
TABLES
  0
TABLE
  2
VPORT
  5
12
100
AcDbSymbolTable
 70
     2
  0
VPORT
  5
84
100
AcDbSymbolTableRecord
100
AcDbViewportTableRecord
  2
*ACTIVE
 70
     0
 10
0.0
 20
0.0
 11
1.0
 21
1.0
 12
18.744292
 22
6.947067
 13
0.0
 23
0.0
 14
5.0
 24
5.0
 15
5.0
 25
5.0
 16
0.0
 26
0.0
 36
1.0
 17
0.0
 27
0.0
 37
0.0
 40
157.650637
 41
1.700368
 42
50.0
 43
0.0
 44
0.0
 50
0.0
 51
0.0
 71
     0
 72
 20000
 73
     1
 74
     3
 75
     0
 76
     0
 77
     0
 78
     0
  0
ENDTAB
  0
TABLE
  2
LTYPE
  5
D
100
AcDbSymbolTable
 70
     1
  0
LTYPE
  5
E
100
AcDbSymbolTableRecord
100
AcDbLinetypeTableRecord
  2
BYBLOCK
 70
     0
  3

 72
    65
 73
     0
 40
0.0
  0
LTYPE
  5
F
100
AcDbSymbolTableRecord
100
AcDbLinetypeTableRecord
  2
BYLAYER
 70
     0
  3

 72
    65
 73
     0
 40
0.0
  0
LTYPE
  5
5
100
AcDbSymbolTableRecord
100
AcDbLinetypeTableRecord
  2
CONTINUOUS
 70
     0
  3
Solid line
 72
    65
 73
     0
 40
0.0
  0
ENDTAB
  0
TABLE
  2
LAYER
  5
A
100
AcDbSymbolTable
 70
     2
  0
LAYER
  5
4
100
AcDbSymbolTableRecord
100
AcDbLayerTableRecord
  2
0
 70
     1
 62
     7
  6
CONTINUOUS
  0
LAYER
  5
1B
100
AcDbSymbolTableRecord
100
AcDbLayerTableRecord
  2
2D_PROFILE
 70
     0
 62
     5
  6
CONTINUOUS
  0
ENDTAB
  0
TABLE
  2
STYLE
  5
B
100
AcDbSymbolTable
 70
     1
  0
STYLE
  5
C
100
AcDbSymbolTableRecord
100
AcDbTextStyleTableRecord
  2
STANDARD
 70
     0
 40
0.0
 41
1.0
 50
0.0
 71
     0
 42
3.5
  3
ISOCP
  4

  0
ENDTAB
  0
TABLE
  2
VIEW
  5
10
100
AcDbSymbolTable
 70
     0
  0
ENDTAB
  0
TABLE
  2
UCS
  5
11
100
AcDbSymbolTable
 70
     0
  0
ENDTAB
  0
TABLE
  2
APPID
  5
14
100
AcDbSymbolTable
 70
     1
  0
APPID
  5
15
100
AcDbSymbolTableRecord
100
AcDbRegAppTableRecord
  2
ACAD
 70
     0
  0
ENDTAB
  0
TABLE
  2
DIMSTYLE
  5
16
100
AcDbSymbolTable
 70
     1
  0
DIMSTYLE
105
1D
100
AcDbSymbolTableRecord
100
AcDbDimStyleTableRecord
  2
GEN-ISO
 70
     0
  3

  4
"
  5

  6

  7

 40
1.0
 41
2.5
 42
1.0
 43
7.0
 44
1.0
 45
0.0
 46
0.0
 47
0.1
 48
0.1
140
3.5
141
0.0
142
0.0
143
0.03937
144
1.0
145
0.0
146
0.71
147
0.6
 71
     0
 72
     0
 73
     0
 74
     0
 75
     0
 76
     0
 77
     1
 78
     8
170
     0
171
     2
172
     1
173
     0
174
     0
175
     0
176
   256
177
   256
178
     2
270
     2
271
     4
272
     4
273
     2
274
     2
340
C
275
     0
280
     0
281
     0
282
     0
283
     1
284
     8
285
     8
286
     8
287
     5
288
     0
  0
ENDTAB
  0
TABLE
  2
BLOCK_RECORD
  5
1
100
AcDbSymbolTable
 70
     0
  0
BLOCK_RECORD
  5
2
100
AcDbSymbolTableRecord
100
AcDbBlockTableRecord
  2
*MODEL_SPACE
  0
BLOCK_RECORD
  5
7
100
AcDbSymbolTableRecord
100
AcDbBlockTableRecord
  2
*PAPER_SPACE
  0
ENDTAB
  0
ENDSEC
  0
SECTION
  2
BLOCKS
  0
BLOCK
  5
3
100
AcDbEntity
  8
0
100
AcDbBlockBegin
  2
*MODEL_SPACE
 70
     0
 10
0.0
 20
0.0
 30
0.0
  3
*MODEL_SPACE
  1

  0
ENDBLK
  5
6
100
AcDbEntity
  8
0
100
AcDbBlockEnd
  0
BLOCK
  5
8
100
AcDbEntity
 67
     1
  8
0
100
AcDbBlockBegin
  2
*PAPER_SPACE
 70
     0
 10
0.0
 20
0.0
 30
0.0
  3
*PAPER_SPACE
  1

  0
ENDBLK
  5
9
100
AcDbEntity
 67
     1
  8
0
100
AcDbBlockEnd
  0
ENDSEC
  0
SECTION
  2
ENTITIES
  0
LINE
  5
1E
100
AcDbEntity
  8
2D_PROFILE
100
AcDbLine
 10
-19.999987
 20
3.56111
 30
0.0
 11
-19.80176
 21
14.917479
 31
0.0
1001
ACAD
1000
R13OBJECT
1002
{
1005
83
1002
}
  0
ARC
  5
1F
100
AcDbEntity
  8
2D_PROFILE
100
AcDbCircle
 10
-18.801913
 20
14.900026
 30
0.0
 40
1.0
100
AcDbArc
 50
90.0
 51
179.0
1001
ACAD
1000
R13OBJECT
1002
{
1005
83
1002
}
  0
LINE
  5
20
100
AcDbEntity
  8
2D_PROFILE
100
AcDbLine
 10
-18.801913
 20
15.900026
 30
0.0
 11
-16.301532
 21
15.900026
 31
0.0
1001
ACAD
1000
R13OBJECT
1002
{
1005
83
1002
}
  0
ARC
  5
21
100
AcDbEntity
  8
2D_PROFILE
100
AcDbCircle
 10
-16.301532
 20
14.900026
 30
0.0
 40
1.0
100
AcDbArc
 50
359.0
 51
90.0
1001
ACAD
1000
R13OBJECT
1002
{
1005
83
1002
}
  0
LINE
  5
22
100
AcDbEntity
  8
2D_PROFILE
100
AcDbLine
 10
-15.301684
 20
14.882574
 30
0.0
 11
-15.36915
 21
11.017479
 31
0.0
1001
ACAD
1000
R13OBJECT
1002
{
1005
83
1002
}
  0
ARC
  5
23
100
AcDbEntity
  8
2D_PROFILE
100
AcDbCircle
 10
-14.369302
 20
11.000026
 30
0.0
 40
1.0
100
AcDbArc
 50
179.0
 51
302.608519
1001
ACAD
1000
R13OBJECT
1002
{
1005
83
1002
}
  0
ARC
  5
24
100
AcDbEntity
  8
2D_PROFILE
100
AcDbCircle
 10
-27.302807
 20
31.216961
 30
0.0
 40
25.0
100
AcDbArc
 50
302.608519
 51
319.21765
1001
ACAD
1000
R13OBJECT
1002
{
1005
83
1002
}
  0
ARC
  5
25
100
AcDbEntity
  8
2D_PROFILE
100
AcDbCircle
 10
-11.401684
 20
17.500026
 30
0.0
 40
4.0
100
AcDbArc
 50
319.21765
 51
360.0
1001
ACAD
1000
R13OBJECT
1002
{
1005
83
1002
}
  0
LINE
  5
26
100
AcDbEntity
  8
2D_PROFILE
100
AcDbLine
 10
-7.401684
 20
17.500026
 30
0.0
 11
-7.401684
 21
22.500026
 31
0.0
1001
ACAD
1000
R13OBJECT
1002
{
1005
83
1002
}
  0
ARC
  5
27
100
AcDbEntity
  8
2D_PROFILE
100
AcDbCircle
 10
-11.401684
 20
22.500026
 30
0.0
 40
4.0
100
AcDbArc
 50
0.0
 51
40.78235
1001
ACAD
1000
R13OBJECT
1002
{
1005
83
1002
}
  0
ARC
  5
28
100
AcDbEntity
  8
2D_PROFILE
100
AcDbCircle
 10
-27.302807
 20
8.783092
 30
0.0
 40
25.0
100
AcDbArc
 50
40.78235
 51
57.391481
1001
ACAD
1000
R13OBJECT
1002
{
1005
83
1002
}
  0
ARC
  5
29
100
AcDbEntity
  8
2D_PROFILE
100
AcDbCircle
 10
-14.369302
 20
29.000026
 30
0.0
 40
1.0
100
AcDbArc
 50
57.391481
 51
181.0
1001
ACAD
1000
R13OBJECT
1002
{
1005
83
1002
}
  0
LINE
  5
2A
100
AcDbEntity
  8
2D_PROFILE
100
AcDbLine
 10
-15.36915
 20
28.982574
 30
0.0
 11
-15.301684
 21
25.117479
 31
0.0
1001
ACAD
1000
R13OBJECT
1002
{
1005
83
1002
}
  0
ARC
  5
2B
100
AcDbEntity
  8
2D_PROFILE
100
AcDbCircle
 10
-16.301532
 20
25.100026
 30
0.0
 40
1.0
100
AcDbArc
 50
270.0
 51
1.0
1001
ACAD
1000
R13OBJECT
1002
{
1005
83
1002
}
  0
LINE
  5
2C
100
AcDbEntity
  8
2D_PROFILE
100
AcDbLine
 10
-18.801913
 20
24.100026
 30
0.0
 11
-16.301532
 21
24.100026
 31
0.0
1001
ACAD
1000
R13OBJECT
1002
{
1005
83
1002
}
  0
ARC
  5
2D
100
AcDbEntity
  8
2D_PROFILE
100
AcDbCircle
 10
-18.801913
 20
25.100026
 30
0.0
 40
1.0
100
AcDbArc
 50
181.0
 51
270.0
1001
ACAD
1000
R13OBJECT
1002
{
1005
83
1002
}
  0
LINE
  5
2E
100
AcDbEntity
  8
2D_PROFILE
100
AcDbLine
 10
-19.80176
 20
25.082574
 30
0.0
 11
-19.999987
 21
36.50056
 31
0.0
1001
ACAD
1000
R13OBJECT
1002
{
1005
83
1002
}
  0
ARC
  5
2F
100
AcDbEntity
  8
2D_PROFILE
100
AcDbCircle
 10
-16.499987
 20
36.50056
 30
0.0
 40
3.5
100
AcDbArc
 50
89.0
 51
180.0
1001
ACAD
1000
R13OBJECT
1002
{
1005
83
1002
}
  0
LINE
  5
30
100
AcDbEntity
  8
2D_PROFILE
100
AcDbLine
 10
-16.438903
 20
40.000026
 30
0.0
 11
16.43893
 21
40.000026
 31
0.0
1001
ACAD
1000
R13OBJECT
1002
{
1005
83
1002
}
  0
ARC
  5
31
100
AcDbEntity
  8
2D_PROFILE
100
AcDbCircle
 10
16.500013
 20
36.50056
 30
0.0
 40
3.5
100
AcDbArc
 50
360.0
 51
91.0
1001
ACAD
1000
R13OBJECT
1002
{
1005
83
1002
}
  0
LINE
  5
32
100
AcDbEntity
  8
2D_PROFILE
100
AcDbLine
 10
20.000013
 20
36.50056
 30
0.0
 11
19.801787
 21
25.082574
 31
0.0
1001
ACAD
1000
R13OBJECT
1002
{
1005
83
1002
}
  0
ARC
  5
33
100
AcDbEntity
  8
2D_PROFILE
100
AcDbCircle
 10
18.80194
 20
25.100026
 30
0.0
 40
1.0
100
AcDbArc
 50
270.0
 51
359.0
1001
ACAD
1000
R13OBJECT
1002
{
1005
83
1002
}
  0
LINE
  5
34
100
AcDbEntity
  8
2D_PROFILE
100
AcDbLine
 10
18.80194
 20
24.100026
 30
0.0
 11
16.301559
 21
24.100026
 31
0.0
1001
ACAD
1000
R13OBJECT
1002
{
1005
83
1002
}
  0
ARC
  5
35
100
AcDbEntity
  8
2D_PROFILE
100
AcDbCircle
 10
16.301559
 20
25.100026
 30
0.0
 40
1.0
100
AcDbArc
 50
179.0
 51
270.0
1001
ACAD
1000
R13OBJECT
1002
{
1005
83
1002
}
  0
LINE
  5
36
100
AcDbEntity
  8
2D_PROFILE
100
AcDbLine
 10
15.301711
 20
25.117479
 30
0.0
 11
15.369176
 21
28.982574
 31
0.0
1001
ACAD
1000
R13OBJECT
1002
{
1005
83
1002
}
  0
ARC
  5
37
100
AcDbEntity
  8
2D_PROFILE
100
AcDbCircle
 10
14.369329
 20
29.000026
 30
0.0
 40
1.0
100
AcDbArc
 50
359.0
 51
122.608519
1001
ACAD
1000
R13OBJECT
1002
{
1005
83
1002
}
  0
ARC
  5
38
100
AcDbEntity
  8
2D_PROFILE
100
AcDbCircle
 10
27.302834
 20
8.783092
 30
0.0
 40
25.0
100
AcDbArc
 50
122.608519
 51
139.21765
1001
ACAD
1000
R13OBJECT
1002
{
1005
83
1002
}
  0
ARC
  5
39
100
AcDbEntity
  8
2D_PROFILE
100
AcDbCircle
 10
11.401711
 20
22.500026
 30
0.0
 40
4.0
100
AcDbArc
 50
139.21765
 51
180.0
1001
ACAD
1000
R13OBJECT
1002
{
1005
83
1002
}
  0
LINE
  5
3A
100
AcDbEntity
  8
2D_PROFILE
100
AcDbLine
 10
7.401711
 20
22.500026
 30
0.0
 11
7.401711
 21
17.500026
 31
0.0
1001
ACAD
1000
R13OBJECT
1002
{
1005
83
1002
}
  0
ARC
  5
3B
100
AcDbEntity
  8
2D_PROFILE
100
AcDbCircle
 10
11.401711
 20
17.500026
 30
0.0
 40
4.0
100
AcDbArc
 50
180.0
 51
220.78235
1001
ACAD
1000
R13OBJECT
1002
{
1005
83
1002
}
  0
ARC
  5
3C
100
AcDbEntity
  8
2D_PROFILE
100
AcDbCircle
 10
27.302834
 20
31.216961
 30
0.0
 40
25.0
100
AcDbArc
 50
220.78235
 51
237.391481
1001
ACAD
1000
R13OBJECT
1002
{
1005
83
1002
}
  0
ARC
  5
3D
100
AcDbEntity
  8
2D_PROFILE
100
AcDbCircle
 10
14.369329
 20
11.000026
 30
0.0
 40
1.0
100
AcDbArc
 50
237.391481
 51
1.0
1001
ACAD
1000
R13OBJECT
1002
{
1005
83
1002
}
  0
LINE
  5
3E
100
AcDbEntity
  8
2D_PROFILE
100
AcDbLine
 10
15.369176
 20
11.017479
 30
0.0
 11
15.301711
 21
14.882574
 31
0.0
1001
ACAD
1000
R13OBJECT
1002
{
1005
83
1002
}
  0
ARC
  5
3F
100
AcDbEntity
  8
2D_PROFILE
100
AcDbCircle
 10
16.301559
 20
14.900026
 30
0.0
 40
1.0
100
AcDbArc
 50
90.0
 51
181.0
1001
ACAD
1000
R13OBJECT
1002
{
1005
83
1002
}
  0
LINE
  5
40
100
AcDbEntity
  8
2D_PROFILE
100
AcDbLine
 10
16.301559
 20
15.900026
 30
0.0
 11
18.80194
 21
15.900026
 31
0.0
1001
ACAD
1000
R13OBJECT
1002
{
1005
83
1002
}
  0
ARC
  5
41
100
AcDbEntity
  8
2D_PROFILE
100
AcDbCircle
 10
18.80194
 20
14.900026
 30
0.0
 40
1.0
100
AcDbArc
 50
1.0
 51
90.0
1001
ACAD
1000
R13OBJECT
1002
{
1005
83
1002
}
  0
LINE
  5
42
100
AcDbEntity
  8
2D_PROFILE
100
AcDbLine
 10
19.801787
 20
14.917479
 30
0.0
 11
20.000013
 21
3.499493
 31
0.0
1001
ACAD
1000
R13OBJECT
1002
{
1005
83
1002
}
  0
ARC
  5
43
100
AcDbEntity
  8
2D_PROFILE
100
AcDbCircle
 10
16.500013
 20
3.499493
 30
0.0
 40
3.5
100
AcDbArc
 50
269.0
 51
0.0
1001
ACAD
1000
R13OBJECT
1002
{
1005
83
1002
}
  0
LINE
  5
44
100
AcDbEntity
  8
2D_PROFILE
100
AcDbLine
 10
16.43893
 20
0.000026
 30
0.0
 11
14.500013
 21
0.000026
 31
0.0
1001
ACAD
1000
R13OBJECT
1002
{
1005
83
1002
}
  0
ARC
  5
45
100
AcDbEntity
  8
2D_PROFILE
100
AcDbCircle
 10
14.500013
 20
2.000026
 30
0.0
 40
2.0
100
AcDbArc
 50
210.0
 51
270.0
1001
ACAD
1000
R13OBJECT
1002
{
1005
83
1002
}
  0
ARC
  5
46
100
AcDbEntity
  8
2D_PROFILE
100
AcDbCircle
 10
13.633988
 20
1.500026
 30
0.0
 40
1.0
100
AcDbArc
 50
90.0
 51
210.0
1001
ACAD
1000
R13OBJECT
1002
{
1005
83
1002
}
  0
LINE
  5
47
100
AcDbEntity
  8
2D_PROFILE
100
AcDbLine
 10
13.633988
 20
2.500026
 30
0.0
 11
16.00047
 21
2.500026
 31
0.0
1001
ACAD
1000
R13OBJECT
1002
{
1005
83
1002
}
  0
ARC
  5
48
100
AcDbEntity
  8
2D_PROFILE
100
AcDbCircle
 10
16.00047
 20
3.500026
 30
0.0
 40
1.0
100
AcDbArc
 50
270.0
 51
1.0
1001
ACAD
1000
R13OBJECT
1002
{
1005
83
1002
}
  0
LINE
  5
49
100
AcDbEntity
  8
2D_PROFILE
100
AcDbLine
 10
17.000318
 20
3.517479
 30
0.0
 11
16.974135
 21
5.017479
 31
0.0
1001
ACAD
1000
R13OBJECT
1002
{
1005
83
1002
}
  0
ARC
  5
4A
100
AcDbEntity
  8
2D_PROFILE
100
AcDbCircle
 10
15.974288
 20
5.000026
 30
0.0
 40
1.0
100
AcDbArc
 50
1.0
 51
90.0
1001
ACAD
1000
R13OBJECT
1002
{
1005
83
1002
}
  0
LINE
  5
4B
100
AcDbEntity
  8
2D_PROFILE
100
AcDbLine
 10
15.974288
 20
6.000026
 30
0.0
 11
13.195478
 21
6.000026
 31
0.0
1001
ACAD
1000
R13OBJECT
1002
{
1005
83
1002
}
  0
ARC
  5
4C
100
AcDbEntity
  8
2D_PROFILE
100
AcDbCircle
 10
13.195478
 20
7.000026
 30
0.0
 40
1.0
100
AcDbArc
 50
239.522253
 51
270.0
1001
ACAD
1000
R13OBJECT
1002
{
1005
83
1002
}
  0
ARC
  5
4D
100
AcDbEntity
  8
2D_PROFILE
100
AcDbCircle
 10
27.39718
 20
31.131161
 30
0.0
 40
29.0
100
AcDbArc
 50
230.447175
 51
239.522253
1001
ACAD
1000
R13OBJECT
1002
{
1005
83
1002
}
  0
ARC
  5
4E
100
AcDbEntity
  8
2D_PROFILE
100
AcDbCircle
 10
8.293499
 20
8.000026
 30
0.0
 40
1.0
100
AcDbArc
 50
50.447175
 51
90.0
1001
ACAD
1000
R13OBJECT
1002
{
1005
83
1002
}
  0
LINE
  5
4F
100
AcDbEntity
  8
2D_PROFILE
100
AcDbLine
 10
8.293499
 20
9.000026
 30
0.0
 11
6.708217
 21
9.000026
 31
0.0
1001
ACAD
1000
R13OBJECT
1002
{
1005
83
1002
}
  0
ARC
  5
50
100
AcDbEntity
  8
2D_PROFILE
100
AcDbCircle
 10
6.708217
 20
8.000026
 30
0.0
 40
1.0
100
AcDbArc
 50
90.0
 51
138.189685
1001
ACAD
1000
R13OBJECT
1002
{
1005
83
1002
}
  0
ARC
  5
51
100
AcDbEntity
  8
2D_PROFILE
100
AcDbCircle
 10
0.000013
 20
14.000026
 30
0.0
 40
8.0
100
AcDbArc
 50
290.364135
 51
318.189685
1001
ACAD
1000
R13OBJECT
1002
{
1005
83
1002
}
  0
LINE
  5
52
100
AcDbEntity
  8
2D_PROFILE
100
AcDbLine
 10
2.783896
 20
6.500026
 30
0.0
 11
-2.783869
 21
6.500026
 31
0.0
1001
ACAD
1000
R13OBJECT
1002
{
1005
83
1002
}
  0
ARC
  5
53
100
AcDbEntity
  8
2D_PROFILE
100
AcDbCircle
 10
0.000013
 20
14.000026
 30
0.0
 40
8.0
100
AcDbArc
 50
221.810315
 51
249.635865
1001
ACAD
1000
R13OBJECT
1002
{
1005
83
1002
}
  0
ARC
  5
54
100
AcDbEntity
  8
2D_PROFILE
100
AcDbCircle
 10
-6.708191
 20
8.000026
 30
0.0
 40
1.0
100
AcDbArc
 50
41.810315
 51
90.0
1001
ACAD
1000
R13OBJECT
1002
{
1005
83
1002
}
  0
LINE
  5
55
100
AcDbEntity
  8
2D_PROFILE
100
AcDbLine
 10
-6.708191
 20
9.000026
 30
0.0
 11
-8.347886
 21
9.000026
 31
0.0
1001
ACAD
1000
R13OBJECT
1002
{
1005
83
1002
}
  0
ARC
  5
56
100
AcDbEntity
  8
2D_PROFILE
100
AcDbCircle
 10
-8.347886
 20
8.000026
 30
0.0
 40
1.0
100
AcDbArc
 50
90.0
 51
129.552825
1001
ACAD
1000
R13OBJECT
1002
{
1005
83
1002
}
  0
ARC
  5
57
100
AcDbEntity
  8
2D_PROFILE
100
AcDbCircle
 10
-27.451567
 20
31.131161
 30
0.0
 40
29.0
100
AcDbArc
 50
300.882676
 51
309.552825
1001
ACAD
1000
R13OBJECT
1002
{
1005
83
1002
}
  0
ARC
  5
58
100
AcDbEntity
  8
2D_PROFILE
100
AcDbCircle
 10
-9.999987
 20
1.951676
 30
0.0
 40
5.0
100
AcDbArc
 50
120.882676
 51
180.0
1001
ACAD
1000
R13OBJECT
1002
{
1005
83
1002
}
  0
LINE
  5
59
100
AcDbEntity
  8
2D_PROFILE
100
AcDbLine
 10
-14.999987
 20
1.951676
 30
0.0
 11
-14.999987
 21
-29.704142
 31
0.0
1001
ACAD
1000
R13OBJECT
1002
{
1005
83
1002
}
  0
ARC
  5
5A
100
AcDbEntity
  8
2D_PROFILE
100
AcDbCircle
 10
-10.999987
 20
-29.704142
 30
0.0
 40
4.0
100
AcDbArc
 50
180.0
 51
336.443536
1001
ACAD
1000
R13OBJECT
1002
{
1005
83
1002
}
  0
ARC
  5
5B
100
AcDbEntity
  8
2D_PROFILE
100
AcDbCircle
 10
0.000013
 20
-34.499974
 30
0.0
 40
8.0
100
AcDbArc
 50
110.761362
 51
156.443536
1001
ACAD
1000
R13OBJECT
1002
{
1005
83
1002
}
  0
ARC
  5
5C
100
AcDbEntity
  8
2D_PROFILE
100
AcDbCircle
 10
-2.729455
 20
-27.299974
 30
0.0
 40
0.3
100
AcDbArc
 50
90.0
 51
110.761362
1001
ACAD
1000
R13OBJECT
1002
{
1005
83
1002
}
  0
LINE
  5
5D
100
AcDbEntity
  8
2D_PROFILE
100
AcDbLine
 10
-2.729455
 20
-26.999974
 30
0.0
 11
2.729482
 21
-26.999974
 31
0.0
1001
ACAD
1000
R13OBJECT
1002
{
1005
83
1002
}
  0
ARC
  5
5E
100
AcDbEntity
  8
2D_PROFILE
100
AcDbCircle
 10
2.729482
 20
-27.299974
 30
0.0
 40
0.3
100
AcDbArc
 50
69.238638
 51
90.0
1001
ACAD
1000
R13OBJECT
1002
{
1005
83
1002
}
  0
ARC
  5
5F
100
AcDbEntity
  8
2D_PROFILE
100
AcDbCircle
 10
0.000013
 20
-34.499974
 30
0.0
 40
8.0
100
AcDbArc
 50
41.810315
 51
69.238638
1001
ACAD
1000
R13OBJECT
1002
{
1005
83
1002
}
  0
ARC
  5
60
100
AcDbEntity
  8
2D_PROFILE
100
AcDbCircle
 10
6.708217
 20
-28.499974
 30
0.0
 40
1.0
100
AcDbArc
 50
221.810315
 51
270.0
1001
ACAD
1000
R13OBJECT
1002
{
1005
83
1002
}
  0
LINE
  5
61
100
AcDbEntity
  8
2D_PROFILE
100
AcDbLine
 10
6.708217
 20
-29.499974
 30
0.0
 11
7.000013
 21
-29.499974
 31
0.0
1001
ACAD
1000
R13OBJECT
1002
{
1005
83
1002
}
  0
ARC
  5
62
100
AcDbEntity
  8
2D_PROFILE
100
AcDbCircle
 10
7.000013
 20
-30.499974
 30
0.0
 40
1.0
100
AcDbArc
 50
360.0
 51
90.0
1001
ACAD
1000
R13OBJECT
1002
{
1005
83
1002
}
  0
LINE
  5
63
100
AcDbEntity
  8
2D_PROFILE
100
AcDbLine
 10
8.000013
 20
-30.499974
 30
0.0
 11
8.000013
 21
-38.999974
 31
0.0
1001
ACAD
1000
R13OBJECT
1002
{
1005
83
1002
}
  0
ARC
  5
64
100
AcDbEntity
  8
2D_PROFILE
100
AcDbCircle
 10
7.000013
 20
-38.999974
 30
0.0
 40
1.0
100
AcDbArc
 50
270.0
 51
0.0
1001
ACAD
1000
R13OBJECT
1002
{
1005
83
1002
}
  0
LINE
  5
65
100
AcDbEntity
  8
2D_PROFILE
100
AcDbLine
 10
7.000013
 20
-39.999974
 30
0.0
 11
-16.499987
 21
-39.999974
 31
0.0
1001
ACAD
1000
R13OBJECT
1002
{
1005
83
1002
}
  0
ARC
  5
66
100
AcDbEntity
  8
2D_PROFILE
100
AcDbCircle
 10
-16.499987
 20
-36.499974
 30
0.0
 40
3.5
100
AcDbArc
 50
180.0
 51
270.0
1001
ACAD
1000
R13OBJECT
1002
{
1005
83
1002
}
  0
LINE
  5
67
100
AcDbEntity
  8
2D_PROFILE
100
AcDbLine
 10
-19.999987
 20
-36.499974
 30
0.0
 11
-19.999987
 21
3.56111
 31
0.0
1001
ACAD
1000
R13OBJECT
1002
{
1005
83
1002
}
  0
CIRCLE
  5
68
100
AcDbEntity
  8
2D_PROFILE
100
AcDbCircle
 10
-0.000013
 20
-34.499974
 30
0.0
 40
3.4
210
0.0
220
0.0
230
-1.0
1001
ACAD
1000
R13OBJECT
1002
{
1005
83
1002
}
  0
CIRCLE
  5
69
100
AcDbEntity
  8
2D_PROFILE
100
AcDbCircle
 10
-0.000013
 20
20.000026
 30
0.0
 40
3.4
210
0.0
220
0.0
230
-1.0
1001
ACAD
1000
R13OBJECT
1002
{
1005
83
1002
}
  0
ARC
  5
6A
100
AcDbEntity
  8
2D_PROFILE
100
AcDbCircle
 10
-3.59288
 20
39.800026
 30
0.0
 40
0.5
100
AcDbArc
 50
225.0
 51
270.0
1001
ACAD
1000
R13OBJECT
1002
{
1005
83
1002
}
  0
LINE
  5
6B
100
AcDbEntity
  8
2D_PROFILE
100
AcDbLine
 10
-4.099987
 20
39.600026
 30
0.0
 11
-3.946433
 21
39.446473
 31
0.0
1001
ACAD
1000
R13OBJECT
1002
{
1005
83
1002
}
  0
LINE
  5
6C
100
AcDbEntity
  8
2D_PROFILE
100
AcDbLine
 10
-4.099987
 20
36.500026
 30
0.0
 11
-4.099987
 21
39.600026
 31
0.0
1001
ACAD
1000
R13OBJECT
1002
{
1005
83
1002
}
  0
ARC
  5
6D
100
AcDbEntity
  8
2D_PROFILE
100
AcDbCircle
 10
-5.099987
 20
36.500026
 30
0.0
 40
1.0
100
AcDbArc
 50
270.0
 51
0.0
1001
ACAD
1000
R13OBJECT
1002
{
1005
83
1002
}
  0
LINE
  5
6E
100
AcDbEntity
  8
2D_PROFILE
100
AcDbLine
 10
-11.499987
 20
35.500026
 30
0.0
 11
-5.099987
 21
35.500026
 31
0.0
1001
ACAD
1000
R13OBJECT
1002
{
1005
83
1002
}
  0
ARC
  5
6F
100
AcDbEntity
  8
2D_PROFILE
100
AcDbCircle
 10
11.499987
 20
34.500026
 30
0.0
 40
1.0
210
0.0
220
0.0
230
-1.0
100
AcDbArc
 50
0.0
 51
90.0
1001
ACAD
1000
R13OBJECT
1002
{
1005
83
1002
}
  0
LINE
  5
70
100
AcDbEntity
  8
2D_PROFILE
100
AcDbLine
 10
-12.499987
 20
32.049874
 30
0.0
 11
-12.499987
 21
34.500026
 31
0.0
1001
ACAD
1000
R13OBJECT
1002
{
1005
83
1002
}
  0
ARC
  5
71
100
AcDbEntity
  8
2D_PROFILE
100
AcDbCircle
 10
11.499987
 20
32.049874
 30
0.0
 40
1.0
210
0.0
220
0.0
230
-1.0
100
AcDbArc
 50
270.0
 51
0.0
1001
ACAD
1000
R13OBJECT
1002
{
1005
83
1002
}
  0
LINE
  5
72
100
AcDbEntity
  8
2D_PROFILE
100
AcDbLine
 10
-8.006288
 20
31.049874
 30
0.0
 11
-11.499987
 21
31.049874
 31
0.0
1001
ACAD
1000
R13OBJECT
1002
{
1005
83
1002
}
  0
ARC
  5
73
100
AcDbEntity
  8
2D_PROFILE
100
AcDbCircle
 10
-8.006288
 20
30.049874
 30
0.0
 40
1.0
100
AcDbArc
 50
42.603544
 51
90.0
1001
ACAD
1000
R13OBJECT
1002
{
1005
83
1002
}
  0
ARC
  5
74
100
AcDbEntity
  8
2D_PROFILE
100
AcDbCircle
 10
-11.131148
 20
47.649833
 30
0.0
 40
25.0
210
0.0
220
0.0
230
-1.0
100
AcDbArc
 50
312.024752
 51
317.396456
1001
ACAD
1000
R13OBJECT
1002
{
1005
83
1002
}
  0
ARC
  5
75
100
AcDbEntity
  8
2D_PROFILE
100
AcDbCircle
 10
2.499987
 20
31.59995
 30
0.0
 40
4.0
210
0.0
220
0.0
230
-1.0
100
AcDbArc
 50
270.0
 51
320.922031
1001
ACAD
1000
R13OBJECT
1002
{
1005
83
1002
}
  0
LINE
  5
76
100
AcDbEntity
  8
2D_PROFILE
100
AcDbLine
 10
2.500013
 20
27.59995
 30
0.0
 11
-2.499987
 21
27.59995
 31
0.0
1001
ACAD
1000
R13OBJECT
1002
{
1005
83
1002
}
  0
ARC
  5
77
100
AcDbEntity
  8
2D_PROFILE
100
AcDbCircle
 10
-2.500013
 20
31.59995
 30
0.0
 40
4.0
210
0.0
220
0.0
230
-1.0
100
AcDbArc
 50
219.077969
 51
270.0
1001
ACAD
1000
R13OBJECT
1002
{
1005
83
1002
}
  0
ARC
  5
78
100
AcDbEntity
  8
2D_PROFILE
100
AcDbCircle
 10
11.131121
 20
47.649833
 30
0.0
 40
25.0
210
0.0
220
0.0
230
-1.0
100
AcDbArc
 50
222.603544
 51
227.975248
1001
ACAD
1000
R13OBJECT
1002
{
1005
83
1002
}
  0
ARC
  5
79
100
AcDbEntity
  8
2D_PROFILE
100
AcDbCircle
 10
8.006315
 20
30.049874
 30
0.0
 40
1.0
100
AcDbArc
 50
90.0
 51
137.396456
1001
ACAD
1000
R13OBJECT
1002
{
1005
83
1002
}
  0
LINE
  5
7A
100
AcDbEntity
  8
2D_PROFILE
100
AcDbLine
 10
11.500013
 20
31.049874
 30
0.0
 11
8.006315
 21
31.049874
 31
0.0
1001
ACAD
1000
R13OBJECT
1002
{
1005
83
1002
}
  0
ARC
  5
7B
100
AcDbEntity
  8
2D_PROFILE
100
AcDbCircle
 10
-11.500013
 20
32.049874
 30
0.0
 40
1.0
210
0.0
220
0.0
230
-1.0
100
AcDbArc
 50
180.0
 51
270.0
1001
ACAD
1000
R13OBJECT
1002
{
1005
83
1002
}
  0
LINE
  5
7C
100
AcDbEntity
  8
2D_PROFILE
100
AcDbLine
 10
12.500013
 20
34.500026
 30
0.0
 11
12.500013
 21
32.049874
 31
0.0
1001
ACAD
1000
R13OBJECT
1002
{
1005
83
1002
}
  0
ARC
  5
7D
100
AcDbEntity
  8
2D_PROFILE
100
AcDbCircle
 10
-11.500013
 20
34.500026
 30
0.0
 40
1.0
210
0.0
220
0.0
230
-1.0
100
AcDbArc
 50
90.0
 51
180.0
1001
ACAD
1000
R13OBJECT
1002
{
1005
83
1002
}
  0
LINE
  5
7E
100
AcDbEntity
  8
2D_PROFILE
100
AcDbLine
 10
5.100013
 20
35.500026
 30
0.0
 11
11.500013
 21
35.500026
 31
0.0
1001
ACAD
1000
R13OBJECT
1002
{
1005
83
1002
}
  0
ARC
  5
7F
100
AcDbEntity
  8
2D_PROFILE
100
AcDbCircle
 10
5.100013
 20
36.500026
 30
0.0
 40
1.0
100
AcDbArc
 50
180.000001
 51
270.0
1001
ACAD
1000
R13OBJECT
1002
{
1005
83
1002
}
  0
LINE
  5
80
100
AcDbEntity
  8
2D_PROFILE
100
AcDbLine
 10
4.100013
 20
39.600026
 30
0.0
 11
4.100013
 21
36.500026
 31
0.0
1001
ACAD
1000
R13OBJECT
1002
{
1005
83
1002
}
  0
LINE
  5
81
100
AcDbEntity
  8
2D_PROFILE
100
AcDbLine
 10
3.94646
 20
39.446473
 30
0.0
 11
4.100013
 21
39.600026
 31
0.0
1001
ACAD
1000
R13OBJECT
1002
{
1005
83
1002
}
  0
ARC
  5
82
100
AcDbEntity
  8
2D_PROFILE
100
AcDbCircle
 10
3.592907
 20
39.800026
 30
0.0
 40
0.5
100
AcDbArc
 50
270.0
 51
315.0
1001
ACAD
1000
R13OBJECT
1002
{
1005
83
1002
}
  0
LINE
  5
83
100
AcDbEntity
  8
2D_PROFILE
100
AcDbLine
 10
-3.59288
 20
39.300026
 30
0.0
 11
3.592907
 21
39.300026
 31
0.0
  0
ENDSEC
  0
SECTION
  2
OBJECTS
  0
DICTIONARY
  5
1A
100
AcDbDictionary
  3
ACAD_GROUP
350
18
  3
ACAD_MLINESTYLE
350
19
  0
DICTIONARY
  5
18
102
{ACAD_REACTORS
330
1A
102
}
100
AcDbDictionary
  0
DICTIONARY
  5
19
102
{ACAD_REACTORS
330
1A
102
}
100
AcDbDictionary
  3
STANDARD
350
1C
  0
MLINESTYLE
  5
1C
102
{ACAD_REACTORS
330
19
102
}
100
AcDbMlineStyle
  2
STANDARD
 70
     0
  3

 62
   256
 51
90.0
 52
90.0
 71
     2
 49
0.5
 62
   256
  6
BYLAYER
 49
-0.5
 62
   256
  6
BYLAYER
  0
ENDSEC
  0
EOF
