  0
SECTION
  2
HEADER
  9
$ACADVER
  1
AC1014
  9
$ACADMAINTVER
 70
     9
  9
$DWGCODEPAGE
  3
ANSI_1252
  9
$INSBASE
 10
0.0
 20
0.0
 30
0.0
  9
$EXTMIN
 10
-23.156643
 20
-18.332733
 30
0.0
  9
$EXTMAX
 10
18.332772
 20
23.156683
 30
0.0
  9
$LIMMIN
 10
0.0
 20
0.0
  9
$LIMMAX
 10
210.0
 20
297.0
  9
$ORTHOMODE
 70
     0
  9
$REGENMODE
 70
     1
  9
$FILLMODE
 70
     1
  9
$QTEXTMODE
 70
     0
  9
$MIRRTEXT
 70
     1
  9
$DRAGMODE
 70
     2
  9
$LTSCALE
 40
5.0
  9
$OSMODE
 70
     0
  9
$ATTMODE
 70
     1
  9
$TEXTSIZE
 40
2.5
  9
$TRACEWID
 40
1.0
  9
$TEXTSTYLE
  7
STANDARD
  9
$CLAYER
  8
2D_PROFILE
  9
$CELTYPE
  6
BYLAYER
  9
$CECOLOR
 62
   256
  9
$CELTSCALE
 40
1.0
  9
$DELOBJ
 70
     1
  9
$DISPSILH
 70
     0
  9
$DIMSCALE
 40
1.0
  9
$DIMASZ
 40
2.5
  9
$DIMEXO
 40
1.5
  9
$DIMDLI
 40
0.0
  9
$DIMRND
 40
0.0
  9
$DIMDLE
 40
0.0
  9
$DIMEXE
 40
1.0
  9
$DIMTP
 40
0.2
  9
$DIMTM
 40
0.2
  9
$DIMTXT
 40
2.5
  9
$DIMCEN
 40
0.0
  9
$DIMTSZ
 40
0.0
  9
$DIMTOL
 70
     0
  9
$DIMLIM
 70
     0
  9
$DIMTIH
 70
     0
  9
$DIMTOH
 70
     0
  9
$DIMSE1
 70
     0
  9
$DIMSE2
 70
     0
  9
$DIMTAD
 70
     1
  9
$DIMZIN
 70
     8
  9
$DIMBLK
  1

  9
$DIMASO
 70
     1
  9
$DIMSHO
 70
     1
  9
$DIMPOST
  1

  9
$DIMAPOST
  1

  9
$DIMALT
 70
     0
  9
$DIMALTD
 70
     2
  9
$DIMALTF
 40
25.4
  9
$DIMLFAC
 40
1.0
  9
$DIMTOFL
 70
     1
  9
$DIMTVP
 40
0.0
  9
$DIMTIX
 70
     0
  9
$DIMSOXD
 70
     0
  9
$DIMSAH
 70
     0
  9
$DIMBLK1
  1

  9
$DIMBLK2
  1

  9
$DIMSTYLE
  2
PALETTI
  9
$DIMCLRD
 70
   256
  9
$DIMCLRE
 70
   256
  9
$DIMCLRT
 70
   256
  9
$DIMTFAC
 40
0.5
  9
$DIMGAP
 40
1.0
  9
$DIMJUST
 70
     0
  9
$DIMSD1
 70
     0
  9
$DIMSD2
 70
     0
  9
$DIMTOLJ
 70
     1
  9
$DIMTZIN
 70
     8
  9
$DIMALTZ
 70
     8
  9
$DIMALTTZ
 70
     8
  9
$DIMFIT
 70
     5
  9
$DIMUPT
 70
     0
  9
$DIMUNIT
 70
     2
  9
$DIMDEC
 70
     4
  9
$DIMTDEC
 70
     4
  9
$DIMALTU
 70
     2
  9
$DIMALTTD
 70
     2
  9
$DIMTXSTY
  7
STANDARD
  9
$DIMAUNIT
 70
     0
  9
$LUNITS
 70
     2
  9
$LUPREC
 70
     4
  9
$SKETCHINC
 40
1.0
  9
$FILLETRAD
 40
0.75
  9
$AUNITS
 70
     0
  9
$AUPREC
 70
     0
  9
$MENU
  1
acad
  9
$ELEVATION
 40
0.0
  9
$PELEVATION
 40
0.0
  9
$THICKNESS
 40
0.0
  9
$LIMCHECK
 70
     0
  9
$BLIPMODE
 70
     0
  9
$CHAMFERA
 40
10.0
  9
$CHAMFERB
 40
10.0
  9
$CHAMFERC
 40
0.0
  9
$CHAMFERD
 40
0.0
  9
$SKPOLY
 70
     0
  9
$TDCREATE
 40
2451229.680313205
  9
$TDUPDATE
 40
2451229.680313205
  9
$TDINDWG
 40
0.0000000000
  9
$TDUSRTIMER
 40
0.0000000000
  9
$USRTIMER
 70
     1
  9
$ANGBASE
 50
0.0
  9
$ANGDIR
 70
     0
  9
$PDMODE
 70
     0
  9
$PDSIZE
 40
0.0
  9
$PLINEWID
 40
0.0
  9
$COORDS
 70
     1
  9
$SPLFRAME
 70
     0
  9
$SPLINETYPE
 70
     6
  9
$SPLINESEGS
 70
     8
  9
$ATTDIA
 70
     1
  9
$ATTREQ
 70
     1
  9
$HANDLING
 70
     1
  9
$HANDSEED
  5
7B
  9
$SURFTAB1
 70
     6
  9
$SURFTAB2
 70
     6
  9
$SURFTYPE
 70
     6
  9
$SURFU
 70
     6
  9
$SURFV
 70
     6
  9
$UCSNAME
  2

  9
$UCSORG
 10
0.0
 20
0.0
 30
0.0
  9
$UCSXDIR
 10
1.0
 20
0.0
 30
0.0
  9
$UCSYDIR
 10
0.0
 20
1.0
 30
0.0
  9
$PUCSNAME
  2

  9
$PUCSORG
 10
0.0
 20
0.0
 30
0.0
  9
$PUCSXDIR
 10
1.0
 20
0.0
 30
0.0
  9
$PUCSYDIR
 10
0.0
 20
1.0
 30
0.0
  9
$USERI1
 70
     0
  9
$USERI2
 70
     0
  9
$USERI3
 70
     0
  9
$USERI4
 70
     0
  9
$USERI5
 70
     0
  9
$USERR1
 40
1.0
  9
$USERR2
 40
0.0
  9
$USERR3
 40
0.0
  9
$USERR4
 40
0.0
  9
$USERR5
 40
0.0
  9
$WORLDVIEW
 70
     1
  9
$SHADEDGE
 70
     3
  9
$SHADEDIF
 70
    70
  9
$TILEMODE
 70
     1
  9
$MAXACTVP
 70
    16
  9
$PINSBASE
 10
0.0
 20
0.0
 30
0.0
  9
$PLIMCHECK
 70
     0
  9
$PEXTMIN
 10
1.000000E+20
 20
1.000000E+20
 30
1.000000E+20
  9
$PEXTMAX
 10
-1.000000E+20
 20
-1.000000E+20
 30
-1.000000E+20
  9
$PLIMMIN
 10
0.0
 20
0.0
  9
$PLIMMAX
 10
420.0
 20
297.0
  9
$UNITMODE
 70
     0
  9
$VISRETAIN
 70
     0
  9
$PLINEGEN
 70
     0
  9
$PSLTSCALE
 70
     1
  9
$TREEDEPTH
 70
  3020
  9
$PICKSTYLE
 70
     1
  9
$CMLSTYLE
  2
STANDARD
  9
$CMLJUST
 70
     0
  9
$CMLSCALE
 40
1.0
  9
$PROXYGRAPHICS
 70
     1
  9
$MEASUREMENT
 70
     0
  0
ENDSEC
  0
SECTION
  2
CLASSES
  0
CLASS
  1
DICTIONARYVAR
  2
AcDbDictionaryVar
  3
"AutoCAD"
 90
        0
280
     0
281
     0
  0
ENDSEC
  0
SECTION
  2
TABLES
  0
TABLE
  2
VPORT
  5
12
100
AcDbSymbolTable
 70
     2
  0
VPORT
  5
7A
100
AcDbSymbolTableRecord
100
AcDbViewportTableRecord
  2
*ACTIVE
 70
     0
 10
0.0
 20
0.0
 11
1.0
 21
1.0
 12
42.5243
 22
10.365872
 13
0.0
 23
0.0
 14
5.0
 24
5.0
 15
10.0
 25
10.0
 16
0.0
 26
0.0
 36
1.0
 17
0.0
 27
0.0
 37
0.0
 40
133.443917
 41
1.700368
 42
50.0
 43
0.0
 44
0.0
 50
0.0
 51
0.0
 71
     0
 72
 20000
 73
     1
 74
     3
 75
     0
 76
     0
 77
     0
 78
     0
  0
ENDTAB
  0
TABLE
  2
LTYPE
  5
D
100
AcDbSymbolTable
 70
     1
  0
LTYPE
  5
E
100
AcDbSymbolTableRecord
100
AcDbLinetypeTableRecord
  2
BYBLOCK
 70
     0
  3

 72
    65
 73
     0
 40
0.0
  0
LTYPE
  5
F
100
AcDbSymbolTableRecord
100
AcDbLinetypeTableRecord
  2
BYLAYER
 70
     0
  3

 72
    65
 73
     0
 40
0.0
  0
LTYPE
  5
5
100
AcDbSymbolTableRecord
100
AcDbLinetypeTableRecord
  2
CONTINUOUS
 70
     0
  3
Solid line
 72
    65
 73
     0
 40
0.0
  0
ENDTAB
  0
TABLE
  2
LAYER
  5
A
100
AcDbSymbolTable
 70
     2
  0
LAYER
  5
4
100
AcDbSymbolTableRecord
100
AcDbLayerTableRecord
  2
0
 70
     1
 62
     7
  6
CONTINUOUS
  0
LAYER
  5
1B
100
AcDbSymbolTableRecord
100
AcDbLayerTableRecord
  2
2D_PROFILE
 70
     0
 62
     5
  6
CONTINUOUS
  0
ENDTAB
  0
TABLE
  2
STYLE
  5
B
100
AcDbSymbolTable
 70
     1
  0
STYLE
  5
C
100
AcDbSymbolTableRecord
100
AcDbTextStyleTableRecord
  2
STANDARD
 70
     0
 40
0.0
 41
1.0
 50
0.0
 71
     0
 42
2.5
  3
ISOCP
  4

  0
ENDTAB
  0
TABLE
  2
VIEW
  5
10
100
AcDbSymbolTable
 70
     0
  0
ENDTAB
  0
TABLE
  2
UCS
  5
11
100
AcDbSymbolTable
 70
     0
  0
ENDTAB
  0
TABLE
  2
APPID
  5
14
100
AcDbSymbolTable
 70
     1
  0
APPID
  5
15
100
AcDbSymbolTableRecord
100
AcDbRegAppTableRecord
  2
ACAD
 70
     0
  0
ENDTAB
  0
TABLE
  2
DIMSTYLE
  5
16
100
AcDbSymbolTable
 70
     1
  0
DIMSTYLE
105
1D
100
AcDbSymbolTableRecord
100
AcDbDimStyleTableRecord
  2
PALETTI
 70
     0
  3

  4

  5

  6

  7

 40
1.0
 41
2.5
 42
1.5
 43
0.0
 44
1.0
 45
0.0
 46
0.0
 47
0.2
 48
0.2
140
2.5
141
0.0
142
0.0
143
25.4
144
1.0
145
0.0
146
0.5
147
1.0
 71
     0
 72
     0
 73
     0
 74
     0
 75
     0
 76
     0
 77
     1
 78
     8
170
     0
171
     2
172
     1
173
     0
174
     0
175
     0
176
   256
177
   256
178
   256
270
     2
271
     4
272
     4
273
     2
274
     2
340
C
275
     0
280
     0
281
     0
282
     0
283
     1
284
     8
285
     8
286
     8
287
     5
288
     0
  0
ENDTAB
  0
TABLE
  2
BLOCK_RECORD
  5
1
100
AcDbSymbolTable
 70
     0
  0
BLOCK_RECORD
  5
2
100
AcDbSymbolTableRecord
100
AcDbBlockTableRecord
  2
*MODEL_SPACE
  0
BLOCK_RECORD
  5
7
100
AcDbSymbolTableRecord
100
AcDbBlockTableRecord
  2
*PAPER_SPACE
  0
ENDTAB
  0
ENDSEC
  0
SECTION
  2
BLOCKS
  0
BLOCK
  5
3
100
AcDbEntity
  8
0
100
AcDbBlockBegin
  2
*MODEL_SPACE
 70
     0
 10
0.0
 20
0.0
 30
0.0
  3
*MODEL_SPACE
  1

  0
ENDBLK
  5
6
100
AcDbEntity
  8
0
100
AcDbBlockEnd
  0
BLOCK
  5
8
100
AcDbEntity
 67
     1
  8
0
100
AcDbBlockBegin
  2
*PAPER_SPACE
 70
     0
 10
0.0
 20
0.0
 30
0.0
  3
*PAPER_SPACE
  1

  0
ENDBLK
  5
9
100
AcDbEntity
 67
     1
  8
0
100
AcDbBlockEnd
  0
ENDSEC
  0
SECTION
  2
ENTITIES
  0
LINE
  5
1E
100
AcDbEntity
  8
2D_PROFILE
100
AcDbLine
 10
17.577081
 20
18.861875
 30
0.0
 11
17.378855
 21
7.505506
 31
0.0
1001
ACAD
1000
R13OBJECT
1002
{
1005
79
1002
}
  0
ARC
  5
1F
100
AcDbEntity
  8
2D_PROFILE
100
AcDbCircle
 10
16.379007
 20
7.522959
 30
0.0
 40
1.0
100
AcDbArc
 50
270.0
 51
359.0
1001
ACAD
1000
R13OBJECT
1002
{
1005
79
1002
}
  0
LINE
  5
20
100
AcDbEntity
  8
2D_PROFILE
100
AcDbLine
 10
13.878626
 20
6.522959
 30
0.0
 11
16.379007
 21
6.522959
 31
0.0
1001
ACAD
1000
R13OBJECT
1002
{
1005
79
1002
}
  0
ARC
  5
21
100
AcDbEntity
  8
2D_PROFILE
100
AcDbCircle
 10
13.878626
 20
7.522959
 30
0.0
 40
1.0
100
AcDbArc
 50
179.0
 51
270.0
1001
ACAD
1000
R13OBJECT
1002
{
1005
79
1002
}
  0
LINE
  5
22
100
AcDbEntity
  8
2D_PROFILE
100
AcDbLine
 10
12.946244
 20
11.405506
 30
0.0
 11
12.878779
 21
7.540411
 31
0.0
1001
ACAD
1000
R13OBJECT
1002
{
1005
79
1002
}
  0
ARC
  5
23
100
AcDbEntity
  8
2D_PROFILE
100
AcDbCircle
 10
11.946396
 20
11.422959
 30
0.0
 40
1.0
100
AcDbArc
 50
359.0
 51
130.648751
1001
ACAD
1000
R13OBJECT
1002
{
1005
79
1002
}
  0
ARC
  5
24
100
AcDbEntity
  8
2D_PROFILE
100
AcDbCircle
 10
25.028662
 20
-8.708175
 30
0.0
 40
25.0
100
AcDbArc
 50
123.322254
 51
137.975248
1001
ACAD
1000
R13OBJECT
1002
{
1005
79
1002
}
  0
ARC
  5
25
100
AcDbEntity
  8
2D_PROFILE
100
AcDbCircle
 10
8.978779
 20
4.922959
 30
0.0
 40
4.0
100
AcDbArc
 50
129.077969
 51
180.0
1001
ACAD
1000
R13OBJECT
1002
{
1005
79
1002
}
  0
LINE
  5
26
100
AcDbEntity
  8
2D_PROFILE
100
AcDbLine
 10
4.978779
 20
-0.077041
 30
0.0
 11
4.978779
 21
4.922959
 31
0.0
1001
ACAD
1000
R13OBJECT
1002
{
1005
79
1002
}
  0
ARC
  5
27
100
AcDbEntity
  8
2D_PROFILE
100
AcDbCircle
 10
8.978779
 20
-0.077041
 30
0.0
 40
4.0
100
AcDbArc
 50
180.0
 51
230.922031
1001
ACAD
1000
R13OBJECT
1002
{
1005
79
1002
}
  0
ARC
  5
28
100
AcDbEntity
  8
2D_PROFILE
100
AcDbCircle
 10
25.028662
 20
13.554093
 30
0.0
 40
25.0
100
AcDbArc
 50
222.024752
 51
236.677746
1001
ACAD
1000
R13OBJECT
1002
{
1005
79
1002
}
  0
ARC
  5
29
100
AcDbEntity
  8
2D_PROFILE
100
AcDbCircle
 10
11.946396
 20
-6.577041
 30
0.0
 40
1.0
100
AcDbArc
 50
229.351249
 51
1.0
1001
ACAD
1000
R13OBJECT
1002
{
1005
79
1002
}
  0
LINE
  5
2A
100
AcDbEntity
  8
2D_PROFILE
100
AcDbLine
 10
12.946244
 20
-6.559589
 30
0.0
 11
12.878779
 21
-2.694494
 31
0.0
1001
ACAD
1000
R13OBJECT
1002
{
1005
79
1002
}
  0
ARC
  5
2B
100
AcDbEntity
  8
2D_PROFILE
100
AcDbCircle
 10
13.878626
 20
-2.677041
 30
0.0
 40
1.0
100
AcDbArc
 50
90.0
 51
181.0
1001
ACAD
1000
R13OBJECT
1002
{
1005
79
1002
}
  0
LINE
  5
2C
100
AcDbEntity
  8
2D_PROFILE
100
AcDbLine
 10
13.878626
 20
-1.677041
 30
0.0
 11
16.379007
 21
-1.677041
 31
0.0
1001
ACAD
1000
R13OBJECT
1002
{
1005
79
1002
}
  0
ARC
  5
2D
100
AcDbEntity
  8
2D_PROFILE
100
AcDbCircle
 10
16.379007
 20
-2.677041
 30
0.0
 40
1.0
100
AcDbArc
 50
1.0
 51
90.0
1001
ACAD
1000
R13OBJECT
1002
{
1005
79
1002
}
  0
LINE
  5
2E
100
AcDbEntity
  8
2D_PROFILE
100
AcDbLine
 10
17.577091
 20
-14.0165
 30
0.0
 11
17.378855
 21
-2.659589
 31
0.0
1001
ACAD
1000
R13OBJECT
1002
{
1005
79
1002
}
  0
ARC
  5
2F
100
AcDbEntity
  8
2D_PROFILE
100
AcDbCircle
 10
14.077624
 20
-14.077584
 30
0.0
 40
3.5
100
AcDbArc
 50
269.0
 51
1.0
1001
ACAD
1000
R13OBJECT
1002
{
1005
79
1002
}
  0
LINE
  5
30
100
AcDbEntity
  8
2D_PROFILE
100
AcDbLine
 10
14.01654
 20
-17.577051
 30
0.0
 11
2.659629
 21
-17.378815
 31
0.0
1001
ACAD
1000
R13OBJECT
1002
{
1005
79
1002
}
  0
ARC
  5
31
100
AcDbEntity
  8
2D_PROFILE
100
AcDbCircle
 10
2.677081
 20
-16.378967
 30
0.0
 40
1.0
100
AcDbArc
 50
180.0
 51
269.0
1001
ACAD
1000
R13OBJECT
1002
{
1005
79
1002
}
  0
LINE
  5
32
100
AcDbEntity
  8
2D_PROFILE
100
AcDbLine
 10
1.677081
 20
-13.878587
 30
0.0
 11
1.677081
 21
-16.378967
 31
0.0
1001
ACAD
1000
R13OBJECT
1002
{
1005
79
1002
}
  0
ARC
  5
33
100
AcDbEntity
  8
2D_PROFILE
100
AcDbCircle
 10
2.677081
 20
-13.878587
 30
0.0
 40
1.0
100
AcDbArc
 50
89.0
 51
180.0
1001
ACAD
1000
R13OBJECT
1002
{
1005
79
1002
}
  0
LINE
  5
34
100
AcDbEntity
  8
2D_PROFILE
100
AcDbLine
 10
6.559629
 20
-12.946204
 30
0.0
 11
2.694533
 21
-12.878739
 31
0.0
1001
ACAD
1000
R13OBJECT
1002
{
1005
79
1002
}
  0
ARC
  5
35
100
AcDbEntity
  8
2D_PROFILE
100
AcDbCircle
 10
6.577081
 20
-11.946357
 30
0.0
 40
1.0
100
AcDbArc
 50
269.0
 51
40.648751
1001
ACAD
1000
R13OBJECT
1002
{
1005
79
1002
}
  0
ARC
  5
36
100
AcDbEntity
  8
2D_PROFILE
100
AcDbCircle
 10
-13.554053
 20
-25.028622
 30
0.0
 40
25.0
100
AcDbArc
 50
33.322254
 51
47.975248
1001
ACAD
1000
R13OBJECT
1002
{
1005
79
1002
}
  0
ARC
  5
37
100
AcDbEntity
  8
2D_PROFILE
100
AcDbCircle
 10
0.077081
 20
-8.978739
 30
0.0
 40
4.0
100
AcDbArc
 50
39.077969
 51
90.0
1001
ACAD
1000
R13OBJECT
1002
{
1005
79
1002
}
  0
LINE
  5
38
100
AcDbEntity
  8
2D_PROFILE
100
AcDbLine
 10
-4.922919
 20
-4.978739
 30
0.0
 11
0.077081
 21
-4.978739
 31
0.0
1001
ACAD
1000
R13OBJECT
1002
{
1005
79
1002
}
  0
ARC
  5
39
100
AcDbEntity
  8
2D_PROFILE
100
AcDbCircle
 10
-4.922919
 20
-8.978739
 30
0.0
 40
4.0
100
AcDbArc
 50
90.0
 51
140.922031
1001
ACAD
1000
R13OBJECT
1002
{
1005
79
1002
}
  0
ARC
  5
3A
100
AcDbEntity
  8
2D_PROFILE
100
AcDbCircle
 10
8.708215
 20
-25.028622
 30
0.0
 40
25.0
100
AcDbArc
 50
132.024752
 51
146.677746
1001
ACAD
1000
R13OBJECT
1002
{
1005
79
1002
}
  0
ARC
  5
3B
100
AcDbEntity
  8
2D_PROFILE
100
AcDbCircle
 10
-11.422919
 20
-11.946357
 30
0.0
 40
1.0
100
AcDbArc
 50
139.351249
 51
271.0
1001
ACAD
1000
R13OBJECT
1002
{
1005
79
1002
}
  0
LINE
  5
3C
100
AcDbEntity
  8
2D_PROFILE
100
AcDbLine
 10
-11.405467
 20
-12.946204
 30
0.0
 11
-7.540371
 21
-12.878739
 31
0.0
1001
ACAD
1000
R13OBJECT
1002
{
1005
79
1002
}
  0
ARC
  5
3D
100
AcDbEntity
  8
2D_PROFILE
100
AcDbCircle
 10
-7.522919
 20
-13.878587
 30
0.0
 40
1.0
100
AcDbArc
 50
0.0
 51
91.0
1001
ACAD
1000
R13OBJECT
1002
{
1005
79
1002
}
  0
LINE
  5
3E
100
AcDbEntity
  8
2D_PROFILE
100
AcDbLine
 10
-6.522919
 20
-13.878587
 30
0.0
 11
-6.522919
 21
-16.378967
 31
0.0
1001
ACAD
1000
R13OBJECT
1002
{
1005
79
1002
}
  0
ARC
  5
3F
100
AcDbEntity
  8
2D_PROFILE
100
AcDbCircle
 10
-7.522919
 20
-16.378967
 30
0.0
 40
1.0
100
AcDbArc
 50
271.0
 51
360.0
1001
ACAD
1000
R13OBJECT
1002
{
1005
79
1002
}
  0
LINE
  5
40
100
AcDbEntity
  8
2D_PROFILE
100
AcDbLine
 10
-18.861836
 20
-17.577041
 30
0.0
 11
-7.505467
 21
-17.378815
 31
0.0
1001
ACAD
1000
R13OBJECT
1002
{
1005
79
1002
}
  0
ARC
  5
41
100
AcDbEntity
  8
2D_PROFILE
100
AcDbCircle
 10
-18.922919
 20
-14.077574
 30
0.0
 40
3.5
100
AcDbArc
 50
180.0
 51
271.0
1001
ACAD
1000
R13OBJECT
1002
{
1005
79
1002
}
  0
LINE
  5
42
100
AcDbEntity
  8
2D_PROFILE
100
AcDbLine
 10
-22.422919
 20
-14.077574
 30
0.0
 11
-22.422919
 21
-2.677041
 31
0.0
1001
ACAD
1000
R13OBJECT
1002
{
1005
79
1002
}
  0
ARC
  5
43
100
AcDbEntity
  8
2D_PROFILE
100
AcDbCircle
 10
-21.422919
 20
-2.677041
 30
0.0
 40
1.0
100
AcDbArc
 50
90.0
 51
180.0
1001
ACAD
1000
R13OBJECT
1002
{
1005
79
1002
}
  0
LINE
  5
44
100
AcDbEntity
  8
2D_PROFILE
100
AcDbLine
 10
-21.422919
 20
-1.677041
 30
0.0
 11
-18.722919
 21
-1.677041
 31
0.0
1001
ACAD
1000
R13OBJECT
1002
{
1005
79
1002
}
  0
ARC
  5
45
100
AcDbEntity
  8
2D_PROFILE
100
AcDbCircle
 10
-18.722919
 20
-2.677041
 30
0.0
 40
1.0
100
AcDbArc
 50
0.0
 51
90.0
1001
ACAD
1000
R13OBJECT
1002
{
1005
79
1002
}
  0
LINE
  5
46
100
AcDbEntity
  8
2D_PROFILE
100
AcDbLine
 10
-17.722919
 20
-2.677041
 30
0.0
 11
-17.722919
 21
-6.277041
 31
0.0
1001
ACAD
1000
R13OBJECT
1002
{
1005
79
1002
}
  0
ARC
  5
47
100
AcDbEntity
  8
2D_PROFILE
100
AcDbCircle
 10
-17.222919
 20
-6.277041
 30
0.0
 40
0.5
100
AcDbArc
 50
180.0
 51
270.0
1001
ACAD
1000
R13OBJECT
1002
{
1005
79
1002
}
  0
LINE
  5
48
100
AcDbEntity
  8
2D_PROFILE
100
AcDbLine
 10
-17.222919
 20
-6.777041
 30
0.0
 11
-15.222919
 21
-6.777041
 31
0.0
1001
ACAD
1000
R13OBJECT
1002
{
1005
79
1002
}
  0
ARC
  5
49
100
AcDbEntity
  8
2D_PROFILE
100
AcDbCircle
 10
-15.222919
 20
-6.277041
 30
0.0
 40
0.5
100
AcDbArc
 50
270.0
 51
0.0
1001
ACAD
1000
R13OBJECT
1002
{
1005
79
1002
}
  0
LINE
  5
4A
100
AcDbEntity
  8
2D_PROFILE
100
AcDbLine
 10
-14.722919
 20
-6.277041
 30
0.0
 11
-14.722919
 21
1.372959
 31
0.0
1001
ACAD
1000
R13OBJECT
1002
{
1005
79
1002
}
  0
ARC
  5
4B
100
AcDbEntity
  8
2D_PROFILE
100
AcDbCircle
 10
-13.972919
 20
1.372959
 30
0.0
 40
0.75
100
AcDbArc
 50
90.0
 51
180.0
1001
ACAD
1000
R13OBJECT
1002
{
1005
79
1002
}
  0
LINE
  5
4C
100
AcDbEntity
  8
2D_PROFILE
100
AcDbLine
 10
-13.972919
 20
2.122959
 30
0.0
 11
-13.422919
 21
2.122959
 31
0.0
1001
ACAD
1000
R13OBJECT
1002
{
1005
79
1002
}
  0
ARC
  5
4D
100
AcDbEntity
  8
2D_PROFILE
100
AcDbCircle
 10
-13.422919
 20
1.622959
 30
0.0
 40
0.5
100
AcDbArc
 50
0.0
 51
90.0
1001
ACAD
1000
R13OBJECT
1002
{
1005
79
1002
}
  0
LINE
  5
4E
100
AcDbEntity
  8
2D_PROFILE
100
AcDbLine
 10
-12.922919
 20
1.622959
 30
0.0
 11
-12.922919
 21
-0.446675
 31
0.0
1001
ACAD
1000
R13OBJECT
1002
{
1005
79
1002
}
  0
ARC
  5
4F
100
AcDbEntity
  8
2D_PROFILE
100
AcDbCircle
 10
-12.172919
 20
-0.446675
 30
0.0
 40
0.75
100
AcDbArc
 50
180.0
 51
315.0
1001
ACAD
1000
R13OBJECT
1002
{
1005
79
1002
}
  0
LINE
  5
50
100
AcDbEntity
  8
2D_PROFILE
100
AcDbLine
 10
-11.642589
 20
-0.977006
 30
0.0
 11
-8.958705
 21
1.706878
 31
0.0
1001
ACAD
1000
R13OBJECT
1002
{
1005
79
1002
}
  0
ARC
  5
51
100
AcDbEntity
  8
2D_PROFILE
100
AcDbCircle
 10
-10.372919
 20
3.121091
 30
0.0
 40
2.0
100
AcDbArc
 50
315.0
 51
0.0
1001
ACAD
1000
R13OBJECT
1002
{
1005
79
1002
}
  0
LINE
  5
52
100
AcDbEntity
  8
2D_PROFILE
100
AcDbLine
 10
-8.372919
 20
3.121091
 30
0.0
 11
-8.372919
 21
6.324826
 31
0.0
1001
ACAD
1000
R13OBJECT
1002
{
1005
79
1002
}
  0
ARC
  5
53
100
AcDbEntity
  8
2D_PROFILE
100
AcDbCircle
 10
-10.372919
 20
6.324826
 30
0.0
 40
2.0
100
AcDbArc
 50
360.0
 51
45.0
1001
ACAD
1000
R13OBJECT
1002
{
1005
79
1002
}
  0
LINE
  5
54
100
AcDbEntity
  8
2D_PROFILE
100
AcDbLine
 10
-8.958705
 20
7.73904
 30
0.0
 11
-11.642589
 21
10.422923
 31
0.0
1001
ACAD
1000
R13OBJECT
1002
{
1005
79
1002
}
  0
ARC
  5
55
100
AcDbEntity
  8
2D_PROFILE
100
AcDbCircle
 10
-12.172919
 20
9.892593
 30
0.0
 40
0.75
100
AcDbArc
 50
45.0
 51
180.0
1001
ACAD
1000
R13OBJECT
1002
{
1005
79
1002
}
  0
LINE
  5
56
100
AcDbEntity
  8
2D_PROFILE
100
AcDbLine
 10
-12.922919
 20
9.892593
 30
0.0
 11
-12.922919
 21
7.822959
 31
0.0
1001
ACAD
1000
R13OBJECT
1002
{
1005
79
1002
}
  0
ARC
  5
57
100
AcDbEntity
  8
2D_PROFILE
100
AcDbCircle
 10
-13.422919
 20
7.822959
 30
0.0
 40
0.5
100
AcDbArc
 50
270.0
 51
0.0
1001
ACAD
1000
R13OBJECT
1002
{
1005
79
1002
}
  0
LINE
  5
58
100
AcDbEntity
  8
2D_PROFILE
100
AcDbLine
 10
-13.422919
 20
7.322959
 30
0.0
 11
-13.972919
 21
7.322959
 31
0.0
1001
ACAD
1000
R13OBJECT
1002
{
1005
79
1002
}
  0
ARC
  5
59
100
AcDbEntity
  8
2D_PROFILE
100
AcDbCircle
 10
-13.972919
 20
8.072959
 30
0.0
 40
0.75
100
AcDbArc
 50
180.0
 51
270.0
1001
ACAD
1000
R13OBJECT
1002
{
1005
79
1002
}
  0
LINE
  5
5A
100
AcDbEntity
  8
2D_PROFILE
100
AcDbLine
 10
-14.722919
 20
8.072959
 30
0.0
 11
-14.722919
 21
12.722959
 31
0.0
1001
ACAD
1000
R13OBJECT
1002
{
1005
79
1002
}
  0
ARC
  5
5B
100
AcDbEntity
  8
2D_PROFILE
100
AcDbCircle
 10
-12.722919
 20
12.722959
 30
0.0
 40
2.0
100
AcDbArc
 50
90.0
 51
180.0
1001
ACAD
1000
R13OBJECT
1002
{
1005
79
1002
}
  0
LINE
  5
5C
100
AcDbEntity
  8
2D_PROFILE
100
AcDbLine
 10
-12.722919
 20
14.722959
 30
0.0
 11
-8.072919
 21
14.722959
 31
0.0
1001
ACAD
1000
R13OBJECT
1002
{
1005
79
1002
}
  0
ARC
  5
5D
100
AcDbEntity
  8
2D_PROFILE
100
AcDbCircle
 10
-8.072919
 20
13.972959
 30
0.0
 40
0.75
100
AcDbArc
 50
360.0
 51
90.0
1001
ACAD
1000
R13OBJECT
1002
{
1005
79
1002
}
  0
LINE
  5
5E
100
AcDbEntity
  8
2D_PROFILE
100
AcDbLine
 10
-7.322919
 20
13.972959
 30
0.0
 11
-7.322919
 21
13.422959
 31
0.0
1001
ACAD
1000
R13OBJECT
1002
{
1005
79
1002
}
  0
ARC
  5
5F
100
AcDbEntity
  8
2D_PROFILE
100
AcDbCircle
 10
-7.822919
 20
13.422959
 30
0.0
 40
0.5
100
AcDbArc
 50
270.0
 51
360.0
1001
ACAD
1000
R13OBJECT
1002
{
1005
79
1002
}
  0
LINE
  5
60
100
AcDbEntity
  8
2D_PROFILE
100
AcDbLine
 10
-7.822919
 20
12.922959
 30
0.0
 11
-9.892553
 21
12.922959
 31
0.0
1001
ACAD
1000
R13OBJECT
1002
{
1005
79
1002
}
  0
ARC
  5
61
100
AcDbEntity
  8
2D_PROFILE
100
AcDbCircle
 10
-9.892553
 20
12.172959
 30
0.0
 40
0.75
100
AcDbArc
 50
90.0
 51
225.0
1001
ACAD
1000
R13OBJECT
1002
{
1005
79
1002
}
  0
LINE
  5
62
100
AcDbEntity
  8
2D_PROFILE
100
AcDbLine
 10
-10.422883
 20
11.642629
 30
0.0
 11
-7.739
 21
8.958745
 31
0.0
1001
ACAD
1000
R13OBJECT
1002
{
1005
79
1002
}
  0
ARC
  5
63
100
AcDbEntity
  8
2D_PROFILE
100
AcDbCircle
 10
-6.324786
 20
10.372959
 30
0.0
 40
2.0
100
AcDbArc
 50
225.0
 51
270.0
1001
ACAD
1000
R13OBJECT
1002
{
1005
79
1002
}
  0
LINE
  5
64
100
AcDbEntity
  8
2D_PROFILE
100
AcDbLine
 10
-6.324786
 20
8.372959
 30
0.0
 11
-3.121052
 21
8.372959
 31
0.0
1001
ACAD
1000
R13OBJECT
1002
{
1005
79
1002
}
  0
ARC
  5
65
100
AcDbEntity
  8
2D_PROFILE
100
AcDbCircle
 10
-3.121052
 20
10.372959
 30
0.0
 40
2.0
100
AcDbArc
 50
270.0
 51
315.0
1001
ACAD
1000
R13OBJECT
1002
{
1005
79
1002
}
  0
LINE
  5
66
100
AcDbEntity
  8
2D_PROFILE
100
AcDbLine
 10
-1.706838
 20
8.958745
 30
0.0
 11
0.977045
 21
11.642629
 31
0.0
1001
ACAD
1000
R13OBJECT
1002
{
1005
79
1002
}
  0
ARC
  5
67
100
AcDbEntity
  8
2D_PROFILE
100
AcDbCircle
 10
0.446715
 20
12.172959
 30
0.0
 40
0.75
100
AcDbArc
 50
315.0
 51
90.0
1001
ACAD
1000
R13OBJECT
1002
{
1005
79
1002
}
  0
LINE
  5
68
100
AcDbEntity
  8
2D_PROFILE
100
AcDbLine
 10
0.446715
 20
12.922959
 30
0.0
 11
-1.622919
 21
12.922959
 31
0.0
1001
ACAD
1000
R13OBJECT
1002
{
1005
79
1002
}
  0
ARC
  5
69
100
AcDbEntity
  8
2D_PROFILE
100
AcDbCircle
 10
-1.622919
 20
13.422959
 30
0.0
 40
0.5
100
AcDbArc
 50
180.0
 51
270.0
1001
ACAD
1000
R13OBJECT
1002
{
1005
79
1002
}
  0
LINE
  5
6A
100
AcDbEntity
  8
2D_PROFILE
100
AcDbLine
 10
-2.122919
 20
13.422959
 30
0.0
 11
-2.122919
 21
13.972959
 31
0.0
1001
ACAD
1000
R13OBJECT
1002
{
1005
79
1002
}
  0
ARC
  5
6B
100
AcDbEntity
  8
2D_PROFILE
100
AcDbCircle
 10
-1.372919
 20
13.972959
 30
0.0
 40
0.75
100
AcDbArc
 50
90.0
 51
180.0
1001
ACAD
1000
R13OBJECT
1002
{
1005
79
1002
}
  0
LINE
  5
6C
100
AcDbEntity
  8
2D_PROFILE
100
AcDbLine
 10
-1.372919
 20
14.722959
 30
0.0
 11
6.277081
 21
14.722959
 31
0.0
1001
ACAD
1000
R13OBJECT
1002
{
1005
79
1002
}
  0
ARC
  5
6D
100
AcDbEntity
  8
2D_PROFILE
100
AcDbCircle
 10
6.277081
 20
15.222959
 30
0.0
 40
0.5
100
AcDbArc
 50
270.0
 51
0.0
1001
ACAD
1000
R13OBJECT
1002
{
1005
79
1002
}
  0
LINE
  5
6E
100
AcDbEntity
  8
2D_PROFILE
100
AcDbLine
 10
6.777081
 20
15.222959
 30
0.0
 11
6.777081
 21
17.222959
 31
0.0
1001
ACAD
1000
R13OBJECT
1002
{
1005
79
1002
}
  0
ARC
  5
6F
100
AcDbEntity
  8
2D_PROFILE
100
AcDbCircle
 10
6.277081
 20
17.222959
 30
0.0
 40
0.5
100
AcDbArc
 50
0.0
 51
90.0
1001
ACAD
1000
R13OBJECT
1002
{
1005
79
1002
}
  0
LINE
  5
70
100
AcDbEntity
  8
2D_PROFILE
100
AcDbLine
 10
6.277081
 20
17.722959
 30
0.0
 11
2.677081
 21
17.722959
 31
0.0
1001
ACAD
1000
R13OBJECT
1002
{
1005
79
1002
}
  0
ARC
  5
71
100
AcDbEntity
  8
2D_PROFILE
100
AcDbCircle
 10
2.677081
 20
18.722959
 30
0.0
 40
1.0
100
AcDbArc
 50
180.0
 51
270.0
1001
ACAD
1000
R13OBJECT
1002
{
1005
79
1002
}
  0
LINE
  5
72
100
AcDbEntity
  8
2D_PROFILE
100
AcDbLine
 10
1.677081
 20
18.722959
 30
0.0
 11
1.677081
 21
21.422959
 31
0.0
1001
ACAD
1000
R13OBJECT
1002
{
1005
79
1002
}
  0
ARC
  5
73
100
AcDbEntity
  8
2D_PROFILE
100
AcDbCircle
 10
2.677081
 20
21.422959
 30
0.0
 40
1.0
100
AcDbArc
 50
90.0
 51
180.0
1001
ACAD
1000
R13OBJECT
1002
{
1005
79
1002
}
  0
LINE
  5
74
100
AcDbEntity
  8
2D_PROFILE
100
AcDbLine
 10
2.677081
 20
22.422959
 30
0.0
 11
14.077614
 21
22.422959
 31
0.0
1001
ACAD
1000
R13OBJECT
1002
{
1005
79
1002
}
  0
ARC
  5
75
100
AcDbEntity
  8
2D_PROFILE
100
AcDbCircle
 10
14.077614
 20
18.922959
 30
0.0
 40
3.5
100
AcDbArc
 50
359.0
 51
90.0
1001
ACAD
1000
R13OBJECT
1002
{
1005
79
1002
}
  0
CIRCLE
  5
76
100
AcDbEntity
  8
2D_PROFILE
100
AcDbCircle
 10
17.422919
 20
-12.577041
 30
0.0
 40
2.0
210
0.0
220
0.0
230
-1.0
1001
ACAD
1000
R13OBJECT
1002
{
1005
79
1002
}
  0
CIRCLE
  5
77
100
AcDbEntity
  8
2D_PROFILE
100
AcDbCircle
 10
-12.577081
 20
-12.577041
 30
0.0
 40
2.0
210
0.0
220
0.0
230
-1.0
1001
ACAD
1000
R13OBJECT
1002
{
1005
79
1002
}
  0
CIRCLE
  5
78
100
AcDbEntity
  8
2D_PROFILE
100
AcDbCircle
 10
2.422919
 20
2.422959
 30
0.0
 40
3.4
210
0.0
220
0.0
230
-1.0
1001
ACAD
1000
R13OBJECT
1002
{
1005
79
1002
}
  0
CIRCLE
  5
79
100
AcDbEntity
  8
2D_PROFILE
100
AcDbCircle
 10
-12.577081
 20
17.422959
 30
0.0
 40
2.0
210
0.0
220
0.0
230
-1.0
  0
ENDSEC
  0
SECTION
  2
OBJECTS
  0
DICTIONARY
  5
1A
100
AcDbDictionary
  3
ACAD_GROUP
350
18
  3
ACAD_MLINESTYLE
350
19
  0
DICTIONARY
  5
18
102
{ACAD_REACTORS
330
1A
102
}
100
AcDbDictionary
  0
DICTIONARY
  5
19
102
{ACAD_REACTORS
330
1A
102
}
100
AcDbDictionary
  3
STANDARD
350
1C
  0
MLINESTYLE
  5
1C
102
{ACAD_REACTORS
330
19
102
}
100
AcDbMlineStyle
  2
STANDARD
 70
     0
  3

 62
   256
 51
90.0
 52
90.0
 71
     2
 49
0.5
 62
   256
  6
BYLAYER
 49
-0.5
 62
   256
  6
BYLAYER
  0
ENDSEC
  0
EOF
