ISO-10303-21;
HEADER;
/* Generated by software containing ST-Developer
 * from STEP Tools, Inc. (www.steptools.com) 
 */

FILE_DESCRIPTION(
/* description */ ('Fu\X\DFplatte 40x80 M12 verz.'),
/* implementation_level */ '2;1');

FILE_NAME(
/* name */ 'Q:\\ExterneArtikel_Webseite_Palkat\\SZ\\SZ0230V-A.stp',
/* time_stamp */ '2015-11-24T10:35:35+01:00',
/* author */ ('Marina Kaa'),
/* organization */ (''),
/* preprocessor_version */ 'ST-DEVELOPER v15.6',
/* originating_system */ 'Autodesk Inventor 2015',
/* authorisation */ '');

FILE_SCHEMA (('AUTOMOTIVE_DESIGN { 1 0 10303 214 3 1 1 }'));
ENDSEC;

DATA;
#10=MECHANICAL_DESIGN_GEOMETRIC_PRESENTATION_REPRESENTATION('',(#13),#689);
#11=SHAPE_REPRESENTATION_RELATIONSHIP('SRR','None',#698,#12);
#12=ADVANCED_BREP_SHAPE_REPRESENTATION($,(#14),#688);
#13=STYLED_ITEM('',(#707),#14);
#14=MANIFOLD_SOLID_BREP('Volumenk\X\F6rper1',#403);
#15=FACE_BOUND('',#101,.T.);
#16=FACE_BOUND('',#102,.T.);
#17=FACE_BOUND('',#103,.T.);
#18=FACE_BOUND('',#108,.T.);
#19=FACE_BOUND('',#110,.T.);
#20=FACE_BOUND('',#112,.T.);
#21=FACE_BOUND('',#114,.T.);
#22=FACE_BOUND('',#116,.T.);
#23=FACE_BOUND('',#118,.T.);
#24=FACE_BOUND('',#120,.T.);
#25=FACE_BOUND('',#123,.T.);
#26=FACE_BOUND('',#124,.T.);
#27=FACE_BOUND('',#125,.T.);
#28=CYLINDRICAL_SURFACE('',#421,3.5);
#29=CYLINDRICAL_SURFACE('',#424,3.5);
#30=CYLINDRICAL_SURFACE('',#432,3.5);
#31=CYLINDRICAL_SURFACE('',#434,3.5);
#32=CYLINDRICAL_SURFACE('',#436,5.053);
#33=CYLINDRICAL_SURFACE('',#441,7.5);
#34=CYLINDRICAL_SURFACE('',#442,4.5);
#35=CYLINDRICAL_SURFACE('',#447,7.5);
#36=CYLINDRICAL_SURFACE('',#448,4.5);
#37=CIRCLE('',#407,1.5);
#38=CIRCLE('',#408,3.5);
#39=CIRCLE('',#410,3.5);
#40=CIRCLE('',#411,1.5);
#41=CIRCLE('',#415,1.5);
#42=CIRCLE('',#416,3.5);
#43=CIRCLE('',#418,3.5);
#44=CIRCLE('',#419,1.5);
#45=CIRCLE('',#422,3.5);
#46=CIRCLE('',#425,3.5);
#47=CIRCLE('',#428,7.5);
#48=CIRCLE('',#429,7.5);
#49=CIRCLE('',#430,5.053);
#50=CIRCLE('',#433,3.5);
#51=CIRCLE('',#435,3.5);
#52=CIRCLE('',#437,5.053);
#53=CIRCLE('',#439,7.5);
#54=CIRCLE('',#440,4.5);
#55=CIRCLE('',#443,4.5);
#56=CIRCLE('',#445,7.5);
#57=CIRCLE('',#446,4.5);
#58=CIRCLE('',#449,4.5);
#59=CONICAL_SURFACE('',#406,2.5,45.);
#60=CONICAL_SURFACE('',#409,2.5,45.);
#61=CONICAL_SURFACE('',#414,2.5,45.);
#62=CONICAL_SURFACE('',#417,2.5,45.);
#63=FACE_OUTER_BOUND('',#88,.T.);
#64=FACE_OUTER_BOUND('',#89,.T.);
#65=FACE_OUTER_BOUND('',#90,.T.);
#66=FACE_OUTER_BOUND('',#91,.T.);
#67=FACE_OUTER_BOUND('',#92,.T.);
#68=FACE_OUTER_BOUND('',#93,.T.);
#69=FACE_OUTER_BOUND('',#94,.T.);
#70=FACE_OUTER_BOUND('',#95,.T.);
#71=FACE_OUTER_BOUND('',#96,.T.);
#72=FACE_OUTER_BOUND('',#97,.T.);
#73=FACE_OUTER_BOUND('',#98,.T.);
#74=FACE_OUTER_BOUND('',#99,.T.);
#75=FACE_OUTER_BOUND('',#100,.T.);
#76=FACE_OUTER_BOUND('',#104,.T.);
#77=FACE_OUTER_BOUND('',#105,.T.);
#78=FACE_OUTER_BOUND('',#106,.T.);
#79=FACE_OUTER_BOUND('',#107,.T.);
#80=FACE_OUTER_BOUND('',#109,.T.);
#81=FACE_OUTER_BOUND('',#111,.T.);
#82=FACE_OUTER_BOUND('',#113,.T.);
#83=FACE_OUTER_BOUND('',#115,.T.);
#84=FACE_OUTER_BOUND('',#117,.T.);
#85=FACE_OUTER_BOUND('',#119,.T.);
#86=FACE_OUTER_BOUND('',#121,.T.);
#87=FACE_OUTER_BOUND('',#122,.T.);
#88=EDGE_LOOP('',(#266,#267,#268,#269));
#89=EDGE_LOOP('',(#270,#271,#272,#273));
#90=EDGE_LOOP('',(#274,#275,#276,#277));
#91=EDGE_LOOP('',(#278,#279,#280,#281));
#92=EDGE_LOOP('',(#282,#283,#284,#285));
#93=EDGE_LOOP('',(#286,#287,#288,#289));
#94=EDGE_LOOP('',(#290,#291,#292,#293));
#95=EDGE_LOOP('',(#294,#295,#296,#297));
#96=EDGE_LOOP('',(#298,#299,#300,#301));
#97=EDGE_LOOP('',(#302,#303,#304,#305));
#98=EDGE_LOOP('',(#306,#307,#308,#309));
#99=EDGE_LOOP('',(#310,#311,#312,#313));
#100=EDGE_LOOP('',(#314,#315,#316,#317,#318,#319,#320,#321));
#101=EDGE_LOOP('',(#322));
#102=EDGE_LOOP('',(#323));
#103=EDGE_LOOP('',(#324));
#104=EDGE_LOOP('',(#325,#326,#327,#328));
#105=EDGE_LOOP('',(#329,#330,#331,#332));
#106=EDGE_LOOP('',(#333,#334,#335,#336));
#107=EDGE_LOOP('',(#337));
#108=EDGE_LOOP('',(#338));
#109=EDGE_LOOP('',(#339));
#110=EDGE_LOOP('',(#340));
#111=EDGE_LOOP('',(#341));
#112=EDGE_LOOP('',(#342));
#113=EDGE_LOOP('',(#343));
#114=EDGE_LOOP('',(#344));
#115=EDGE_LOOP('',(#345));
#116=EDGE_LOOP('',(#346));
#117=EDGE_LOOP('',(#347));
#118=EDGE_LOOP('',(#348));
#119=EDGE_LOOP('',(#349));
#120=EDGE_LOOP('',(#350));
#121=EDGE_LOOP('',(#351,#352,#353,#354));
#122=EDGE_LOOP('',(#355,#356,#357,#358,#359,#360,#361,#362));
#123=EDGE_LOOP('',(#363));
#124=EDGE_LOOP('',(#364));
#125=EDGE_LOOP('',(#365));
#126=LINE('',#580,#154);
#127=LINE('',#582,#155);
#128=LINE('',#584,#156);
#129=LINE('',#585,#157);
#130=LINE('',#589,#158);
#131=LINE('',#595,#159);
#132=LINE('',#601,#160);
#133=LINE('',#602,#161);
#134=LINE('',#603,#162);
#135=LINE('',#607,#163);
#136=LINE('',#608,#164);
#137=LINE('',#609,#165);
#138=LINE('',#613,#166);
#139=LINE('',#619,#167);
#140=LINE('',#623,#168);
#141=LINE('',#624,#169);
#142=LINE('',#627,#170);
#143=LINE('',#630,#171);
#144=LINE('',#633,#172);
#145=LINE('',#634,#173);
#146=LINE('',#637,#174);
#147=LINE('',#641,#175);
#148=LINE('',#642,#176);
#149=LINE('',#652,#177);
#150=LINE('',#653,#178);
#151=LINE('',#657,#179);
#152=LINE('',#660,#180);
#153=LINE('',#684,#181);
#154=VECTOR('',#456,2.82842712474619);
#155=VECTOR('',#457,73.);
#156=VECTOR('',#458,2.82842712474619);
#157=VECTOR('',#459,73.);
#158=VECTOR('',#462,2.82842712474619);
#159=VECTOR('',#469,2.82842712474619);
#160=VECTOR('',#476,2.82842712474619);
#161=VECTOR('',#477,33.);
#162=VECTOR('',#478,33.);
#163=VECTOR('',#481,2.82842712474619);
#164=VECTOR('',#482,33.);
#165=VECTOR('',#483,33.);
#166=VECTOR('',#486,2.82842712474619);
#167=VECTOR('',#493,2.82842712474619);
#168=VECTOR('',#500,73.);
#169=VECTOR('',#501,73.);
#170=VECTOR('',#504,13.);
#171=VECTOR('',#507,13.);
#172=VECTOR('',#510,13.);
#173=VECTOR('',#511,33.);
#174=VECTOR('',#514,13.);
#175=VECTOR('',#519,13.);
#176=VECTOR('',#520,73.);
#177=VECTOR('',#531,73.);
#178=VECTOR('',#532,13.);
#179=VECTOR('',#537,13.);
#180=VECTOR('',#540,13.);
#181=VECTOR('',#573,33.);
#182=VERTEX_POINT('',#578);
#183=VERTEX_POINT('',#579);
#184=VERTEX_POINT('',#581);
#185=VERTEX_POINT('',#583);
#186=VERTEX_POINT('',#587);
#187=VERTEX_POINT('',#588);
#188=VERTEX_POINT('',#593);
#189=VERTEX_POINT('',#594);
#190=VERTEX_POINT('',#599);
#191=VERTEX_POINT('',#600);
#192=VERTEX_POINT('',#605);
#193=VERTEX_POINT('',#606);
#194=VERTEX_POINT('',#611);
#195=VERTEX_POINT('',#612);
#196=VERTEX_POINT('',#617);
#197=VERTEX_POINT('',#618);
#198=VERTEX_POINT('',#626);
#199=VERTEX_POINT('',#628);
#200=VERTEX_POINT('',#632);
#201=VERTEX_POINT('',#636);
#202=VERTEX_POINT('',#640);
#203=VERTEX_POINT('',#644);
#204=VERTEX_POINT('',#646);
#205=VERTEX_POINT('',#648);
#206=VERTEX_POINT('',#651);
#207=VERTEX_POINT('',#655);
#208=VERTEX_POINT('',#659);
#209=VERTEX_POINT('',#663);
#210=VERTEX_POINT('',#666);
#211=VERTEX_POINT('',#668);
#212=VERTEX_POINT('',#672);
#213=VERTEX_POINT('',#675);
#214=VERTEX_POINT('',#677);
#215=VERTEX_POINT('',#681);
#216=EDGE_CURVE('',#182,#183,#126,.T.);
#217=EDGE_CURVE('',#183,#184,#127,.T.);
#218=EDGE_CURVE('',#184,#185,#128,.T.);
#219=EDGE_CURVE('',#185,#182,#129,.T.);
#220=EDGE_CURVE('',#186,#187,#130,.T.);
#221=EDGE_CURVE('',#187,#183,#37,.T.);
#222=EDGE_CURVE('',#182,#186,#38,.T.);
#223=EDGE_CURVE('',#188,#189,#131,.T.);
#224=EDGE_CURVE('',#189,#185,#39,.T.);
#225=EDGE_CURVE('',#184,#188,#40,.T.);
#226=EDGE_CURVE('',#190,#191,#132,.T.);
#227=EDGE_CURVE('',#191,#187,#133,.T.);
#228=EDGE_CURVE('',#186,#190,#134,.T.);
#229=EDGE_CURVE('',#192,#193,#135,.T.);
#230=EDGE_CURVE('',#193,#189,#136,.T.);
#231=EDGE_CURVE('',#188,#192,#137,.T.);
#232=EDGE_CURVE('',#194,#195,#138,.T.);
#233=EDGE_CURVE('',#195,#191,#41,.T.);
#234=EDGE_CURVE('',#190,#194,#42,.T.);
#235=EDGE_CURVE('',#196,#197,#139,.T.);
#236=EDGE_CURVE('',#197,#193,#43,.T.);
#237=EDGE_CURVE('',#192,#196,#44,.T.);
#238=EDGE_CURVE('',#194,#197,#140,.T.);
#239=EDGE_CURVE('',#196,#195,#141,.T.);
#240=EDGE_CURVE('',#190,#198,#142,.T.);
#241=EDGE_CURVE('',#198,#199,#45,.T.);
#242=EDGE_CURVE('',#199,#194,#143,.T.);
#243=EDGE_CURVE('',#200,#186,#144,.T.);
#244=EDGE_CURVE('',#198,#200,#145,.T.);
#245=EDGE_CURVE('',#182,#201,#146,.T.);
#246=EDGE_CURVE('',#201,#200,#46,.T.);
#247=EDGE_CURVE('',#202,#185,#147,.T.);
#248=EDGE_CURVE('',#201,#202,#148,.T.);
#249=EDGE_CURVE('',#203,#203,#47,.T.);
#250=EDGE_CURVE('',#204,#204,#48,.T.);
#251=EDGE_CURVE('',#205,#205,#49,.T.);
#252=EDGE_CURVE('',#206,#199,#149,.T.);
#253=EDGE_CURVE('',#197,#206,#150,.T.);
#254=EDGE_CURVE('',#206,#207,#50,.T.);
#255=EDGE_CURVE('',#207,#193,#151,.T.);
#256=EDGE_CURVE('',#189,#208,#152,.T.);
#257=EDGE_CURVE('',#208,#202,#51,.T.);
#258=EDGE_CURVE('',#209,#209,#52,.T.);
#259=EDGE_CURVE('',#210,#210,#53,.T.);
#260=EDGE_CURVE('',#211,#211,#54,.T.);
#261=EDGE_CURVE('',#212,#212,#55,.T.);
#262=EDGE_CURVE('',#213,#213,#56,.T.);
#263=EDGE_CURVE('',#214,#214,#57,.T.);
#264=EDGE_CURVE('',#215,#215,#58,.T.);
#265=EDGE_CURVE('',#208,#207,#153,.T.);
#266=ORIENTED_EDGE('',*,*,#216,.T.);
#267=ORIENTED_EDGE('',*,*,#217,.T.);
#268=ORIENTED_EDGE('',*,*,#218,.T.);
#269=ORIENTED_EDGE('',*,*,#219,.T.);
#270=ORIENTED_EDGE('',*,*,#220,.T.);
#271=ORIENTED_EDGE('',*,*,#221,.T.);
#272=ORIENTED_EDGE('',*,*,#216,.F.);
#273=ORIENTED_EDGE('',*,*,#222,.T.);
#274=ORIENTED_EDGE('',*,*,#223,.T.);
#275=ORIENTED_EDGE('',*,*,#224,.T.);
#276=ORIENTED_EDGE('',*,*,#218,.F.);
#277=ORIENTED_EDGE('',*,*,#225,.T.);
#278=ORIENTED_EDGE('',*,*,#226,.T.);
#279=ORIENTED_EDGE('',*,*,#227,.T.);
#280=ORIENTED_EDGE('',*,*,#220,.F.);
#281=ORIENTED_EDGE('',*,*,#228,.T.);
#282=ORIENTED_EDGE('',*,*,#229,.T.);
#283=ORIENTED_EDGE('',*,*,#230,.T.);
#284=ORIENTED_EDGE('',*,*,#223,.F.);
#285=ORIENTED_EDGE('',*,*,#231,.T.);
#286=ORIENTED_EDGE('',*,*,#232,.T.);
#287=ORIENTED_EDGE('',*,*,#233,.T.);
#288=ORIENTED_EDGE('',*,*,#226,.F.);
#289=ORIENTED_EDGE('',*,*,#234,.T.);
#290=ORIENTED_EDGE('',*,*,#235,.T.);
#291=ORIENTED_EDGE('',*,*,#236,.T.);
#292=ORIENTED_EDGE('',*,*,#229,.F.);
#293=ORIENTED_EDGE('',*,*,#237,.T.);
#294=ORIENTED_EDGE('',*,*,#232,.F.);
#295=ORIENTED_EDGE('',*,*,#238,.T.);
#296=ORIENTED_EDGE('',*,*,#235,.F.);
#297=ORIENTED_EDGE('',*,*,#239,.T.);
#298=ORIENTED_EDGE('',*,*,#234,.F.);
#299=ORIENTED_EDGE('',*,*,#240,.T.);
#300=ORIENTED_EDGE('',*,*,#241,.T.);
#301=ORIENTED_EDGE('',*,*,#242,.T.);
#302=ORIENTED_EDGE('',*,*,#228,.F.);
#303=ORIENTED_EDGE('',*,*,#243,.F.);
#304=ORIENTED_EDGE('',*,*,#244,.F.);
#305=ORIENTED_EDGE('',*,*,#240,.F.);
#306=ORIENTED_EDGE('',*,*,#222,.F.);
#307=ORIENTED_EDGE('',*,*,#245,.T.);
#308=ORIENTED_EDGE('',*,*,#246,.T.);
#309=ORIENTED_EDGE('',*,*,#243,.T.);
#310=ORIENTED_EDGE('',*,*,#219,.F.);
#311=ORIENTED_EDGE('',*,*,#247,.F.);
#312=ORIENTED_EDGE('',*,*,#248,.F.);
#313=ORIENTED_EDGE('',*,*,#245,.F.);
#314=ORIENTED_EDGE('',*,*,#217,.F.);
#315=ORIENTED_EDGE('',*,*,#221,.F.);
#316=ORIENTED_EDGE('',*,*,#227,.F.);
#317=ORIENTED_EDGE('',*,*,#233,.F.);
#318=ORIENTED_EDGE('',*,*,#239,.F.);
#319=ORIENTED_EDGE('',*,*,#237,.F.);
#320=ORIENTED_EDGE('',*,*,#231,.F.);
#321=ORIENTED_EDGE('',*,*,#225,.F.);
#322=ORIENTED_EDGE('',*,*,#249,.T.);
#323=ORIENTED_EDGE('',*,*,#250,.T.);
#324=ORIENTED_EDGE('',*,*,#251,.T.);
#325=ORIENTED_EDGE('',*,*,#238,.F.);
#326=ORIENTED_EDGE('',*,*,#242,.F.);
#327=ORIENTED_EDGE('',*,*,#252,.F.);
#328=ORIENTED_EDGE('',*,*,#253,.F.);
#329=ORIENTED_EDGE('',*,*,#236,.F.);
#330=ORIENTED_EDGE('',*,*,#253,.T.);
#331=ORIENTED_EDGE('',*,*,#254,.T.);
#332=ORIENTED_EDGE('',*,*,#255,.T.);
#333=ORIENTED_EDGE('',*,*,#224,.F.);
#334=ORIENTED_EDGE('',*,*,#256,.T.);
#335=ORIENTED_EDGE('',*,*,#257,.T.);
#336=ORIENTED_EDGE('',*,*,#247,.T.);
#337=ORIENTED_EDGE('',*,*,#258,.F.);
#338=ORIENTED_EDGE('',*,*,#251,.F.);
#339=ORIENTED_EDGE('',*,*,#259,.T.);
#340=ORIENTED_EDGE('',*,*,#260,.F.);
#341=ORIENTED_EDGE('',*,*,#250,.F.);
#342=ORIENTED_EDGE('',*,*,#259,.F.);
#343=ORIENTED_EDGE('',*,*,#261,.F.);
#344=ORIENTED_EDGE('',*,*,#260,.T.);
#345=ORIENTED_EDGE('',*,*,#262,.T.);
#346=ORIENTED_EDGE('',*,*,#263,.F.);
#347=ORIENTED_EDGE('',*,*,#249,.F.);
#348=ORIENTED_EDGE('',*,*,#262,.F.);
#349=ORIENTED_EDGE('',*,*,#264,.F.);
#350=ORIENTED_EDGE('',*,*,#263,.T.);
#351=ORIENTED_EDGE('',*,*,#230,.F.);
#352=ORIENTED_EDGE('',*,*,#255,.F.);
#353=ORIENTED_EDGE('',*,*,#265,.F.);
#354=ORIENTED_EDGE('',*,*,#256,.F.);
#355=ORIENTED_EDGE('',*,*,#241,.F.);
#356=ORIENTED_EDGE('',*,*,#244,.T.);
#357=ORIENTED_EDGE('',*,*,#246,.F.);
#358=ORIENTED_EDGE('',*,*,#248,.T.);
#359=ORIENTED_EDGE('',*,*,#257,.F.);
#360=ORIENTED_EDGE('',*,*,#265,.T.);
#361=ORIENTED_EDGE('',*,*,#254,.F.);
#362=ORIENTED_EDGE('',*,*,#252,.T.);
#363=ORIENTED_EDGE('',*,*,#258,.T.);
#364=ORIENTED_EDGE('',*,*,#261,.T.);
#365=ORIENTED_EDGE('',*,*,#264,.T.);
#366=PLANE('',#405);
#367=PLANE('',#412);
#368=PLANE('',#413);
#369=PLANE('',#420);
#370=PLANE('',#423);
#371=PLANE('',#426);
#372=PLANE('',#427);
#373=PLANE('',#431);
#374=PLANE('',#438);
#375=PLANE('',#444);
#376=PLANE('',#450);
#377=PLANE('',#451);
#378=ADVANCED_FACE('',(#63),#366,.T.);
#379=ADVANCED_FACE('',(#64),#59,.T.);
#380=ADVANCED_FACE('',(#65),#60,.T.);
#381=ADVANCED_FACE('',(#66),#367,.T.);
#382=ADVANCED_FACE('',(#67),#368,.T.);
#383=ADVANCED_FACE('',(#68),#61,.T.);
#384=ADVANCED_FACE('',(#69),#62,.T.);
#385=ADVANCED_FACE('',(#70),#369,.T.);
#386=ADVANCED_FACE('',(#71),#28,.T.);
#387=ADVANCED_FACE('',(#72),#370,.T.);
#388=ADVANCED_FACE('',(#73),#29,.T.);
#389=ADVANCED_FACE('',(#74),#371,.T.);
#390=ADVANCED_FACE('',(#75,#15,#16,#17),#372,.T.);
#391=ADVANCED_FACE('',(#76),#373,.T.);
#392=ADVANCED_FACE('',(#77),#30,.T.);
#393=ADVANCED_FACE('',(#78),#31,.T.);
#394=ADVANCED_FACE('',(#79,#18),#32,.F.);
#395=ADVANCED_FACE('',(#80,#19),#374,.T.);
#396=ADVANCED_FACE('',(#81,#20),#33,.F.);
#397=ADVANCED_FACE('',(#82,#21),#34,.F.);
#398=ADVANCED_FACE('',(#83,#22),#375,.T.);
#399=ADVANCED_FACE('',(#84,#23),#35,.F.);
#400=ADVANCED_FACE('',(#85,#24),#36,.F.);
#401=ADVANCED_FACE('',(#86),#376,.T.);
#402=ADVANCED_FACE('',(#87,#25,#26,#27),#377,.F.);
#403=CLOSED_SHELL('',(#378,#379,#380,#381,#382,#383,#384,#385,#386,#387,
#388,#389,#390,#391,#392,#393,#394,#395,#396,#397,#398,#399,#400,#401,#402));
#404=AXIS2_PLACEMENT_3D('placement',#576,#452,#453);
#405=AXIS2_PLACEMENT_3D('',#577,#454,#455);
#406=AXIS2_PLACEMENT_3D('',#586,#460,#461);
#407=AXIS2_PLACEMENT_3D('',#590,#463,#464);
#408=AXIS2_PLACEMENT_3D('',#591,#465,#466);
#409=AXIS2_PLACEMENT_3D('',#592,#467,#468);
#410=AXIS2_PLACEMENT_3D('',#596,#470,#471);
#411=AXIS2_PLACEMENT_3D('',#597,#472,#473);
#412=AXIS2_PLACEMENT_3D('',#598,#474,#475);
#413=AXIS2_PLACEMENT_3D('',#604,#479,#480);
#414=AXIS2_PLACEMENT_3D('',#610,#484,#485);
#415=AXIS2_PLACEMENT_3D('',#614,#487,#488);
#416=AXIS2_PLACEMENT_3D('',#615,#489,#490);
#417=AXIS2_PLACEMENT_3D('',#616,#491,#492);
#418=AXIS2_PLACEMENT_3D('',#620,#494,#495);
#419=AXIS2_PLACEMENT_3D('',#621,#496,#497);
#420=AXIS2_PLACEMENT_3D('',#622,#498,#499);
#421=AXIS2_PLACEMENT_3D('',#625,#502,#503);
#422=AXIS2_PLACEMENT_3D('',#629,#505,#506);
#423=AXIS2_PLACEMENT_3D('',#631,#508,#509);
#424=AXIS2_PLACEMENT_3D('',#635,#512,#513);
#425=AXIS2_PLACEMENT_3D('',#638,#515,#516);
#426=AXIS2_PLACEMENT_3D('',#639,#517,#518);
#427=AXIS2_PLACEMENT_3D('',#643,#521,#522);
#428=AXIS2_PLACEMENT_3D('',#645,#523,#524);
#429=AXIS2_PLACEMENT_3D('',#647,#525,#526);
#430=AXIS2_PLACEMENT_3D('',#649,#527,#528);
#431=AXIS2_PLACEMENT_3D('',#650,#529,#530);
#432=AXIS2_PLACEMENT_3D('',#654,#533,#534);
#433=AXIS2_PLACEMENT_3D('',#656,#535,#536);
#434=AXIS2_PLACEMENT_3D('',#658,#538,#539);
#435=AXIS2_PLACEMENT_3D('',#661,#541,#542);
#436=AXIS2_PLACEMENT_3D('',#662,#543,#544);
#437=AXIS2_PLACEMENT_3D('',#664,#545,#546);
#438=AXIS2_PLACEMENT_3D('',#665,#547,#548);
#439=AXIS2_PLACEMENT_3D('',#667,#549,#550);
#440=AXIS2_PLACEMENT_3D('',#669,#551,#552);
#441=AXIS2_PLACEMENT_3D('',#670,#553,#554);
#442=AXIS2_PLACEMENT_3D('',#671,#555,#556);
#443=AXIS2_PLACEMENT_3D('',#673,#557,#558);
#444=AXIS2_PLACEMENT_3D('',#674,#559,#560);
#445=AXIS2_PLACEMENT_3D('',#676,#561,#562);
#446=AXIS2_PLACEMENT_3D('',#678,#563,#564);
#447=AXIS2_PLACEMENT_3D('',#679,#565,#566);
#448=AXIS2_PLACEMENT_3D('',#680,#567,#568);
#449=AXIS2_PLACEMENT_3D('',#682,#569,#570);
#450=AXIS2_PLACEMENT_3D('',#683,#571,#572);
#451=AXIS2_PLACEMENT_3D('',#685,#574,#575);
#452=DIRECTION('axis',(0.,0.,1.));
#453=DIRECTION('refdir',(1.,0.,0.));
#454=DIRECTION('center_axis',(1.17756934401283E-16,-0.707106781186547,0.707106781186548));
#455=DIRECTION('ref_axis',(1.,0.,-1.77635683940025E-16));
#456=DIRECTION('',(0.,0.707106781186547,0.707106781186547));
#457=DIRECTION('',(-1.,-1.66533453693773E-16,0.));
#458=DIRECTION('',(0.,-0.707106781186548,-0.707106781186547));
#459=DIRECTION('',(1.,1.66533453693773E-16,0.));
#460=DIRECTION('center_axis',(0.,0.,-1.));
#461=DIRECTION('ref_axis',(0.707106781186548,-0.707106781186547,0.));
#462=DIRECTION('',(-0.707106781186549,0.,0.707106781186546));
#463=DIRECTION('center_axis',(0.,0.,-1.));
#464=DIRECTION('ref_axis',(0.707106781186548,-0.707106781186547,0.));
#465=DIRECTION('center_axis',(0.,0.,1.));
#466=DIRECTION('ref_axis',(0.707106781186548,-0.707106781186547,0.));
#467=DIRECTION('center_axis',(0.,0.,-1.));
#468=DIRECTION('ref_axis',(-0.707106781186547,-0.707106781186548,0.));
#469=DIRECTION('',(-0.707106781186547,0.,-0.707106781186548));
#470=DIRECTION('center_axis',(0.,0.,1.));
#471=DIRECTION('ref_axis',(-0.707106781186547,-0.707106781186548,0.));
#472=DIRECTION('center_axis',(0.,0.,-1.));
#473=DIRECTION('ref_axis',(-0.707106781186547,-0.707106781186548,0.));
#474=DIRECTION('center_axis',(0.707106781186547,0.,0.707106781186548));
#475=DIRECTION('ref_axis',(0.707106781186548,0.,-0.707106781186547));
#476=DIRECTION('',(-0.707106781186548,0.,0.707106781186547));
#477=DIRECTION('',(0.,-1.,0.));
#478=DIRECTION('',(0.,1.,0.));
#479=DIRECTION('center_axis',(-0.707106781186547,0.,0.707106781186548));
#480=DIRECTION('ref_axis',(0.707106781186548,0.,0.707106781186547));
#481=DIRECTION('',(-0.707106781186548,0.,-0.707106781186547));
#482=DIRECTION('',(0.,-1.,0.));
#483=DIRECTION('',(0.,1.,0.));
#484=DIRECTION('center_axis',(0.,0.,-1.));
#485=DIRECTION('ref_axis',(0.707106781186547,0.707106781186548,0.));
#486=DIRECTION('',(0.,-0.707106781186548,0.707106781186547));
#487=DIRECTION('center_axis',(0.,0.,-1.));
#488=DIRECTION('ref_axis',(0.707106781186547,0.707106781186548,0.));
#489=DIRECTION('center_axis',(0.,0.,1.));
#490=DIRECTION('ref_axis',(0.707106781186547,0.707106781186548,0.));
#491=DIRECTION('center_axis',(0.,0.,-1.));
#492=DIRECTION('ref_axis',(-0.707106781186548,0.707106781186547,0.));
#493=DIRECTION('',(0.,0.707106781186548,-0.707106781186547));
#494=DIRECTION('center_axis',(0.,0.,1.));
#495=DIRECTION('ref_axis',(-0.707106781186548,0.707106781186547,0.));
#496=DIRECTION('center_axis',(0.,0.,-1.));
#497=DIRECTION('ref_axis',(-0.707106781186548,0.707106781186547,0.));
#498=DIRECTION('center_axis',(9.8130778667736E-17,0.707106781186548,0.707106781186548));
#499=DIRECTION('ref_axis',(1.,0.,-1.77635683940025E-16));
#500=DIRECTION('',(-1.,1.38777878078145E-16,0.));
#501=DIRECTION('',(1.,-1.38777878078145E-16,0.));
#502=DIRECTION('center_axis',(0.,0.,1.));
#503=DIRECTION('ref_axis',(0.707106781186547,0.707106781186548,0.));
#504=DIRECTION('',(0.,0.,-1.));
#505=DIRECTION('center_axis',(0.,0.,1.));
#506=DIRECTION('ref_axis',(0.707106781186547,0.707106781186548,0.));
#507=DIRECTION('',(0.,0.,1.));
#508=DIRECTION('center_axis',(1.,0.,0.));
#509=DIRECTION('ref_axis',(0.,0.,-1.));
#510=DIRECTION('',(0.,0.,1.));
#511=DIRECTION('',(0.,-1.,0.));
#512=DIRECTION('center_axis',(0.,0.,1.));
#513=DIRECTION('ref_axis',(0.707106781186548,-0.707106781186547,0.));
#514=DIRECTION('',(0.,0.,-1.));
#515=DIRECTION('center_axis',(0.,0.,1.));
#516=DIRECTION('ref_axis',(0.707106781186548,-0.707106781186547,0.));
#517=DIRECTION('center_axis',(1.66533453693773E-16,-1.,0.));
#518=DIRECTION('ref_axis',(0.,0.,-1.));
#519=DIRECTION('',(0.,0.,1.));
#520=DIRECTION('',(-1.,-1.66533453693773E-16,0.));
#521=DIRECTION('center_axis',(0.,0.,1.));
#522=DIRECTION('ref_axis',(1.,0.,0.));
#523=DIRECTION('center_axis',(0.,0.,-1.));
#524=DIRECTION('ref_axis',(1.,0.,0.));
#525=DIRECTION('center_axis',(0.,0.,-1.));
#526=DIRECTION('ref_axis',(1.,0.,0.));
#527=DIRECTION('center_axis',(0.,0.,-1.));
#528=DIRECTION('ref_axis',(1.,0.,0.));
#529=DIRECTION('center_axis',(1.38777878078145E-16,1.,0.));
#530=DIRECTION('ref_axis',(0.,0.,1.));
#531=DIRECTION('',(1.,-1.38777878078145E-16,0.));
#532=DIRECTION('',(0.,0.,-1.));
#533=DIRECTION('center_axis',(0.,0.,1.));
#534=DIRECTION('ref_axis',(-0.707106781186548,0.707106781186547,0.));
#535=DIRECTION('center_axis',(0.,0.,1.));
#536=DIRECTION('ref_axis',(-0.707106781186548,0.707106781186547,0.));
#537=DIRECTION('',(0.,0.,1.));
#538=DIRECTION('center_axis',(0.,0.,1.));
#539=DIRECTION('ref_axis',(-0.707106781186547,-0.707106781186548,0.));
#540=DIRECTION('',(0.,0.,-1.));
#541=DIRECTION('center_axis',(0.,0.,1.));
#542=DIRECTION('ref_axis',(-0.707106781186547,-0.707106781186548,0.));
#543=DIRECTION('center_axis',(0.,0.,1.));
#544=DIRECTION('ref_axis',(1.,0.,0.));
#545=DIRECTION('center_axis',(0.,0.,1.));
#546=DIRECTION('ref_axis',(1.,0.,0.));
#547=DIRECTION('center_axis',(0.,0.,1.));
#548=DIRECTION('ref_axis',(1.,0.,0.));
#549=DIRECTION('center_axis',(0.,0.,1.));
#550=DIRECTION('ref_axis',(1.,0.,0.));
#551=DIRECTION('center_axis',(0.,0.,1.));
#552=DIRECTION('ref_axis',(1.,0.,0.));
#553=DIRECTION('center_axis',(0.,0.,1.));
#554=DIRECTION('ref_axis',(1.,0.,0.));
#555=DIRECTION('center_axis',(0.,0.,1.));
#556=DIRECTION('ref_axis',(1.,0.,0.));
#557=DIRECTION('center_axis',(0.,0.,1.));
#558=DIRECTION('ref_axis',(1.,0.,0.));
#559=DIRECTION('center_axis',(0.,0.,1.));
#560=DIRECTION('ref_axis',(1.,0.,0.));
#561=DIRECTION('center_axis',(0.,0.,1.));
#562=DIRECTION('ref_axis',(1.,0.,0.));
#563=DIRECTION('center_axis',(0.,0.,1.));
#564=DIRECTION('ref_axis',(1.,0.,0.));
#565=DIRECTION('center_axis',(0.,0.,1.));
#566=DIRECTION('ref_axis',(1.,0.,0.));
#567=DIRECTION('center_axis',(0.,0.,1.));
#568=DIRECTION('ref_axis',(1.,0.,0.));
#569=DIRECTION('center_axis',(0.,0.,1.));
#570=DIRECTION('ref_axis',(1.,0.,0.));
#571=DIRECTION('center_axis',(-1.,0.,0.));
#572=DIRECTION('ref_axis',(0.,0.,1.));
#573=DIRECTION('',(0.,1.,0.));
#574=DIRECTION('center_axis',(0.,0.,1.));
#575=DIRECTION('ref_axis',(1.,0.,0.));
#576=CARTESIAN_POINT('',(0.,0.,0.));
#577=CARTESIAN_POINT('Origin',(20.,-19.,14.));
#578=CARTESIAN_POINT('',(36.5,-20.,13.));
#579=CARTESIAN_POINT('',(36.5,-18.,15.));
#580=CARTESIAN_POINT('',(36.5,-20.,13.));
#581=CARTESIAN_POINT('',(-36.5,-18.,15.));
#582=CARTESIAN_POINT('',(20.,-18.,15.));
#583=CARTESIAN_POINT('',(-36.5,-20.,13.));
#584=CARTESIAN_POINT('',(-36.5,-18.,15.));
#585=CARTESIAN_POINT('',(20.,-20.,13.));
#586=CARTESIAN_POINT('Origin',(36.5,-16.5,14.));
#587=CARTESIAN_POINT('',(40.,-16.5,13.));
#588=CARTESIAN_POINT('',(38.,-16.5,15.));
#589=CARTESIAN_POINT('',(40.,-16.5,13.));
#590=CARTESIAN_POINT('Origin',(36.5,-16.5,15.));
#591=CARTESIAN_POINT('Origin',(36.5,-16.5,13.));
#592=CARTESIAN_POINT('Origin',(-36.5,-16.5,14.));
#593=CARTESIAN_POINT('',(-38.,-16.5,15.));
#594=CARTESIAN_POINT('',(-40.,-16.5,13.));
#595=CARTESIAN_POINT('',(-38.,-16.5,15.));
#596=CARTESIAN_POINT('Origin',(-36.5,-16.5,13.));
#597=CARTESIAN_POINT('Origin',(-36.5,-16.5,15.));
#598=CARTESIAN_POINT('Origin',(39.,10.,14.));
#599=CARTESIAN_POINT('',(40.,16.5,13.));
#600=CARTESIAN_POINT('',(38.,16.5,15.));
#601=CARTESIAN_POINT('',(40.,16.5,13.));
#602=CARTESIAN_POINT('',(38.,10.,15.));
#603=CARTESIAN_POINT('',(40.,10.,13.));
#604=CARTESIAN_POINT('Origin',(-39.,-10.,14.));
#605=CARTESIAN_POINT('',(-38.,16.5,15.));
#606=CARTESIAN_POINT('',(-40.,16.5,13.));
#607=CARTESIAN_POINT('',(-38.,16.5,15.));
#608=CARTESIAN_POINT('',(-40.,-10.,13.));
#609=CARTESIAN_POINT('',(-38.,-10.,15.));
#610=CARTESIAN_POINT('Origin',(36.5,16.5,14.));
#611=CARTESIAN_POINT('',(36.5,20.,13.));
#612=CARTESIAN_POINT('',(36.5,18.,15.));
#613=CARTESIAN_POINT('',(36.5,20.,13.));
#614=CARTESIAN_POINT('Origin',(36.5,16.5,15.));
#615=CARTESIAN_POINT('Origin',(36.5,16.5,13.));
#616=CARTESIAN_POINT('Origin',(-36.5,16.5,14.));
#617=CARTESIAN_POINT('',(-36.5,18.,15.));
#618=CARTESIAN_POINT('',(-36.5,20.,13.));
#619=CARTESIAN_POINT('',(-36.5,18.,15.));
#620=CARTESIAN_POINT('Origin',(-36.5,16.5,13.));
#621=CARTESIAN_POINT('Origin',(-36.5,16.5,15.));
#622=CARTESIAN_POINT('Origin',(-20.,19.,14.));
#623=CARTESIAN_POINT('',(-20.,20.,13.));
#624=CARTESIAN_POINT('',(-20.,18.,15.));
#625=CARTESIAN_POINT('Origin',(36.5,16.5,0.));
#626=CARTESIAN_POINT('',(40.,16.5,0.));
#627=CARTESIAN_POINT('',(40.,16.5,0.));
#628=CARTESIAN_POINT('',(36.5,20.,0.));
#629=CARTESIAN_POINT('Origin',(36.5,16.5,0.));
#630=CARTESIAN_POINT('',(36.5,20.,0.));
#631=CARTESIAN_POINT('Origin',(40.,20.,0.));
#632=CARTESIAN_POINT('',(40.,-16.5,0.));
#633=CARTESIAN_POINT('',(40.,-16.5,0.));
#634=CARTESIAN_POINT('',(40.,20.,0.));
#635=CARTESIAN_POINT('Origin',(36.5,-16.5,0.));
#636=CARTESIAN_POINT('',(36.5,-20.,0.));
#637=CARTESIAN_POINT('',(36.5,-20.,0.));
#638=CARTESIAN_POINT('Origin',(36.5,-16.5,0.));
#639=CARTESIAN_POINT('Origin',(40.,-20.,0.));
#640=CARTESIAN_POINT('',(-36.5,-20.,0.));
#641=CARTESIAN_POINT('',(-36.5,-20.,0.));
#642=CARTESIAN_POINT('',(40.,-20.,0.));
#643=CARTESIAN_POINT('Origin',(-4.44089209850063E-15,2.42230478100034E-15,
15.));
#644=CARTESIAN_POINT('',(27.5,0.,15.));
#645=CARTESIAN_POINT('Origin',(20.,0.,15.));
#646=CARTESIAN_POINT('',(-12.5,0.,15.));
#647=CARTESIAN_POINT('Origin',(-20.,0.,15.));
#648=CARTESIAN_POINT('',(5.053,0.,15.));
#649=CARTESIAN_POINT('Origin',(0.,0.,15.));
#650=CARTESIAN_POINT('Origin',(-40.,20.,0.));
#651=CARTESIAN_POINT('',(-36.5,20.,0.));
#652=CARTESIAN_POINT('',(-40.,20.,0.));
#653=CARTESIAN_POINT('',(-36.5,20.,0.));
#654=CARTESIAN_POINT('Origin',(-36.5,16.5,0.));
#655=CARTESIAN_POINT('',(-40.,16.5,0.));
#656=CARTESIAN_POINT('Origin',(-36.5,16.5,0.));
#657=CARTESIAN_POINT('',(-40.,16.5,0.));
#658=CARTESIAN_POINT('Origin',(-36.5,-16.5,0.));
#659=CARTESIAN_POINT('',(-40.,-16.5,0.));
#660=CARTESIAN_POINT('',(-40.,-16.5,0.));
#661=CARTESIAN_POINT('Origin',(-36.5,-16.5,0.));
#662=CARTESIAN_POINT('Origin',(0.,0.,-75.6917857360853));
#663=CARTESIAN_POINT('',(-5.053,-6.18793590586447E-16,0.));
#664=CARTESIAN_POINT('Origin',(0.,0.,0.));
#665=CARTESIAN_POINT('Origin',(-20.,0.,6.));
#666=CARTESIAN_POINT('',(-12.5,0.,6.));
#667=CARTESIAN_POINT('Origin',(-20.,0.,6.));
#668=CARTESIAN_POINT('',(-24.5,-5.5107285922007E-16,6.));
#669=CARTESIAN_POINT('Origin',(-20.,0.,6.));
#670=CARTESIAN_POINT('Origin',(-20.,0.,10.5));
#671=CARTESIAN_POINT('Origin',(-20.,0.,-75.6917857360853));
#672=CARTESIAN_POINT('',(-24.5,-5.5107285922007E-16,0.));
#673=CARTESIAN_POINT('Origin',(-20.,0.,0.));
#674=CARTESIAN_POINT('Origin',(20.,0.,6.));
#675=CARTESIAN_POINT('',(27.5,0.,6.));
#676=CARTESIAN_POINT('Origin',(20.,0.,6.));
#677=CARTESIAN_POINT('',(15.5,-5.5107285922007E-16,6.));
#678=CARTESIAN_POINT('Origin',(20.,0.,6.));
#679=CARTESIAN_POINT('Origin',(20.,0.,10.5));
#680=CARTESIAN_POINT('Origin',(20.,0.,-75.6917857360853));
#681=CARTESIAN_POINT('',(15.5,-5.5107285922007E-16,0.));
#682=CARTESIAN_POINT('Origin',(20.,0.,0.));
#683=CARTESIAN_POINT('Origin',(-40.,-20.,0.));
#684=CARTESIAN_POINT('',(-40.,-20.,0.));
#685=CARTESIAN_POINT('Origin',(-4.44089209850063E-15,2.42230478100034E-15,
0.));
#686=UNCERTAINTY_MEASURE_WITH_UNIT(LENGTH_MEASURE(0.01),#690,
'DISTANCE_ACCURACY_VALUE',
'Maximum model space distance between geometric entities at asserted c
onnectivities');
#687=UNCERTAINTY_MEASURE_WITH_UNIT(LENGTH_MEASURE(1.E-6),#690,
'DISTANCE_ACCURACY_VALUE',
'Maximum model space distance between geometric entities at asserted c
onnectivities');
#688=(
GEOMETRIC_REPRESENTATION_CONTEXT(3)
GLOBAL_UNCERTAINTY_ASSIGNED_CONTEXT((#686))
GLOBAL_UNIT_ASSIGNED_CONTEXT((#690,#693,#691))
REPRESENTATION_CONTEXT('','3D')
);
#689=(
GEOMETRIC_REPRESENTATION_CONTEXT(3)
GLOBAL_UNCERTAINTY_ASSIGNED_CONTEXT((#687))
GLOBAL_UNIT_ASSIGNED_CONTEXT((#690,#693,#691))
REPRESENTATION_CONTEXT('','3D')
);
#690=(
LENGTH_UNIT()
NAMED_UNIT(*)
SI_UNIT(.MILLI.,.METRE.)
);
#691=(
NAMED_UNIT(*)
SI_UNIT($,.STERADIAN.)
SOLID_ANGLE_UNIT()
);
#692=DIMENSIONAL_EXPONENTS(0.,0.,0.,0.,0.,0.,0.);
#693=(
CONVERSION_BASED_UNIT('degree',#695)
NAMED_UNIT(#692)
PLANE_ANGLE_UNIT()
);
#694=(
NAMED_UNIT(*)
PLANE_ANGLE_UNIT()
SI_UNIT($,.RADIAN.)
);
#695=PLANE_ANGLE_MEASURE_WITH_UNIT(PLANE_ANGLE_MEASURE(0.01745329252),#694);
#696=SHAPE_DEFINITION_REPRESENTATION(#697,#698);
#697=PRODUCT_DEFINITION_SHAPE('',$,#700);
#698=SHAPE_REPRESENTATION('',(#404),#688);
#699=PRODUCT_DEFINITION_CONTEXT('part definition',#704,'design');
#700=PRODUCT_DEFINITION('SZ0230V-A','SZ0230V-A',#701,#699);
#701=PRODUCT_DEFINITION_FORMATION('',$,#706);
#702=PRODUCT_RELATED_PRODUCT_CATEGORY('SZ0230V-A','SZ0230V-A',(#706));
#703=APPLICATION_PROTOCOL_DEFINITION('international standard',
'automotive_design',2009,#704);
#704=APPLICATION_CONTEXT(
'Core Data for Automotive Mechanical Design Process');
#705=PRODUCT_CONTEXT('part definition',#704,'mechanical');
#706=PRODUCT('SZ0230V-A','SZ0230V-A',$,(#705));
#707=PRESENTATION_STYLE_ASSIGNMENT((#708));
#708=SURFACE_STYLE_USAGE(.BOTH.,#709);
#709=SURFACE_SIDE_STYLE($,(#710));
#710=SURFACE_STYLE_FILL_AREA(#711);
#711=FILL_AREA_STYLE($,(#712));
#712=FILL_AREA_STYLE_COLOUR($,#713);
#713=COLOUR_RGB('',0.63921568627451,0.63921568627451,0.686274509803922);
ENDSEC;
END-ISO-10303-21;
