ISO-10303-21;
HEADER;
/* Generated by software containing ST-Developer
 * from STEP Tools, Inc. (www.steptools.com) 
 */

FILE_DESCRIPTION(
/* description */ ('Lasche 40x120 St.'),
/* implementation_level */ '2;1');

FILE_NAME(
/* name */ 'Q:\\ExterneArtikel_Webseite_Palkat\\SZ\\SZ0961S_A.stp',
/* time_stamp */ '2015-11-19T16:07:17+01:00',
/* author */ ('Marina Kaa'),
/* organization */ (''),
/* preprocessor_version */ 'ST-DEVELOPER v15.6',
/* originating_system */ 'Autodesk Inventor 2015',
/* authorisation */ '');

FILE_SCHEMA (('AUTOMOTIVE_DESIGN { 1 0 10303 214 3 1 1 }'));
ENDSEC;

DATA;
#10=MECHANICAL_DESIGN_GEOMETRIC_PRESENTATION_REPRESENTATION('',(#13),#473);
#11=SHAPE_REPRESENTATION_RELATIONSHIP('SRR','None',#482,#12);
#12=ADVANCED_BREP_SHAPE_REPRESENTATION($,(#14),#472);
#13=STYLED_ITEM('',(#491),#14);
#14=MANIFOLD_SOLID_BREP('Volumenk\X\F6rper1',#276);
#15=CONICAL_SURFACE('',#297,6.55,45.);
#16=CONICAL_SURFACE('',#301,6.55,45.);
#17=CONICAL_SURFACE('',#305,6.55,45.);
#18=FACE_BOUND('',#55,.T.);
#19=FACE_BOUND('',#56,.T.);
#20=FACE_BOUND('',#57,.T.);
#21=FACE_BOUND('',#64,.T.);
#22=FACE_BOUND('',#66,.T.);
#23=FACE_BOUND('',#68,.T.);
#24=FACE_BOUND('',#70,.T.);
#25=FACE_BOUND('',#72,.T.);
#26=FACE_BOUND('',#74,.T.);
#27=FACE_BOUND('',#77,.T.);
#28=FACE_BOUND('',#78,.T.);
#29=FACE_BOUND('',#79,.T.);
#30=PLANE('',#281);
#31=PLANE('',#282);
#32=PLANE('',#291);
#33=PLANE('',#294);
#34=PLANE('',#309);
#35=PLANE('',#310);
#36=FACE_OUTER_BOUND('',#52,.T.);
#37=FACE_OUTER_BOUND('',#53,.T.);
#38=FACE_OUTER_BOUND('',#54,.T.);
#39=FACE_OUTER_BOUND('',#58,.T.);
#40=FACE_OUTER_BOUND('',#59,.T.);
#41=FACE_OUTER_BOUND('',#60,.T.);
#42=FACE_OUTER_BOUND('',#61,.T.);
#43=FACE_OUTER_BOUND('',#62,.T.);
#44=FACE_OUTER_BOUND('',#63,.T.);
#45=FACE_OUTER_BOUND('',#65,.T.);
#46=FACE_OUTER_BOUND('',#67,.T.);
#47=FACE_OUTER_BOUND('',#69,.T.);
#48=FACE_OUTER_BOUND('',#71,.T.);
#49=FACE_OUTER_BOUND('',#73,.T.);
#50=FACE_OUTER_BOUND('',#75,.T.);
#51=FACE_OUTER_BOUND('',#76,.T.);
#52=EDGE_LOOP('',(#187,#188,#189,#190));
#53=EDGE_LOOP('',(#191,#192,#193,#194));
#54=EDGE_LOOP('',(#195,#196,#197,#198,#199,#200,#201,#202));
#55=EDGE_LOOP('',(#203));
#56=EDGE_LOOP('',(#204));
#57=EDGE_LOOP('',(#205));
#58=EDGE_LOOP('',(#206,#207,#208,#209));
#59=EDGE_LOOP('',(#210,#211,#212,#213));
#60=EDGE_LOOP('',(#214,#215,#216,#217));
#61=EDGE_LOOP('',(#218,#219,#220,#221));
#62=EDGE_LOOP('',(#222,#223,#224,#225));
#63=EDGE_LOOP('',(#226));
#64=EDGE_LOOP('',(#227));
#65=EDGE_LOOP('',(#228));
#66=EDGE_LOOP('',(#229));
#67=EDGE_LOOP('',(#230));
#68=EDGE_LOOP('',(#231));
#69=EDGE_LOOP('',(#232));
#70=EDGE_LOOP('',(#233));
#71=EDGE_LOOP('',(#234));
#72=EDGE_LOOP('',(#235));
#73=EDGE_LOOP('',(#236));
#74=EDGE_LOOP('',(#237));
#75=EDGE_LOOP('',(#238,#239,#240,#241));
#76=EDGE_LOOP('',(#242,#243,#244,#245,#246,#247,#248,#249));
#77=EDGE_LOOP('',(#250));
#78=EDGE_LOOP('',(#251));
#79=EDGE_LOOP('',(#252));
#80=LINE('',#401,#96);
#81=LINE('',#404,#97);
#82=LINE('',#407,#98);
#83=LINE('',#409,#99);
#84=LINE('',#410,#100);
#85=LINE('',#413,#101);
#86=LINE('',#417,#102);
#87=LINE('',#421,#103);
#88=LINE('',#431,#104);
#89=LINE('',#435,#105);
#90=LINE('',#436,#106);
#91=LINE('',#441,#107);
#92=LINE('',#442,#108);
#93=LINE('',#445,#109);
#94=LINE('',#446,#110);
#95=LINE('',#468,#111);
#96=VECTOR('',#317,5.);
#97=VECTOR('',#320,5.);
#98=VECTOR('',#323,33.);
#99=VECTOR('',#324,5.);
#100=VECTOR('',#325,33.);
#101=VECTOR('',#328,113.);
#102=VECTOR('',#331,33.);
#103=VECTOR('',#334,113.);
#104=VECTOR('',#345,5.);
#105=VECTOR('',#350,5.);
#106=VECTOR('',#351,113.);
#107=VECTOR('',#356,5.);
#108=VECTOR('',#357,5.);
#109=VECTOR('',#360,33.);
#110=VECTOR('',#361,5.);
#111=VECTOR('',#392,113.);
#112=CIRCLE('',#279,3.5);
#113=CIRCLE('',#280,3.5);
#114=CIRCLE('',#283,3.5);
#115=CIRCLE('',#284,3.5);
#116=CIRCLE('',#285,3.5);
#117=CIRCLE('',#286,4.5);
#118=CIRCLE('',#287,4.5);
#119=CIRCLE('',#288,4.5);
#120=CIRCLE('',#290,3.5);
#121=CIRCLE('',#293,3.5);
#122=CIRCLE('',#296,3.5);
#123=CIRCLE('',#298,8.6);
#124=CIRCLE('',#299,4.5);
#125=CIRCLE('',#302,8.6);
#126=CIRCLE('',#303,4.5);
#127=CIRCLE('',#306,8.6);
#128=CIRCLE('',#307,4.5);
#129=VERTEX_POINT('',#397);
#130=VERTEX_POINT('',#398);
#131=VERTEX_POINT('',#400);
#132=VERTEX_POINT('',#402);
#133=VERTEX_POINT('',#406);
#134=VERTEX_POINT('',#408);
#135=VERTEX_POINT('',#412);
#136=VERTEX_POINT('',#414);
#137=VERTEX_POINT('',#416);
#138=VERTEX_POINT('',#418);
#139=VERTEX_POINT('',#420);
#140=VERTEX_POINT('',#423);
#141=VERTEX_POINT('',#425);
#142=VERTEX_POINT('',#427);
#143=VERTEX_POINT('',#430);
#144=VERTEX_POINT('',#434);
#145=VERTEX_POINT('',#438);
#146=VERTEX_POINT('',#439);
#147=VERTEX_POINT('',#444);
#148=VERTEX_POINT('',#450);
#149=VERTEX_POINT('',#452);
#150=VERTEX_POINT('',#456);
#151=VERTEX_POINT('',#458);
#152=VERTEX_POINT('',#462);
#153=VERTEX_POINT('',#464);
#154=EDGE_CURVE('',#129,#130,#112,.T.);
#155=EDGE_CURVE('',#130,#131,#80,.T.);
#156=EDGE_CURVE('',#131,#132,#113,.T.);
#157=EDGE_CURVE('',#132,#129,#81,.T.);
#158=EDGE_CURVE('',#130,#133,#82,.T.);
#159=EDGE_CURVE('',#134,#133,#83,.T.);
#160=EDGE_CURVE('',#134,#131,#84,.T.);
#161=EDGE_CURVE('',#135,#129,#85,.T.);
#162=EDGE_CURVE('',#136,#135,#114,.T.);
#163=EDGE_CURVE('',#137,#136,#86,.T.);
#164=EDGE_CURVE('',#138,#137,#115,.T.);
#165=EDGE_CURVE('',#139,#138,#87,.T.);
#166=EDGE_CURVE('',#133,#139,#116,.T.);
#167=EDGE_CURVE('',#140,#140,#117,.T.);
#168=EDGE_CURVE('',#141,#141,#118,.T.);
#169=EDGE_CURVE('',#142,#142,#119,.T.);
#170=EDGE_CURVE('',#139,#143,#88,.T.);
#171=EDGE_CURVE('',#143,#134,#120,.T.);
#172=EDGE_CURVE('',#144,#138,#89,.T.);
#173=EDGE_CURVE('',#144,#143,#90,.T.);
#174=EDGE_CURVE('',#145,#146,#121,.T.);
#175=EDGE_CURVE('',#146,#136,#91,.T.);
#176=EDGE_CURVE('',#135,#145,#92,.T.);
#177=EDGE_CURVE('',#146,#147,#93,.T.);
#178=EDGE_CURVE('',#137,#147,#94,.T.);
#179=EDGE_CURVE('',#147,#144,#122,.T.);
#180=EDGE_CURVE('',#148,#148,#123,.T.);
#181=EDGE_CURVE('',#149,#149,#124,.T.);
#182=EDGE_CURVE('',#150,#150,#125,.T.);
#183=EDGE_CURVE('',#151,#151,#126,.T.);
#184=EDGE_CURVE('',#152,#152,#127,.T.);
#185=EDGE_CURVE('',#153,#153,#128,.T.);
#186=EDGE_CURVE('',#132,#145,#95,.T.);
#187=ORIENTED_EDGE('',*,*,#154,.T.);
#188=ORIENTED_EDGE('',*,*,#155,.T.);
#189=ORIENTED_EDGE('',*,*,#156,.T.);
#190=ORIENTED_EDGE('',*,*,#157,.T.);
#191=ORIENTED_EDGE('',*,*,#155,.F.);
#192=ORIENTED_EDGE('',*,*,#158,.T.);
#193=ORIENTED_EDGE('',*,*,#159,.F.);
#194=ORIENTED_EDGE('',*,*,#160,.T.);
#195=ORIENTED_EDGE('',*,*,#154,.F.);
#196=ORIENTED_EDGE('',*,*,#161,.F.);
#197=ORIENTED_EDGE('',*,*,#162,.F.);
#198=ORIENTED_EDGE('',*,*,#163,.F.);
#199=ORIENTED_EDGE('',*,*,#164,.F.);
#200=ORIENTED_EDGE('',*,*,#165,.F.);
#201=ORIENTED_EDGE('',*,*,#166,.F.);
#202=ORIENTED_EDGE('',*,*,#158,.F.);
#203=ORIENTED_EDGE('',*,*,#167,.T.);
#204=ORIENTED_EDGE('',*,*,#168,.T.);
#205=ORIENTED_EDGE('',*,*,#169,.T.);
#206=ORIENTED_EDGE('',*,*,#166,.T.);
#207=ORIENTED_EDGE('',*,*,#170,.T.);
#208=ORIENTED_EDGE('',*,*,#171,.T.);
#209=ORIENTED_EDGE('',*,*,#159,.T.);
#210=ORIENTED_EDGE('',*,*,#170,.F.);
#211=ORIENTED_EDGE('',*,*,#165,.T.);
#212=ORIENTED_EDGE('',*,*,#172,.F.);
#213=ORIENTED_EDGE('',*,*,#173,.T.);
#214=ORIENTED_EDGE('',*,*,#174,.T.);
#215=ORIENTED_EDGE('',*,*,#175,.T.);
#216=ORIENTED_EDGE('',*,*,#162,.T.);
#217=ORIENTED_EDGE('',*,*,#176,.T.);
#218=ORIENTED_EDGE('',*,*,#175,.F.);
#219=ORIENTED_EDGE('',*,*,#177,.T.);
#220=ORIENTED_EDGE('',*,*,#178,.F.);
#221=ORIENTED_EDGE('',*,*,#163,.T.);
#222=ORIENTED_EDGE('',*,*,#164,.T.);
#223=ORIENTED_EDGE('',*,*,#178,.T.);
#224=ORIENTED_EDGE('',*,*,#179,.T.);
#225=ORIENTED_EDGE('',*,*,#172,.T.);
#226=ORIENTED_EDGE('',*,*,#180,.F.);
#227=ORIENTED_EDGE('',*,*,#181,.F.);
#228=ORIENTED_EDGE('',*,*,#167,.F.);
#229=ORIENTED_EDGE('',*,*,#181,.T.);
#230=ORIENTED_EDGE('',*,*,#182,.F.);
#231=ORIENTED_EDGE('',*,*,#183,.F.);
#232=ORIENTED_EDGE('',*,*,#168,.F.);
#233=ORIENTED_EDGE('',*,*,#183,.T.);
#234=ORIENTED_EDGE('',*,*,#184,.F.);
#235=ORIENTED_EDGE('',*,*,#185,.F.);
#236=ORIENTED_EDGE('',*,*,#169,.F.);
#237=ORIENTED_EDGE('',*,*,#185,.T.);
#238=ORIENTED_EDGE('',*,*,#157,.F.);
#239=ORIENTED_EDGE('',*,*,#186,.T.);
#240=ORIENTED_EDGE('',*,*,#176,.F.);
#241=ORIENTED_EDGE('',*,*,#161,.T.);
#242=ORIENTED_EDGE('',*,*,#156,.F.);
#243=ORIENTED_EDGE('',*,*,#160,.F.);
#244=ORIENTED_EDGE('',*,*,#171,.F.);
#245=ORIENTED_EDGE('',*,*,#173,.F.);
#246=ORIENTED_EDGE('',*,*,#179,.F.);
#247=ORIENTED_EDGE('',*,*,#177,.F.);
#248=ORIENTED_EDGE('',*,*,#174,.F.);
#249=ORIENTED_EDGE('',*,*,#186,.F.);
#250=ORIENTED_EDGE('',*,*,#180,.T.);
#251=ORIENTED_EDGE('',*,*,#182,.T.);
#252=ORIENTED_EDGE('',*,*,#184,.T.);
#253=CYLINDRICAL_SURFACE('',#278,3.5);
#254=CYLINDRICAL_SURFACE('',#289,3.5);
#255=CYLINDRICAL_SURFACE('',#292,3.5);
#256=CYLINDRICAL_SURFACE('',#295,3.5);
#257=CYLINDRICAL_SURFACE('',#300,4.5);
#258=CYLINDRICAL_SURFACE('',#304,4.5);
#259=CYLINDRICAL_SURFACE('',#308,4.5);
#260=ADVANCED_FACE('',(#36),#253,.T.);
#261=ADVANCED_FACE('',(#37),#30,.T.);
#262=ADVANCED_FACE('',(#38,#18,#19,#20),#31,.F.);
#263=ADVANCED_FACE('',(#39),#254,.T.);
#264=ADVANCED_FACE('',(#40),#32,.T.);
#265=ADVANCED_FACE('',(#41),#255,.T.);
#266=ADVANCED_FACE('',(#42),#33,.T.);
#267=ADVANCED_FACE('',(#43),#256,.T.);
#268=ADVANCED_FACE('',(#44,#21),#15,.F.);
#269=ADVANCED_FACE('',(#45,#22),#257,.F.);
#270=ADVANCED_FACE('',(#46,#23),#16,.F.);
#271=ADVANCED_FACE('',(#47,#24),#258,.F.);
#272=ADVANCED_FACE('',(#48,#25),#17,.F.);
#273=ADVANCED_FACE('',(#49,#26),#259,.F.);
#274=ADVANCED_FACE('',(#50),#34,.T.);
#275=ADVANCED_FACE('',(#51,#27,#28,#29),#35,.T.);
#276=CLOSED_SHELL('',(#260,#261,#262,#263,#264,#265,#266,#267,#268,#269,
#270,#271,#272,#273,#274,#275));
#277=AXIS2_PLACEMENT_3D('placement',#395,#311,#312);
#278=AXIS2_PLACEMENT_3D('',#396,#313,#314);
#279=AXIS2_PLACEMENT_3D('',#399,#315,#316);
#280=AXIS2_PLACEMENT_3D('',#403,#318,#319);
#281=AXIS2_PLACEMENT_3D('',#405,#321,#322);
#282=AXIS2_PLACEMENT_3D('',#411,#326,#327);
#283=AXIS2_PLACEMENT_3D('',#415,#329,#330);
#284=AXIS2_PLACEMENT_3D('',#419,#332,#333);
#285=AXIS2_PLACEMENT_3D('',#422,#335,#336);
#286=AXIS2_PLACEMENT_3D('',#424,#337,#338);
#287=AXIS2_PLACEMENT_3D('',#426,#339,#340);
#288=AXIS2_PLACEMENT_3D('',#428,#341,#342);
#289=AXIS2_PLACEMENT_3D('',#429,#343,#344);
#290=AXIS2_PLACEMENT_3D('',#432,#346,#347);
#291=AXIS2_PLACEMENT_3D('',#433,#348,#349);
#292=AXIS2_PLACEMENT_3D('',#437,#352,#353);
#293=AXIS2_PLACEMENT_3D('',#440,#354,#355);
#294=AXIS2_PLACEMENT_3D('',#443,#358,#359);
#295=AXIS2_PLACEMENT_3D('',#447,#362,#363);
#296=AXIS2_PLACEMENT_3D('',#448,#364,#365);
#297=AXIS2_PLACEMENT_3D('',#449,#366,#367);
#298=AXIS2_PLACEMENT_3D('',#451,#368,#369);
#299=AXIS2_PLACEMENT_3D('',#453,#370,#371);
#300=AXIS2_PLACEMENT_3D('',#454,#372,#373);
#301=AXIS2_PLACEMENT_3D('',#455,#374,#375);
#302=AXIS2_PLACEMENT_3D('',#457,#376,#377);
#303=AXIS2_PLACEMENT_3D('',#459,#378,#379);
#304=AXIS2_PLACEMENT_3D('',#460,#380,#381);
#305=AXIS2_PLACEMENT_3D('',#461,#382,#383);
#306=AXIS2_PLACEMENT_3D('',#463,#384,#385);
#307=AXIS2_PLACEMENT_3D('',#465,#386,#387);
#308=AXIS2_PLACEMENT_3D('',#466,#388,#389);
#309=AXIS2_PLACEMENT_3D('',#467,#390,#391);
#310=AXIS2_PLACEMENT_3D('',#469,#393,#394);
#311=DIRECTION('axis',(0.,0.,1.));
#312=DIRECTION('refdir',(1.,0.,0.));
#313=DIRECTION('center_axis',(0.,0.,-1.));
#314=DIRECTION('ref_axis',(0.707106781186548,0.707106781186547,0.));
#315=DIRECTION('center_axis',(0.,0.,1.));
#316=DIRECTION('ref_axis',(0.707106781186548,0.707106781186547,0.));
#317=DIRECTION('',(0.,0.,1.));
#318=DIRECTION('center_axis',(0.,0.,-1.));
#319=DIRECTION('ref_axis',(0.707106781186548,0.707106781186547,0.));
#320=DIRECTION('',(0.,0.,-1.));
#321=DIRECTION('center_axis',(2.22044604925031E-16,1.,0.));
#322=DIRECTION('ref_axis',(0.,0.,1.));
#323=DIRECTION('',(-1.,2.22044604925031E-16,0.));
#324=DIRECTION('',(0.,0.,-1.));
#325=DIRECTION('',(1.,-2.22044604925031E-16,0.));
#326=DIRECTION('center_axis',(0.,0.,1.));
#327=DIRECTION('ref_axis',(1.,0.,0.));
#328=DIRECTION('',(0.,1.,0.));
#329=DIRECTION('center_axis',(0.,0.,1.));
#330=DIRECTION('ref_axis',(0.707106781186548,-0.707106781186547,0.));
#331=DIRECTION('',(1.,2.22044604925031E-16,0.));
#332=DIRECTION('center_axis',(0.,0.,1.));
#333=DIRECTION('ref_axis',(-0.707106781186548,-0.707106781186547,0.));
#334=DIRECTION('',(0.,-1.,0.));
#335=DIRECTION('center_axis',(0.,0.,1.));
#336=DIRECTION('ref_axis',(-0.707106781186548,0.707106781186547,0.));
#337=DIRECTION('center_axis',(0.,0.,1.));
#338=DIRECTION('ref_axis',(1.,0.,0.));
#339=DIRECTION('center_axis',(0.,0.,1.));
#340=DIRECTION('ref_axis',(1.,0.,0.));
#341=DIRECTION('center_axis',(0.,0.,1.));
#342=DIRECTION('ref_axis',(1.,0.,0.));
#343=DIRECTION('center_axis',(0.,0.,-1.));
#344=DIRECTION('ref_axis',(-0.707106781186548,0.707106781186547,0.));
#345=DIRECTION('',(0.,0.,1.));
#346=DIRECTION('center_axis',(0.,0.,-1.));
#347=DIRECTION('ref_axis',(-0.707106781186548,0.707106781186547,0.));
#348=DIRECTION('center_axis',(-1.,0.,0.));
#349=DIRECTION('ref_axis',(0.,0.,1.));
#350=DIRECTION('',(0.,0.,-1.));
#351=DIRECTION('',(0.,1.,0.));
#352=DIRECTION('center_axis',(0.,0.,1.));
#353=DIRECTION('ref_axis',(0.707106781186548,-0.707106781186547,0.));
#354=DIRECTION('center_axis',(0.,0.,-1.));
#355=DIRECTION('ref_axis',(0.707106781186548,-0.707106781186547,0.));
#356=DIRECTION('',(0.,0.,-1.));
#357=DIRECTION('',(0.,0.,1.));
#358=DIRECTION('center_axis',(2.22044604925031E-16,-1.,0.));
#359=DIRECTION('ref_axis',(0.,0.,-1.));
#360=DIRECTION('',(-1.,-2.22044604925031E-16,0.));
#361=DIRECTION('',(0.,0.,1.));
#362=DIRECTION('center_axis',(0.,0.,-1.));
#363=DIRECTION('ref_axis',(-0.707106781186548,-0.707106781186547,0.));
#364=DIRECTION('center_axis',(0.,0.,-1.));
#365=DIRECTION('ref_axis',(-0.707106781186548,-0.707106781186547,0.));
#366=DIRECTION('center_axis',(0.,0.,1.));
#367=DIRECTION('ref_axis',(1.,0.,0.));
#368=DIRECTION('center_axis',(0.,0.,-1.));
#369=DIRECTION('ref_axis',(1.,0.,0.));
#370=DIRECTION('center_axis',(0.,0.,1.));
#371=DIRECTION('ref_axis',(1.,0.,0.));
#372=DIRECTION('center_axis',(0.,0.,1.));
#373=DIRECTION('ref_axis',(1.,0.,0.));
#374=DIRECTION('center_axis',(0.,0.,1.));
#375=DIRECTION('ref_axis',(1.,0.,0.));
#376=DIRECTION('center_axis',(0.,0.,-1.));
#377=DIRECTION('ref_axis',(1.,0.,0.));
#378=DIRECTION('center_axis',(0.,0.,1.));
#379=DIRECTION('ref_axis',(1.,0.,0.));
#380=DIRECTION('center_axis',(0.,0.,1.));
#381=DIRECTION('ref_axis',(1.,0.,0.));
#382=DIRECTION('center_axis',(0.,0.,1.));
#383=DIRECTION('ref_axis',(1.,0.,0.));
#384=DIRECTION('center_axis',(0.,0.,-1.));
#385=DIRECTION('ref_axis',(1.,0.,0.));
#386=DIRECTION('center_axis',(0.,0.,1.));
#387=DIRECTION('ref_axis',(1.,0.,0.));
#388=DIRECTION('center_axis',(0.,0.,1.));
#389=DIRECTION('ref_axis',(1.,0.,0.));
#390=DIRECTION('center_axis',(1.,0.,0.));
#391=DIRECTION('ref_axis',(0.,0.,-1.));
#392=DIRECTION('',(0.,-1.,0.));
#393=DIRECTION('center_axis',(0.,0.,1.));
#394=DIRECTION('ref_axis',(1.,0.,0.));
#395=CARTESIAN_POINT('',(0.,0.,0.));
#396=CARTESIAN_POINT('Origin',(16.5,56.5,0.));
#397=CARTESIAN_POINT('',(20.,56.5,-2.5));
#398=CARTESIAN_POINT('',(16.5,60.,-2.5));
#399=CARTESIAN_POINT('Origin',(16.5,56.5,-2.5));
#400=CARTESIAN_POINT('',(16.5,60.,2.5));
#401=CARTESIAN_POINT('',(16.5,60.,0.));
#402=CARTESIAN_POINT('',(20.,56.5,2.5));
#403=CARTESIAN_POINT('Origin',(16.5,56.5,2.5));
#404=CARTESIAN_POINT('',(20.,56.5,0.));
#405=CARTESIAN_POINT('Origin',(-20.,60.,0.));
#406=CARTESIAN_POINT('',(-16.5,60.,-2.5));
#407=CARTESIAN_POINT('',(-20.,60.,-2.5));
#408=CARTESIAN_POINT('',(-16.5,60.,2.5));
#409=CARTESIAN_POINT('',(-16.5,60.,0.));
#410=CARTESIAN_POINT('',(-20.,60.,2.5));
#411=CARTESIAN_POINT('Origin',(5.55111512312578E-15,1.00929365875014E-16,
-2.5));
#412=CARTESIAN_POINT('',(20.,-56.5,-2.5));
#413=CARTESIAN_POINT('',(20.,60.,-2.5));
#414=CARTESIAN_POINT('',(16.5,-60.,-2.5));
#415=CARTESIAN_POINT('Origin',(16.5,-56.5,-2.5));
#416=CARTESIAN_POINT('',(-16.5,-60.,-2.5));
#417=CARTESIAN_POINT('',(20.,-60.,-2.5));
#418=CARTESIAN_POINT('',(-20.,-56.5,-2.5));
#419=CARTESIAN_POINT('Origin',(-16.5,-56.5,-2.5));
#420=CARTESIAN_POINT('',(-20.,56.5,-2.5));
#421=CARTESIAN_POINT('',(-20.,-60.,-2.5));
#422=CARTESIAN_POINT('Origin',(-16.5,56.5,-2.5));
#423=CARTESIAN_POINT('',(-4.5,40.,-2.5));
#424=CARTESIAN_POINT('Origin',(0.,40.,-2.5));
#425=CARTESIAN_POINT('',(-4.5,-40.,-2.5));
#426=CARTESIAN_POINT('Origin',(0.,-40.,-2.5));
#427=CARTESIAN_POINT('',(-4.5,-5.51091059616309E-16,-2.5));
#428=CARTESIAN_POINT('Origin',(0.,0.,-2.5));
#429=CARTESIAN_POINT('Origin',(-16.5,56.5,0.));
#430=CARTESIAN_POINT('',(-20.,56.5,2.5));
#431=CARTESIAN_POINT('',(-20.,56.5,0.));
#432=CARTESIAN_POINT('Origin',(-16.5,56.5,2.5));
#433=CARTESIAN_POINT('Origin',(-20.,-60.,0.));
#434=CARTESIAN_POINT('',(-20.,-56.5,2.5));
#435=CARTESIAN_POINT('',(-20.,-56.5,0.));
#436=CARTESIAN_POINT('',(-20.,-60.,2.5));
#437=CARTESIAN_POINT('Origin',(16.5,-56.5,0.));
#438=CARTESIAN_POINT('',(20.,-56.5,2.5));
#439=CARTESIAN_POINT('',(16.5,-60.,2.5));
#440=CARTESIAN_POINT('Origin',(16.5,-56.5,2.5));
#441=CARTESIAN_POINT('',(16.5,-60.,0.));
#442=CARTESIAN_POINT('',(20.,-56.5,0.));
#443=CARTESIAN_POINT('Origin',(20.,-60.,0.));
#444=CARTESIAN_POINT('',(-16.5,-60.,2.5));
#445=CARTESIAN_POINT('',(20.,-60.,2.5));
#446=CARTESIAN_POINT('',(-16.5,-60.,0.));
#447=CARTESIAN_POINT('Origin',(-16.5,-56.5,0.));
#448=CARTESIAN_POINT('Origin',(-16.5,-56.5,2.5));
#449=CARTESIAN_POINT('Origin',(0.,40.,0.45));
#450=CARTESIAN_POINT('',(8.6,40.,2.5));
#451=CARTESIAN_POINT('Origin',(0.,40.,2.5));
#452=CARTESIAN_POINT('',(4.5,40.,-1.6));
#453=CARTESIAN_POINT('Origin',(0.,40.,-1.59999999999998));
#454=CARTESIAN_POINT('Origin',(0.,40.,-124.089889011722));
#455=CARTESIAN_POINT('Origin',(0.,-40.,0.45));
#456=CARTESIAN_POINT('',(8.6,-40.,2.5));
#457=CARTESIAN_POINT('Origin',(0.,-40.,2.5));
#458=CARTESIAN_POINT('',(4.5,-40.,-1.6));
#459=CARTESIAN_POINT('Origin',(0.,-40.,-1.59999999999998));
#460=CARTESIAN_POINT('Origin',(0.,-40.,-124.089889011722));
#461=CARTESIAN_POINT('Origin',(0.,0.,0.45));
#462=CARTESIAN_POINT('',(8.6,0.,2.5));
#463=CARTESIAN_POINT('Origin',(0.,0.,2.5));
#464=CARTESIAN_POINT('',(4.5,0.,-1.6));
#465=CARTESIAN_POINT('Origin',(0.,0.,-1.59999999999998));
#466=CARTESIAN_POINT('Origin',(0.,0.,-124.089889011722));
#467=CARTESIAN_POINT('Origin',(20.,60.,0.));
#468=CARTESIAN_POINT('',(20.,60.,2.5));
#469=CARTESIAN_POINT('Origin',(5.55111512312578E-15,5.04646829375071E-16,
2.5));
#470=UNCERTAINTY_MEASURE_WITH_UNIT(LENGTH_MEASURE(0.01),#474,
'DISTANCE_ACCURACY_VALUE',
'Maximum model space distance between geometric entities at asserted c
onnectivities');
#471=UNCERTAINTY_MEASURE_WITH_UNIT(LENGTH_MEASURE(1.E-6),#474,
'DISTANCE_ACCURACY_VALUE',
'Maximum model space distance between geometric entities at asserted c
onnectivities');
#472=(
GEOMETRIC_REPRESENTATION_CONTEXT(3)
GLOBAL_UNCERTAINTY_ASSIGNED_CONTEXT((#470))
GLOBAL_UNIT_ASSIGNED_CONTEXT((#474,#477,#475))
REPRESENTATION_CONTEXT('','3D')
);
#473=(
GEOMETRIC_REPRESENTATION_CONTEXT(3)
GLOBAL_UNCERTAINTY_ASSIGNED_CONTEXT((#471))
GLOBAL_UNIT_ASSIGNED_CONTEXT((#474,#477,#475))
REPRESENTATION_CONTEXT('','3D')
);
#474=(
LENGTH_UNIT()
NAMED_UNIT(*)
SI_UNIT(.MILLI.,.METRE.)
);
#475=(
NAMED_UNIT(*)
SI_UNIT($,.STERADIAN.)
SOLID_ANGLE_UNIT()
);
#476=DIMENSIONAL_EXPONENTS(0.,0.,0.,0.,0.,0.,0.);
#477=(
CONVERSION_BASED_UNIT('degree',#479)
NAMED_UNIT(#476)
PLANE_ANGLE_UNIT()
);
#478=(
NAMED_UNIT(*)
PLANE_ANGLE_UNIT()
SI_UNIT($,.RADIAN.)
);
#479=PLANE_ANGLE_MEASURE_WITH_UNIT(PLANE_ANGLE_MEASURE(0.01745329252),#478);
#480=SHAPE_DEFINITION_REPRESENTATION(#481,#482);
#481=PRODUCT_DEFINITION_SHAPE('',$,#484);
#482=SHAPE_REPRESENTATION('',(#277),#472);
#483=PRODUCT_DEFINITION_CONTEXT('part definition',#488,'design');
#484=PRODUCT_DEFINITION('SZ0961S_A','SZ0961S_A',#485,#483);
#485=PRODUCT_DEFINITION_FORMATION('',$,#490);
#486=PRODUCT_RELATED_PRODUCT_CATEGORY('SZ0961S_A','SZ0961S_A',(#490));
#487=APPLICATION_PROTOCOL_DEFINITION('international standard',
'automotive_design',2009,#488);
#488=APPLICATION_CONTEXT(
'Core Data for Automotive Mechanical Design Process');
#489=PRODUCT_CONTEXT('part definition',#488,'mechanical');
#490=PRODUCT('SZ0961S_A','SZ0961S_A',$,(#489));
#491=PRESENTATION_STYLE_ASSIGNMENT((#492));
#492=SURFACE_STYLE_USAGE(.BOTH.,#493);
#493=SURFACE_SIDE_STYLE($,(#494));
#494=SURFACE_STYLE_FILL_AREA(#495);
#495=FILL_AREA_STYLE($,(#496));
#496=FILL_AREA_STYLE_COLOUR($,#497);
#497=COLOUR_RGB('',0.32156862745098,0.32156862745098,0.32156862745098);
ENDSEC;
END-ISO-10303-21;
