ISO-10303-21;
HEADER;
/****************************************************************
 * Generated by software with PDE/Lib inside                    *
 * PDElib Version v51a, created Tue 12/06/2005                  *
 * International Technegroup Inc. (www.iti-oh.com)              *
 ****************************************************************/
FILE_DESCRIPTION((''),'2;1');
FILE_NAME('U:\\Paletti Norm\\Paletti Artikel f. Palkat\\STEP\\SP990_extern.ipt.step','2007-09-10T15:13:04',(''),(''),'Autodesk Inventor 11','Autodesk Inventor 11','');
FILE_SCHEMA(('AUTOMOTIVE_DESIGN { 1 0 10303 214 1 1 1 1 }'));
ENDSEC;
DATA;
#5=APPLICATION_CONTEXT('automotive design');
#6=APPLICATION_PROTOCOL_DEFINITION('International Standard','automotive_design',2001,#5);
#7=PRODUCT_CONTEXT('',#5,'mechanical');
#8=PRODUCT('SP990_extern','SP990_extern',$,(#7));
#9=PRODUCT_RELATED_PRODUCT_CATEGORY('part',$,(#8));
#10=PRODUCT_DEFINITION_FORMATION('',$,#8);
#11=PRODUCT_DEFINITION_CONTEXT('part definition',#5,'design');
#12=PRODUCT_DEFINITION('',$,#10,#11);
#18=(NAMED_UNIT(*)PLANE_ANGLE_UNIT()SI_UNIT($,.RADIAN.));
#19=DIMENSIONAL_EXPONENTS(0.0,0.0,0.0,0.0,0.0,0.0,0.0);
#20=PLANE_ANGLE_MEASURE_WITH_UNIT(PLANE_ANGLE_MEASURE(0.017453292500000),#18);
#24=(CONVERSION_BASED_UNIT('DEGREE',#20)NAMED_UNIT(#19)PLANE_ANGLE_UNIT());
#28=(NAMED_UNIT(*)SI_UNIT($,.STERADIAN.)SOLID_ANGLE_UNIT());
#32=(LENGTH_UNIT()NAMED_UNIT(*)SI_UNIT(.MILLI.,.METRE.));
#34=UNCERTAINTY_MEASURE_WITH_UNIT(LENGTH_MEASURE(0.010000000000000),#32,'DISTANCE_ACCURACY_VALUE','');
#36=(GEOMETRIC_REPRESENTATION_CONTEXT(3)GLOBAL_UNCERTAINTY_ASSIGNED_CONTEXT((#34))GLOBAL_UNIT_ASSIGNED_CONTEXT((#24,#28,#32))REPRESENTATION_CONTEXT('None','None'));
#37=AXIS2_PLACEMENT_3D('',#38,#39,#40);
#38=CARTESIAN_POINT('',(0.0,0.0,0.0));
#39=DIRECTION('',(0.0,0.0,1.0));
#40=DIRECTION('',(1.0,0.0,0.0));
#41=SHAPE_REPRESENTATION('',(#37),#36);
#42=PRODUCT_DEFINITION_SHAPE('','',#12);
#43=SHAPE_DEFINITION_REPRESENTATION(#42,#41);
#44=CARTESIAN_POINT('',(-44.174101566042275,67.551962807368852,-0.500000000000000));
#45=DIRECTION('',(0.0,0.0,1.0));
#46=DIRECTION('',(1.0,0.0,0.0));
#47=AXIS2_PLACEMENT_3D('',#44,#45,#46);
#48=PLANE('',#47);
#49=CARTESIAN_POINT('',(-40.350000000000023,160.0,-0.500000000000000));
#50=VERTEX_POINT('',#49);
#51=CARTESIAN_POINT('',(-60.0,160.0,-0.500000000000000));
#52=VERTEX_POINT('',#51);
#53=CARTESIAN_POINT('',(-40.350000000000023,160.0,-0.500000000000000));
#54=DIRECTION('',(-1.0,0.0,0.0));
#55=VECTOR('',#54,19.649999999999977);
#56=LINE('',#53,#55);
#57=EDGE_CURVE('',#50,#52,#56,.T.);
#58=ORIENTED_EDGE('',*,*,#57,.F.);
#59=CARTESIAN_POINT('',(-40.350000000000001,19.999999999999993,-0.500000000000000));
#60=VERTEX_POINT('',#59);
#61=CARTESIAN_POINT('',(-40.350000000000001,19.999999999999993,-0.500000000000000));
#62=DIRECTION('',(0.0,1.0,0.0));
#63=VECTOR('',#62,140.0);
#64=LINE('',#61,#63);
#65=EDGE_CURVE('',#60,#50,#64,.T.);
#66=ORIENTED_EDGE('',*,*,#65,.F.);
#67=CARTESIAN_POINT('',(40.350000000000001,19.999999999999993,-0.500000000000000));
#68=VERTEX_POINT('',#67);
#69=CARTESIAN_POINT('',(40.350000000000001,19.999999999999993,-0.500000000000000));
#70=DIRECTION('',(-1.0,0.0,0.0));
#71=VECTOR('',#70,80.700000000000003);
#72=LINE('',#69,#71);
#73=EDGE_CURVE('',#68,#60,#72,.T.);
#74=ORIENTED_EDGE('',*,*,#73,.F.);
#75=CARTESIAN_POINT('',(40.350000000000023,160.0,-0.500000000000000));
#76=VERTEX_POINT('',#75);
#77=CARTESIAN_POINT('',(40.350000000000023,160.0,-0.500000000000000));
#78=DIRECTION('',(0.0,-1.0,0.0));
#79=VECTOR('',#78,140.0);
#80=LINE('',#77,#79);
#81=EDGE_CURVE('',#76,#68,#80,.T.);
#82=ORIENTED_EDGE('',*,*,#81,.F.);
#83=CARTESIAN_POINT('',(60.0,160.0,-0.500000000000000));
#84=VERTEX_POINT('',#83);
#85=CARTESIAN_POINT('',(60.0,160.0,-0.500000000000000));
#86=DIRECTION('',(-1.0,0.0,0.0));
#87=VECTOR('',#86,19.649999999999977);
#88=LINE('',#85,#87);
#89=EDGE_CURVE('',#84,#76,#88,.T.);
#90=ORIENTED_EDGE('',*,*,#89,.F.);
#91=CARTESIAN_POINT('',(60.0,157.500000000000000,-0.500000000000000));
#92=VERTEX_POINT('',#91);
#93=CARTESIAN_POINT('',(60.0,157.500000000000000,-0.500000000000000));
#94=DIRECTION('',(0.0,1.0,0.0));
#95=VECTOR('',#94,2.500000000000000);
#96=LINE('',#93,#95);
#97=EDGE_CURVE('',#92,#84,#96,.T.);
#98=ORIENTED_EDGE('',*,*,#97,.F.);
#99=CARTESIAN_POINT('',(65.0,153.199999999999990,-0.500000000000000));
#100=VERTEX_POINT('',#99);
#101=CARTESIAN_POINT('',(65.0,153.199999999999990,-0.500000000000000));
#102=DIRECTION('',(-0.758185196311682,0.652039268828048,0.0));
#103=VECTOR('',#102,6.594694837519026);
#104=LINE('',#101,#103);
#105=EDGE_CURVE('',#100,#92,#104,.T.);
#106=ORIENTED_EDGE('',*,*,#105,.F.);
#107=CARTESIAN_POINT('',(65.0,56.799999999999990,-0.500000000000000));
#108=VERTEX_POINT('',#107);
#109=CARTESIAN_POINT('',(65.0,56.799999999999990,-0.500000000000000));
#110=DIRECTION('',(0.0,1.0,0.0));
#111=VECTOR('',#110,96.400000000000006);
#112=LINE('',#109,#111);
#113=EDGE_CURVE('',#108,#100,#112,.T.);
#114=ORIENTED_EDGE('',*,*,#113,.F.);
#115=CARTESIAN_POINT('',(60.0,52.500000000000000,-0.500000000000000));
#116=VERTEX_POINT('',#115);
#117=CARTESIAN_POINT('',(60.0,52.500000000000000,-0.500000000000000));
#118=DIRECTION('',(0.758185196311684,0.652039268828047,0.0));
#119=VECTOR('',#118,6.594694837519012);
#120=LINE('',#117,#119);
#121=EDGE_CURVE('',#116,#108,#120,.T.);
#122=ORIENTED_EDGE('',*,*,#121,.F.);
#123=CARTESIAN_POINT('',(60.0,0.0,-0.500000000000000));
#124=VERTEX_POINT('',#123);
#125=CARTESIAN_POINT('',(60.0,0.0,-0.500000000000000));
#126=DIRECTION('',(0.0,1.0,0.0));
#127=VECTOR('',#126,52.500000000000000);
#128=LINE('',#125,#127);
#129=EDGE_CURVE('',#124,#116,#128,.T.);
#130=ORIENTED_EDGE('',*,*,#129,.F.);
#131=CARTESIAN_POINT('',(-60.0,0.0,-0.500000000000000));
#132=VERTEX_POINT('',#131);
#133=CARTESIAN_POINT('',(-60.0,0.0,-0.500000000000000));
#134=DIRECTION('',(1.0,0.0,0.0));
#135=VECTOR('',#134,120.0);
#136=LINE('',#133,#135);
#137=EDGE_CURVE('',#132,#124,#136,.T.);
#138=ORIENTED_EDGE('',*,*,#137,.F.);
#139=CARTESIAN_POINT('',(-60.0,52.500000000000000,-0.500000000000000));
#140=VERTEX_POINT('',#139);
#141=CARTESIAN_POINT('',(-60.0,52.500000000000000,-0.500000000000000));
#142=DIRECTION('',(0.0,-1.0,0.0));
#143=VECTOR('',#142,52.500000000000000);
#144=LINE('',#141,#143);
#145=EDGE_CURVE('',#140,#132,#144,.T.);
#146=ORIENTED_EDGE('',*,*,#145,.F.);
#147=CARTESIAN_POINT('',(-65.0,56.799999999999990,-0.500000000000000));
#148=VERTEX_POINT('',#147);
#149=CARTESIAN_POINT('',(-65.0,56.799999999999990,-0.500000000000000));
#150=DIRECTION('',(0.758185196311684,-0.652039268828047,0.0));
#151=VECTOR('',#150,6.594694837519012);
#152=LINE('',#149,#151);
#153=EDGE_CURVE('',#148,#140,#152,.T.);
#154=ORIENTED_EDGE('',*,*,#153,.F.);
#155=CARTESIAN_POINT('',(-65.0,153.199999999999990,-0.500000000000000));
#156=VERTEX_POINT('',#155);
#157=CARTESIAN_POINT('',(-65.0,153.199999999999990,-0.500000000000000));
#158=DIRECTION('',(0.0,-1.0,0.0));
#159=VECTOR('',#158,96.400000000000006);
#160=LINE('',#157,#159);
#161=EDGE_CURVE('',#156,#148,#160,.T.);
#162=ORIENTED_EDGE('',*,*,#161,.F.);
#163=CARTESIAN_POINT('',(-60.0,157.500000000000000,-0.500000000000000));
#164=VERTEX_POINT('',#163);
#165=CARTESIAN_POINT('',(-60.0,157.500000000000000,-0.500000000000000));
#166=DIRECTION('',(-0.758185196311682,-0.652039268828048,0.0));
#167=VECTOR('',#166,6.594694837519026);
#168=LINE('',#165,#167);
#169=EDGE_CURVE('',#164,#156,#168,.T.);
#170=ORIENTED_EDGE('',*,*,#169,.F.);
#171=CARTESIAN_POINT('',(-60.0,160.0,-0.500000000000000));
#172=DIRECTION('',(0.0,-1.0,0.0));
#173=VECTOR('',#172,2.500000000000000);
#174=LINE('',#171,#173);
#175=EDGE_CURVE('',#52,#164,#174,.T.);
#176=ORIENTED_EDGE('',*,*,#175,.F.);
#177=EDGE_LOOP('',(#58,#66,#74,#82,#90,#98,#106,#114,#122,#130,#138,#146,#154,#162,#170,#176));
#178=FACE_OUTER_BOUND('',#177,.T.);
#179=ADVANCED_FACE('',(#178),#48,.F.);
#180=CARTESIAN_POINT('',(-40.350000000000001,19.999999999999993,0.0));
#181=DIRECTION('',(0.0,1.0,0.0));
#182=DIRECTION('',(0.0,0.0,1.0));
#183=AXIS2_PLACEMENT_3D('',#180,#181,#182);
#184=PLANE('',#183);
#185=CARTESIAN_POINT('',(-40.350000000000001,19.999999999999993,0.500000000000000));
#186=VERTEX_POINT('',#185);
#187=CARTESIAN_POINT('',(40.350000000000001,19.999999999999993,0.500000000000000));
#188=VERTEX_POINT('',#187);
#189=CARTESIAN_POINT('',(-40.350000000000001,19.999999999999993,0.500000000000000));
#190=DIRECTION('',(1.0,0.0,0.0));
#191=VECTOR('',#190,80.700000000000003);
#192=LINE('',#189,#191);
#193=EDGE_CURVE('',#186,#188,#192,.T.);
#194=ORIENTED_EDGE('',*,*,#193,.T.);
#195=CARTESIAN_POINT('',(40.350000000000001,19.999999999999993,-0.500000000000000));
#196=DIRECTION('',(0.0,0.0,1.0));
#197=VECTOR('',#196,1.0);
#198=LINE('',#195,#197);
#199=EDGE_CURVE('',#68,#188,#198,.T.);
#200=ORIENTED_EDGE('',*,*,#199,.F.);
#201=ORIENTED_EDGE('',*,*,#73,.T.);
#202=CARTESIAN_POINT('',(-40.350000000000001,19.999999999999993,0.500000000000000));
#203=DIRECTION('',(0.0,0.0,-1.0));
#204=VECTOR('',#203,1.0);
#205=LINE('',#202,#204);
#206=EDGE_CURVE('',#186,#60,#205,.T.);
#207=ORIENTED_EDGE('',*,*,#206,.F.);
#208=EDGE_LOOP('',(#194,#200,#201,#207));
#209=FACE_OUTER_BOUND('',#208,.T.);
#210=ADVANCED_FACE('',(#209),#184,.T.);
#211=CARTESIAN_POINT('',(0.0,0.0,0.0));
#212=DIRECTION('',(0.0,-1.0,0.0));
#213=DIRECTION('',(0.0,0.0,-1.0));
#214=AXIS2_PLACEMENT_3D('',#211,#212,#213);
#215=PLANE('',#214);
#216=CARTESIAN_POINT('',(60.0,0.0,0.500000000000000));
#217=VERTEX_POINT('',#216);
#218=CARTESIAN_POINT('',(-60.0,0.0,0.500000000000000));
#219=VERTEX_POINT('',#218);
#220=CARTESIAN_POINT('',(60.0,0.0,0.500000000000000));
#221=DIRECTION('',(-1.0,0.0,0.0));
#222=VECTOR('',#221,120.0);
#223=LINE('',#220,#222);
#224=EDGE_CURVE('',#217,#219,#223,.T.);
#225=ORIENTED_EDGE('',*,*,#224,.T.);
#226=CARTESIAN_POINT('',(-60.0,0.0,-0.500000000000000));
#227=DIRECTION('',(0.0,0.0,1.0));
#228=VECTOR('',#227,1.0);
#229=LINE('',#226,#228);
#230=EDGE_CURVE('',#132,#219,#229,.T.);
#231=ORIENTED_EDGE('',*,*,#230,.F.);
#232=ORIENTED_EDGE('',*,*,#137,.T.);
#233=CARTESIAN_POINT('',(60.0,0.0,-0.500000000000000));
#234=DIRECTION('',(0.0,0.0,1.0));
#235=VECTOR('',#234,1.0);
#236=LINE('',#233,#235);
#237=EDGE_CURVE('',#124,#217,#236,.T.);
#238=ORIENTED_EDGE('',*,*,#237,.T.);
#239=EDGE_LOOP('',(#225,#231,#232,#238));
#240=FACE_OUTER_BOUND('',#239,.T.);
#241=ADVANCED_FACE('',(#240),#215,.T.);
#242=CARTESIAN_POINT('',(-60.0,0.0,0.0));
#243=DIRECTION('',(-1.0,0.0,0.0));
#244=DIRECTION('',(0.0,0.0,1.0));
#245=AXIS2_PLACEMENT_3D('',#242,#243,#244);
#246=PLANE('',#245);
#247=CARTESIAN_POINT('',(-60.0,52.500000000000000,0.500000000000000));
#248=VERTEX_POINT('',#247);
#249=CARTESIAN_POINT('',(-60.0,0.0,0.500000000000000));
#250=DIRECTION('',(0.0,1.0,0.0));
#251=VECTOR('',#250,52.500000000000000);
#252=LINE('',#249,#251);
#253=EDGE_CURVE('',#219,#248,#252,.T.);
#254=ORIENTED_EDGE('',*,*,#253,.T.);
#255=CARTESIAN_POINT('',(-60.0,52.500000000000000,-0.500000000000000));
#256=DIRECTION('',(0.0,0.0,1.0));
#257=VECTOR('',#256,1.0);
#258=LINE('',#255,#257);
#259=EDGE_CURVE('',#140,#248,#258,.T.);
#260=ORIENTED_EDGE('',*,*,#259,.F.);
#261=ORIENTED_EDGE('',*,*,#145,.T.);
#262=ORIENTED_EDGE('',*,*,#230,.T.);
#263=EDGE_LOOP('',(#254,#260,#261,#262));
#264=FACE_OUTER_BOUND('',#263,.T.);
#265=ADVANCED_FACE('',(#264),#246,.T.);
#266=CARTESIAN_POINT('',(-60.0,52.500000000000000,0.0));
#267=DIRECTION('',(-0.652039268828046,-0.758185196311684,0.0));
#268=DIRECTION('',(0.0,0.0,1.0));
#269=AXIS2_PLACEMENT_3D('',#266,#267,#268);
#270=PLANE('',#269);
#271=CARTESIAN_POINT('',(-65.0,56.799999999999990,0.500000000000000));
#272=VERTEX_POINT('',#271);
#273=CARTESIAN_POINT('',(-60.0,52.500000000000000,0.500000000000000));
#274=DIRECTION('',(-0.758185196311684,0.652039268828047,0.0));
#275=VECTOR('',#274,6.594694837519012);
#276=LINE('',#273,#275);
#277=EDGE_CURVE('',#248,#272,#276,.T.);
#278=ORIENTED_EDGE('',*,*,#277,.T.);
#279=CARTESIAN_POINT('',(-65.0,56.799999999999990,-0.500000000000000));
#280=DIRECTION('',(0.0,0.0,1.0));
#281=VECTOR('',#280,1.0);
#282=LINE('',#279,#281);
#283=EDGE_CURVE('',#148,#272,#282,.T.);
#284=ORIENTED_EDGE('',*,*,#283,.F.);
#285=ORIENTED_EDGE('',*,*,#153,.T.);
#286=ORIENTED_EDGE('',*,*,#259,.T.);
#287=EDGE_LOOP('',(#278,#284,#285,#286));
#288=FACE_OUTER_BOUND('',#287,.T.);
#289=ADVANCED_FACE('',(#288),#270,.T.);
#290=CARTESIAN_POINT('',(-65.0,56.799999999999990,0.0));
#291=DIRECTION('',(-1.0,0.0,0.0));
#292=DIRECTION('',(0.0,0.0,1.0));
#293=AXIS2_PLACEMENT_3D('',#290,#291,#292);
#294=PLANE('',#293);
#295=CARTESIAN_POINT('',(-65.0,153.199999999999990,0.500000000000000));
#296=VERTEX_POINT('',#295);
#297=CARTESIAN_POINT('',(-65.0,56.799999999999990,0.500000000000000));
#298=DIRECTION('',(0.0,1.0,0.0));
#299=VECTOR('',#298,96.400000000000006);
#300=LINE('',#297,#299);
#301=EDGE_CURVE('',#272,#296,#300,.T.);
#302=ORIENTED_EDGE('',*,*,#301,.T.);
#303=CARTESIAN_POINT('',(-65.0,153.199999999999990,-0.500000000000000));
#304=DIRECTION('',(0.0,0.0,1.0));
#305=VECTOR('',#304,1.0);
#306=LINE('',#303,#305);
#307=EDGE_CURVE('',#156,#296,#306,.T.);
#308=ORIENTED_EDGE('',*,*,#307,.F.);
#309=ORIENTED_EDGE('',*,*,#161,.T.);
#310=ORIENTED_EDGE('',*,*,#283,.T.);
#311=EDGE_LOOP('',(#302,#308,#309,#310));
#312=FACE_OUTER_BOUND('',#311,.T.);
#313=ADVANCED_FACE('',(#312),#294,.T.);
#314=CARTESIAN_POINT('',(-65.0,153.199999999999990,0.0));
#315=DIRECTION('',(-0.652039268828049,0.758185196311682,0.0));
#316=DIRECTION('',(0.0,0.0,1.0));
#317=AXIS2_PLACEMENT_3D('',#314,#315,#316);
#318=PLANE('',#317);
#319=CARTESIAN_POINT('',(-60.0,157.500000000000000,0.500000000000000));
#320=VERTEX_POINT('',#319);
#321=CARTESIAN_POINT('',(-65.0,153.199999999999990,0.500000000000000));
#322=DIRECTION('',(0.758185196311682,0.652039268828048,0.0));
#323=VECTOR('',#322,6.594694837519026);
#324=LINE('',#321,#323);
#325=EDGE_CURVE('',#296,#320,#324,.T.);
#326=ORIENTED_EDGE('',*,*,#325,.T.);
#327=CARTESIAN_POINT('',(-60.0,157.500000000000000,-0.500000000000000));
#328=DIRECTION('',(0.0,0.0,1.0));
#329=VECTOR('',#328,1.0);
#330=LINE('',#327,#329);
#331=EDGE_CURVE('',#164,#320,#330,.T.);
#332=ORIENTED_EDGE('',*,*,#331,.F.);
#333=ORIENTED_EDGE('',*,*,#169,.T.);
#334=ORIENTED_EDGE('',*,*,#307,.T.);
#335=EDGE_LOOP('',(#326,#332,#333,#334));
#336=FACE_OUTER_BOUND('',#335,.T.);
#337=ADVANCED_FACE('',(#336),#318,.T.);
#338=CARTESIAN_POINT('',(-60.0,157.500000000000000,0.0));
#339=DIRECTION('',(-1.0,0.0,0.0));
#340=DIRECTION('',(0.0,0.0,1.0));
#341=AXIS2_PLACEMENT_3D('',#338,#339,#340);
#342=PLANE('',#341);
#343=CARTESIAN_POINT('',(-60.0,160.0,0.500000000000000));
#344=VERTEX_POINT('',#343);
#345=CARTESIAN_POINT('',(-60.0,157.500000000000000,0.500000000000000));
#346=DIRECTION('',(0.0,1.0,0.0));
#347=VECTOR('',#346,2.500000000000000);
#348=LINE('',#345,#347);
#349=EDGE_CURVE('',#320,#344,#348,.T.);
#350=ORIENTED_EDGE('',*,*,#349,.T.);
#351=CARTESIAN_POINT('',(-60.0,160.0,-0.500000000000000));
#352=DIRECTION('',(0.0,0.0,1.0));
#353=VECTOR('',#352,1.0);
#354=LINE('',#351,#353);
#355=EDGE_CURVE('',#52,#344,#354,.T.);
#356=ORIENTED_EDGE('',*,*,#355,.F.);
#357=ORIENTED_EDGE('',*,*,#175,.T.);
#358=ORIENTED_EDGE('',*,*,#331,.T.);
#359=EDGE_LOOP('',(#350,#356,#357,#358));
#360=FACE_OUTER_BOUND('',#359,.T.);
#361=ADVANCED_FACE('',(#360),#342,.T.);
#362=CARTESIAN_POINT('',(-60.0,160.0,0.0));
#363=DIRECTION('',(0.0,1.0,0.0));
#364=DIRECTION('',(0.0,0.0,1.0));
#365=AXIS2_PLACEMENT_3D('',#362,#363,#364);
#366=PLANE('',#365);
#367=CARTESIAN_POINT('',(-40.350000000000023,160.0,0.500000000000000));
#368=VERTEX_POINT('',#367);
#369=CARTESIAN_POINT('',(-60.0,160.0,0.500000000000000));
#370=DIRECTION('',(1.0,0.0,0.0));
#371=VECTOR('',#370,19.649999999999977);
#372=LINE('',#369,#371);
#373=EDGE_CURVE('',#344,#368,#372,.T.);
#374=ORIENTED_EDGE('',*,*,#373,.T.);
#375=CARTESIAN_POINT('',(-40.350000000000023,160.0,-0.500000000000000));
#376=DIRECTION('',(0.0,0.0,1.0));
#377=VECTOR('',#376,1.0);
#378=LINE('',#375,#377);
#379=EDGE_CURVE('',#50,#368,#378,.T.);
#380=ORIENTED_EDGE('',*,*,#379,.F.);
#381=ORIENTED_EDGE('',*,*,#57,.T.);
#382=ORIENTED_EDGE('',*,*,#355,.T.);
#383=EDGE_LOOP('',(#374,#380,#381,#382));
#384=FACE_OUTER_BOUND('',#383,.T.);
#385=ADVANCED_FACE('',(#384),#366,.T.);
#386=CARTESIAN_POINT('',(-40.350000000000023,160.0,0.0));
#387=DIRECTION('',(1.0,0.0,0.0));
#388=DIRECTION('',(0.0,0.0,-1.0));
#389=AXIS2_PLACEMENT_3D('',#386,#387,#388);
#390=PLANE('',#389);
#391=CARTESIAN_POINT('',(-40.350000000000023,160.0,0.500000000000000));
#392=DIRECTION('',(0.0,-1.0,0.0));
#393=VECTOR('',#392,140.0);
#394=LINE('',#391,#393);
#395=EDGE_CURVE('',#368,#186,#394,.T.);
#396=ORIENTED_EDGE('',*,*,#395,.T.);
#397=ORIENTED_EDGE('',*,*,#206,.T.);
#398=ORIENTED_EDGE('',*,*,#65,.T.);
#399=ORIENTED_EDGE('',*,*,#379,.T.);
#400=EDGE_LOOP('',(#396,#397,#398,#399));
#401=FACE_OUTER_BOUND('',#400,.T.);
#402=ADVANCED_FACE('',(#401),#390,.T.);
#403=CARTESIAN_POINT('',(-44.174101566042275,67.551962807368866,0.500000000000000));
#404=DIRECTION('',(0.0,0.0,1.0));
#405=DIRECTION('',(1.0,0.0,0.0));
#406=AXIS2_PLACEMENT_3D('',#403,#404,#405);
#407=PLANE('',#406);
#408=ORIENTED_EDGE('',*,*,#193,.F.);
#409=ORIENTED_EDGE('',*,*,#395,.F.);
#410=ORIENTED_EDGE('',*,*,#373,.F.);
#411=ORIENTED_EDGE('',*,*,#349,.F.);
#412=ORIENTED_EDGE('',*,*,#325,.F.);
#413=ORIENTED_EDGE('',*,*,#301,.F.);
#414=ORIENTED_EDGE('',*,*,#277,.F.);
#415=ORIENTED_EDGE('',*,*,#253,.F.);
#416=ORIENTED_EDGE('',*,*,#224,.F.);
#417=CARTESIAN_POINT('',(60.0,52.500000000000000,0.500000000000000));
#418=VERTEX_POINT('',#417);
#419=CARTESIAN_POINT('',(60.0,52.500000000000000,0.500000000000000));
#420=DIRECTION('',(0.0,-1.0,0.0));
#421=VECTOR('',#420,52.500000000000000);
#422=LINE('',#419,#421);
#423=EDGE_CURVE('',#418,#217,#422,.T.);
#424=ORIENTED_EDGE('',*,*,#423,.F.);
#425=CARTESIAN_POINT('',(65.0,56.799999999999990,0.500000000000000));
#426=VERTEX_POINT('',#425);
#427=CARTESIAN_POINT('',(65.0,56.799999999999990,0.500000000000000));
#428=DIRECTION('',(-0.758185196311684,-0.652039268828047,0.0));
#429=VECTOR('',#428,6.594694837519012);
#430=LINE('',#427,#429);
#431=EDGE_CURVE('',#426,#418,#430,.T.);
#432=ORIENTED_EDGE('',*,*,#431,.F.);
#433=CARTESIAN_POINT('',(65.0,153.199999999999990,0.500000000000000));
#434=VERTEX_POINT('',#433);
#435=CARTESIAN_POINT('',(65.0,153.199999999999990,0.500000000000000));
#436=DIRECTION('',(0.0,-1.0,0.0));
#437=VECTOR('',#436,96.400000000000006);
#438=LINE('',#435,#437);
#439=EDGE_CURVE('',#434,#426,#438,.T.);
#440=ORIENTED_EDGE('',*,*,#439,.F.);
#441=CARTESIAN_POINT('',(60.0,157.500000000000000,0.500000000000000));
#442=VERTEX_POINT('',#441);
#443=CARTESIAN_POINT('',(60.0,157.500000000000000,0.500000000000000));
#444=DIRECTION('',(0.758185196311682,-0.652039268828048,0.0));
#445=VECTOR('',#444,6.594694837519026);
#446=LINE('',#443,#445);
#447=EDGE_CURVE('',#442,#434,#446,.T.);
#448=ORIENTED_EDGE('',*,*,#447,.F.);
#449=CARTESIAN_POINT('',(60.0,160.0,0.500000000000000));
#450=VERTEX_POINT('',#449);
#451=CARTESIAN_POINT('',(60.0,160.0,0.500000000000000));
#452=DIRECTION('',(0.0,-1.0,0.0));
#453=VECTOR('',#452,2.500000000000000);
#454=LINE('',#451,#453);
#455=EDGE_CURVE('',#450,#442,#454,.T.);
#456=ORIENTED_EDGE('',*,*,#455,.F.);
#457=CARTESIAN_POINT('',(40.350000000000023,160.0,0.500000000000000));
#458=VERTEX_POINT('',#457);
#459=CARTESIAN_POINT('',(40.350000000000023,160.0,0.500000000000000));
#460=DIRECTION('',(1.0,0.0,0.0));
#461=VECTOR('',#460,19.649999999999977);
#462=LINE('',#459,#461);
#463=EDGE_CURVE('',#458,#450,#462,.T.);
#464=ORIENTED_EDGE('',*,*,#463,.F.);
#465=CARTESIAN_POINT('',(40.350000000000001,19.999999999999993,0.500000000000000));
#466=DIRECTION('',(0.0,1.0,0.0));
#467=VECTOR('',#466,140.0);
#468=LINE('',#465,#467);
#469=EDGE_CURVE('',#188,#458,#468,.T.);
#470=ORIENTED_EDGE('',*,*,#469,.F.);
#471=EDGE_LOOP('',(#408,#409,#410,#411,#412,#413,#414,#415,#416,#424,#432,#440,#448,#456,#464,#470));
#472=FACE_OUTER_BOUND('',#471,.T.);
#473=ADVANCED_FACE('',(#472),#407,.T.);
#474=CARTESIAN_POINT('',(40.350000000000001,19.999999999999993,0.0));
#475=DIRECTION('',(-1.0,0.0,0.0));
#476=DIRECTION('',(0.0,0.0,1.0));
#477=AXIS2_PLACEMENT_3D('',#474,#475,#476);
#478=PLANE('',#477);
#479=ORIENTED_EDGE('',*,*,#469,.T.);
#480=CARTESIAN_POINT('',(40.350000000000023,160.0,-0.500000000000000));
#481=DIRECTION('',(0.0,0.0,1.0));
#482=VECTOR('',#481,1.0);
#483=LINE('',#480,#482);
#484=EDGE_CURVE('',#76,#458,#483,.T.);
#485=ORIENTED_EDGE('',*,*,#484,.F.);
#486=ORIENTED_EDGE('',*,*,#81,.T.);
#487=ORIENTED_EDGE('',*,*,#199,.T.);
#488=EDGE_LOOP('',(#479,#485,#486,#487));
#489=FACE_OUTER_BOUND('',#488,.T.);
#490=ADVANCED_FACE('',(#489),#478,.T.);
#491=CARTESIAN_POINT('',(40.350000000000023,160.0,0.0));
#492=DIRECTION('',(0.0,1.0,0.0));
#493=DIRECTION('',(0.0,0.0,1.0));
#494=AXIS2_PLACEMENT_3D('',#491,#492,#493);
#495=PLANE('',#494);
#496=ORIENTED_EDGE('',*,*,#463,.T.);
#497=CARTESIAN_POINT('',(60.0,160.0,-0.500000000000000));
#498=DIRECTION('',(0.0,0.0,1.0));
#499=VECTOR('',#498,1.0);
#500=LINE('',#497,#499);
#501=EDGE_CURVE('',#84,#450,#500,.T.);
#502=ORIENTED_EDGE('',*,*,#501,.F.);
#503=ORIENTED_EDGE('',*,*,#89,.T.);
#504=ORIENTED_EDGE('',*,*,#484,.T.);
#505=EDGE_LOOP('',(#496,#502,#503,#504));
#506=FACE_OUTER_BOUND('',#505,.T.);
#507=ADVANCED_FACE('',(#506),#495,.T.);
#508=CARTESIAN_POINT('',(60.0,160.0,0.0));
#509=DIRECTION('',(1.0,0.0,0.0));
#510=DIRECTION('',(0.0,0.0,-1.0));
#511=AXIS2_PLACEMENT_3D('',#508,#509,#510);
#512=PLANE('',#511);
#513=ORIENTED_EDGE('',*,*,#455,.T.);
#514=CARTESIAN_POINT('',(60.0,157.500000000000000,-0.500000000000000));
#515=DIRECTION('',(0.0,0.0,1.0));
#516=VECTOR('',#515,1.0);
#517=LINE('',#514,#516);
#518=EDGE_CURVE('',#92,#442,#517,.T.);
#519=ORIENTED_EDGE('',*,*,#518,.F.);
#520=ORIENTED_EDGE('',*,*,#97,.T.);
#521=ORIENTED_EDGE('',*,*,#501,.T.);
#522=EDGE_LOOP('',(#513,#519,#520,#521));
#523=FACE_OUTER_BOUND('',#522,.T.);
#524=ADVANCED_FACE('',(#523),#512,.T.);
#525=CARTESIAN_POINT('',(60.0,157.500000000000000,0.0));
#526=DIRECTION('',(0.652039268828049,0.758185196311682,0.0));
#527=DIRECTION('',(0.0,0.0,-1.0));
#528=AXIS2_PLACEMENT_3D('',#525,#526,#527);
#529=PLANE('',#528);
#530=ORIENTED_EDGE('',*,*,#447,.T.);
#531=CARTESIAN_POINT('',(65.0,153.199999999999990,-0.500000000000000));
#532=DIRECTION('',(0.0,0.0,1.0));
#533=VECTOR('',#532,1.0);
#534=LINE('',#531,#533);
#535=EDGE_CURVE('',#100,#434,#534,.T.);
#536=ORIENTED_EDGE('',*,*,#535,.F.);
#537=ORIENTED_EDGE('',*,*,#105,.T.);
#538=ORIENTED_EDGE('',*,*,#518,.T.);
#539=EDGE_LOOP('',(#530,#536,#537,#538));
#540=FACE_OUTER_BOUND('',#539,.T.);
#541=ADVANCED_FACE('',(#540),#529,.T.);
#542=CARTESIAN_POINT('',(65.0,153.199999999999990,0.0));
#543=DIRECTION('',(1.0,0.0,0.0));
#544=DIRECTION('',(0.0,0.0,-1.0));
#545=AXIS2_PLACEMENT_3D('',#542,#543,#544);
#546=PLANE('',#545);
#547=ORIENTED_EDGE('',*,*,#439,.T.);
#548=CARTESIAN_POINT('',(65.0,56.799999999999990,-0.500000000000000));
#549=DIRECTION('',(0.0,0.0,1.0));
#550=VECTOR('',#549,1.0);
#551=LINE('',#548,#550);
#552=EDGE_CURVE('',#108,#426,#551,.T.);
#553=ORIENTED_EDGE('',*,*,#552,.F.);
#554=ORIENTED_EDGE('',*,*,#113,.T.);
#555=ORIENTED_EDGE('',*,*,#535,.T.);
#556=EDGE_LOOP('',(#547,#553,#554,#555));
#557=FACE_OUTER_BOUND('',#556,.T.);
#558=ADVANCED_FACE('',(#557),#546,.T.);
#559=CARTESIAN_POINT('',(65.0,56.799999999999990,0.0));
#560=DIRECTION('',(0.652039268828046,-0.758185196311684,0.0));
#561=DIRECTION('',(0.0,0.0,-1.0));
#562=AXIS2_PLACEMENT_3D('',#559,#560,#561);
#563=PLANE('',#562);
#564=ORIENTED_EDGE('',*,*,#431,.T.);
#565=CARTESIAN_POINT('',(60.0,52.500000000000000,-0.500000000000000));
#566=DIRECTION('',(0.0,0.0,1.0));
#567=VECTOR('',#566,1.0);
#568=LINE('',#565,#567);
#569=EDGE_CURVE('',#116,#418,#568,.T.);
#570=ORIENTED_EDGE('',*,*,#569,.F.);
#571=ORIENTED_EDGE('',*,*,#121,.T.);
#572=ORIENTED_EDGE('',*,*,#552,.T.);
#573=EDGE_LOOP('',(#564,#570,#571,#572));
#574=FACE_OUTER_BOUND('',#573,.T.);
#575=ADVANCED_FACE('',(#574),#563,.T.);
#576=CARTESIAN_POINT('',(60.0,52.500000000000000,0.0));
#577=DIRECTION('',(1.0,0.0,0.0));
#578=DIRECTION('',(0.0,0.0,-1.0));
#579=AXIS2_PLACEMENT_3D('',#576,#577,#578);
#580=PLANE('',#579);
#581=ORIENTED_EDGE('',*,*,#423,.T.);
#582=ORIENTED_EDGE('',*,*,#237,.F.);
#583=ORIENTED_EDGE('',*,*,#129,.T.);
#584=ORIENTED_EDGE('',*,*,#569,.T.);
#585=EDGE_LOOP('',(#581,#582,#583,#584));
#586=FACE_OUTER_BOUND('',#585,.T.);
#587=ADVANCED_FACE('',(#586),#580,.T.);
#588=CLOSED_SHELL('',(#179,#210,#241,#265,#289,#313,#337,#361,#385,#402,#473,#490,#507,#524,#541,#558,#575,#587));
#589=MANIFOLD_SOLID_BREP('',#588);
#590=COLOUR_RGB('Metall-AL-6061 (gleichm.)',0.847058832645416,0.839215695858002,0.839215695858002);
#591=FILL_AREA_STYLE_COLOUR('Metall-AL-6061 (gleichm.)',#590);
#592=FILL_AREA_STYLE('Metall-AL-6061 (gleichm.)',(#591));
#593=SURFACE_STYLE_FILL_AREA(#592);
#594=SURFACE_SIDE_STYLE('Metall-AL-6061 (gleichm.)',(#593));
#595=SURFACE_STYLE_USAGE(.BOTH.,#594);
#596=PRESENTATION_STYLE_ASSIGNMENT((#595));
#597=STYLED_ITEM('',(#596),#589);
#598=MECHANICAL_DESIGN_GEOMETRIC_PRESENTATION_REPRESENTATION('',(#597),#36);
#599=ADVANCED_BREP_SHAPE_REPRESENTATION('ABSR',(#589),#36);
#600=SHAPE_REPRESENTATION_RELATIONSHIP('SRR','None',#599,#41);
ENDSEC;
END-ISO-10303-21;
