  0
SECTION
  2
HEADER
  9
$ACADVER
  1
AC1014
  9
$ACADMAINTVER
 70
     9
  9
$DWGCODEPAGE
  3
ANSI_1252
  9
$INSBASE
 10
0.0
 20
0.0
 30
0.0
  9
$EXTMIN
 10
-40.828419
 20
-80.828395
 30
0.0
  9
$EXTMAX
 10
40.828435
 20
80.828459
 30
0.0
  9
$LIMMIN
 10
0.0
 20
0.0
  9
$LIMMAX
 10
210.0
 20
297.0
  9
$ORTHOMODE
 70
     0
  9
$REGENMODE
 70
     1
  9
$FILLMODE
 70
     1
  9
$QTEXTMODE
 70
     0
  9
$MIRRTEXT
 70
     1
  9
$DRAGMODE
 70
     2
  9
$LTSCALE
 40
5.0
  9
$OSMODE
 70
     0
  9
$ATTMODE
 70
     1
  9
$TEXTSIZE
 40
3.5
  9
$TRACEWID
 40
1.0
  9
$TEXTSTYLE
  7
STANDARD
  9
$CLAYER
  8
2D_PROFILE
  9
$CELTYPE
  6
BYLAYER
  9
$CECOLOR
 62
   256
  9
$CELTSCALE
 40
1.0
  9
$DELOBJ
 70
     1
  9
$DISPSILH
 70
     0
  9
$DIMSCALE
 40
1.0
  9
$DIMASZ
 40
3.0
  9
$DIMEXO
 40
1.0
  9
$DIMDLI
 40
0.0
  9
$DIMRND
 40
0.0
  9
$DIMDLE
 40
0.0
  9
$DIMEXE
 40
1.0
  9
$DIMTP
 40
0.15
  9
$DIMTM
 40
0.0
  9
$DIMTXT
 40
3.0
  9
$DIMCEN
 40
0.0
  9
$DIMTSZ
 40
0.0
  9
$DIMTOL
 70
     0
  9
$DIMLIM
 70
     0
  9
$DIMTIH
 70
     0
  9
$DIMTOH
 70
     0
  9
$DIMSE1
 70
     0
  9
$DIMSE2
 70
     0
  9
$DIMTAD
 70
     1
  9
$DIMZIN
 70
     8
  9
$DIMBLK
  1

  9
$DIMASO
 70
     1
  9
$DIMSHO
 70
     1
  9
$DIMPOST
  1

  9
$DIMAPOST
  1

  9
$DIMALT
 70
     0
  9
$DIMALTD
 70
     2
  9
$DIMALTF
 40
25.4
  9
$DIMLFAC
 40
1.0
  9
$DIMTOFL
 70
     1
  9
$DIMTVP
 40
0.0
  9
$DIMTIX
 70
     0
  9
$DIMSOXD
 70
     0
  9
$DIMSAH
 70
     0
  9
$DIMBLK1
  1

  9
$DIMBLK2
  1

  9
$DIMSTYLE
  2
PALETTI
  9
$DIMCLRD
 70
   256
  9
$DIMCLRE
 70
   256
  9
$DIMCLRT
 70
   256
  9
$DIMTFAC
 40
0.7
  9
$DIMGAP
 40
0.7
  9
$DIMJUST
 70
     0
  9
$DIMSD1
 70
     0
  9
$DIMSD2
 70
     0
  9
$DIMTOLJ
 70
     1
  9
$DIMTZIN
 70
     8
  9
$DIMALTZ
 70
     8
  9
$DIMALTTZ
 70
     8
  9
$DIMFIT
 70
     5
  9
$DIMUPT
 70
     0
  9
$DIMUNIT
 70
     2
  9
$DIMDEC
 70
     4
  9
$DIMTDEC
 70
     4
  9
$DIMALTU
 70
     2
  9
$DIMALTTD
 70
     2
  9
$DIMTXSTY
  7
STANDARD
  9
$DIMAUNIT
 70
     0
  9
$LUNITS
 70
     2
  9
$LUPREC
 70
     4
  9
$SKETCHINC
 40
1.0
  9
$FILLETRAD
 40
0.0
  9
$AUNITS
 70
     0
  9
$AUPREC
 70
     0
  9
$MENU
  1
acad
  9
$ELEVATION
 40
0.0
  9
$PELEVATION
 40
0.0
  9
$THICKNESS
 40
0.0
  9
$LIMCHECK
 70
     0
  9
$BLIPMODE
 70
     0
  9
$CHAMFERA
 40
10.0
  9
$CHAMFERB
 40
10.0
  9
$CHAMFERC
 40
0.0
  9
$CHAMFERD
 40
0.0
  9
$SKPOLY
 70
     0
  9
$TDCREATE
 40
2451229.676203599
  9
$TDUPDATE
 40
2451229.676203599
  9
$TDINDWG
 40
0.0000000000
  9
$TDUSRTIMER
 40
0.0000000000
  9
$USRTIMER
 70
     1
  9
$ANGBASE
 50
0.0
  9
$ANGDIR
 70
     0
  9
$PDMODE
 70
     0
  9
$PDSIZE
 40
0.0
  9
$PLINEWID
 40
0.0
  9
$COORDS
 70
     1
  9
$SPLFRAME
 70
     0
  9
$SPLINETYPE
 70
     6
  9
$SPLINESEGS
 70
     8
  9
$ATTDIA
 70
     1
  9
$ATTREQ
 70
     1
  9
$HANDLING
 70
     1
  9
$HANDSEED
  5
137
  9
$SURFTAB1
 70
     6
  9
$SURFTAB2
 70
     6
  9
$SURFTYPE
 70
     6
  9
$SURFU
 70
     6
  9
$SURFV
 70
     6
  9
$UCSNAME
  2

  9
$UCSORG
 10
0.0
 20
0.0
 30
0.0
  9
$UCSXDIR
 10
1.0
 20
0.0
 30
0.0
  9
$UCSYDIR
 10
0.0
 20
1.0
 30
0.0
  9
$PUCSNAME
  2

  9
$PUCSORG
 10
0.0
 20
0.0
 30
0.0
  9
$PUCSXDIR
 10
1.0
 20
0.0
 30
0.0
  9
$PUCSYDIR
 10
0.0
 20
1.0
 30
0.0
  9
$USERI1
 70
     0
  9
$USERI2
 70
     0
  9
$USERI3
 70
     0
  9
$USERI4
 70
     0
  9
$USERI5
 70
     0
  9
$USERR1
 40
1.0
  9
$USERR2
 40
0.0
  9
$USERR3
 40
0.0
  9
$USERR4
 40
0.0
  9
$USERR5
 40
0.0
  9
$WORLDVIEW
 70
     1
  9
$SHADEDGE
 70
     3
  9
$SHADEDIF
 70
    70
  9
$TILEMODE
 70
     1
  9
$MAXACTVP
 70
    16
  9
$PINSBASE
 10
0.0
 20
0.0
 30
0.0
  9
$PLIMCHECK
 70
     0
  9
$PEXTMIN
 10
1.000000E+20
 20
1.000000E+20
 30
1.000000E+20
  9
$PEXTMAX
 10
-1.000000E+20
 20
-1.000000E+20
 30
-1.000000E+20
  9
$PLIMMIN
 10
0.0
 20
0.0
  9
$PLIMMAX
 10
420.0
 20
297.0
  9
$UNITMODE
 70
     0
  9
$VISRETAIN
 70
     0
  9
$PLINEGEN
 70
     0
  9
$PSLTSCALE
 70
     1
  9
$TREEDEPTH
 70
  3020
  9
$PICKSTYLE
 70
     1
  9
$CMLSTYLE
  2
STANDARD
  9
$CMLJUST
 70
     0
  9
$CMLSCALE
 40
1.0
  9
$PROXYGRAPHICS
 70
     1
  9
$MEASUREMENT
 70
     0
  0
ENDSEC
  0
SECTION
  2
CLASSES
  0
CLASS
  1
DICTIONARYVAR
  2
AcDbDictionaryVar
  3
"AutoCAD"
 90
        0
280
     0
281
     0
  0
ENDSEC
  0
SECTION
  2
TABLES
  0
TABLE
  2
VPORT
  5
12
100
AcDbSymbolTable
 70
     2
  0
VPORT
  5
136
100
AcDbSymbolTableRecord
100
AcDbViewportTableRecord
  2
*ACTIVE
 70
     0
 10
0.0
 20
0.0
 11
1.0
 21
1.0
 12
91.710211
 22
18.380581
 13
0.0
 23
0.0
 14
5.0
 24
5.0
 15
10.0
 25
10.0
 16
0.0
 26
0.0
 36
1.0
 17
0.0
 27
0.0
 37
0.0
 40
299.342666
 41
1.700368
 42
50.0
 43
0.0
 44
0.0
 50
0.0
 51
0.0
 71
     0
 72
 20000
 73
     1
 74
     1
 75
     0
 76
     0
 77
     0
 78
     0
  0
ENDTAB
  0
TABLE
  2
LTYPE
  5
D
100
AcDbSymbolTable
 70
     1
  0
LTYPE
  5
E
100
AcDbSymbolTableRecord
100
AcDbLinetypeTableRecord
  2
BYBLOCK
 70
     0
  3

 72
    65
 73
     0
 40
0.0
  0
LTYPE
  5
F
100
AcDbSymbolTableRecord
100
AcDbLinetypeTableRecord
  2
BYLAYER
 70
     0
  3

 72
    65
 73
     0
 40
0.0
  0
LTYPE
  5
5
100
AcDbSymbolTableRecord
100
AcDbLinetypeTableRecord
  2
CONTINUOUS
 70
     0
  3
Solid line
 72
    65
 73
     0
 40
0.0
  0
ENDTAB
  0
TABLE
  2
LAYER
  5
A
100
AcDbSymbolTable
 70
     2
  0
LAYER
  5
4
100
AcDbSymbolTableRecord
100
AcDbLayerTableRecord
  2
0
 70
     1
 62
     7
  6
CONTINUOUS
  0
LAYER
  5
1B
100
AcDbSymbolTableRecord
100
AcDbLayerTableRecord
  2
2D_PROFILE
 70
     0
 62
     5
  6
CONTINUOUS
  0
ENDTAB
  0
TABLE
  2
STYLE
  5
B
100
AcDbSymbolTable
 70
     1
  0
STYLE
  5
C
100
AcDbSymbolTableRecord
100
AcDbTextStyleTableRecord
  2
STANDARD
 70
     0
 40
0.0
 41
1.0
 50
0.0
 71
     0
 42
3.5
  3
ISOCP
  4

  0
ENDTAB
  0
TABLE
  2
VIEW
  5
10
100
AcDbSymbolTable
 70
     0
  0
ENDTAB
  0
TABLE
  2
UCS
  5
11
100
AcDbSymbolTable
 70
     0
  0
ENDTAB
  0
TABLE
  2
APPID
  5
14
100
AcDbSymbolTable
 70
     1
  0
APPID
  5
15
100
AcDbSymbolTableRecord
100
AcDbRegAppTableRecord
  2
ACAD
 70
     0
  0
ENDTAB
  0
TABLE
  2
DIMSTYLE
  5
16
100
AcDbSymbolTable
 70
     1
  0
DIMSTYLE
105
1D
100
AcDbSymbolTableRecord
100
AcDbDimStyleTableRecord
  2
PALETTI
 70
     0
  3

  4

  5

  6

  7

 40
0.0
 41
3.0
 42
1.0
 43
0.0
 44
1.0
 45
0.0
 46
0.0
 47
0.0
 48
0.2
140
3.0
141
0.0
142
0.0
143
25.4
144
1.0
145
0.0
146
0.7
147
0.7
 71
     0
 72
     0
 73
     0
 74
     0
 75
     0
 76
     0
 77
     1
 78
     8
170
     0
171
     2
172
     1
173
     0
174
     0
175
     0
176
   256
177
   256
178
   256
270
     2
271
     4
272
     4
273
     2
274
     2
340
C
275
     0
280
     0
281
     0
282
     0
283
     1
284
     8
285
     8
286
     8
287
     5
288
     0
  0
ENDTAB
  0
TABLE
  2
BLOCK_RECORD
  5
1
100
AcDbSymbolTable
 70
     0
  0
BLOCK_RECORD
  5
2
100
AcDbSymbolTableRecord
100
AcDbBlockTableRecord
  2
*MODEL_SPACE
  0
BLOCK_RECORD
  5
7
100
AcDbSymbolTableRecord
100
AcDbBlockTableRecord
  2
*PAPER_SPACE
  0
ENDTAB
  0
ENDSEC
  0
SECTION
  2
BLOCKS
  0
BLOCK
  5
3
100
AcDbEntity
  8
0
100
AcDbBlockBegin
  2
*MODEL_SPACE
 70
     0
 10
0.0
 20
0.0
 30
0.0
  3
*MODEL_SPACE
  1

  0
ENDBLK
  5
6
100
AcDbEntity
  8
0
100
AcDbBlockEnd
  0
BLOCK
  5
8
100
AcDbEntity
 67
     1
  8
0
100
AcDbBlockBegin
  2
*PAPER_SPACE
 70
     0
 10
0.0
 20
0.0
 30
0.0
  3
*PAPER_SPACE
  1

  0
ENDBLK
  5
9
100
AcDbEntity
 67
     1
  8
0
100
AcDbBlockEnd
  0
ENDSEC
  0
SECTION
  2
ENTITIES
  0
ARC
  5
1E
100
AcDbEntity
  8
2D_PROFILE
100
AcDbCircle
 10
38.500008
 20
54.400032
 30
0.0
 40
1.5
100
AcDbArc
 50
0.0
 51
90.0
1001
ACAD
1000
R13OBJECT
1002
{
1005
135
1002
}
  0
LINE
  5
1F
100
AcDbEntity
  8
2D_PROFILE
100
AcDbLine
 10
40.000008
 20
54.400032
 30
0.0
 11
40.000008
 21
25.600032
 31
0.0
1001
ACAD
1000
R13OBJECT
1002
{
1005
135
1002
}
  0
ARC
  5
20
100
AcDbEntity
  8
2D_PROFILE
100
AcDbCircle
 10
38.500008
 20
25.600032
 30
0.0
 40
1.5
100
AcDbArc
 50
270.0
 51
360.0
1001
ACAD
1000
R13OBJECT
1002
{
1005
135
1002
}
  0
LINE
  5
21
100
AcDbEntity
  8
2D_PROFILE
100
AcDbLine
 10
38.500008
 20
24.100032
 30
0.0
 11
36.500008
 21
24.100032
 31
0.0
1001
ACAD
1000
R13OBJECT
1002
{
1005
135
1002
}
  0
ARC
  5
22
100
AcDbEntity
  8
2D_PROFILE
100
AcDbCircle
 10
36.500008
 20
25.100032
 30
0.0
 40
1.0
100
AcDbArc
 50
180.0
 51
270.0
1001
ACAD
1000
R13OBJECT
1002
{
1005
135
1002
}
  0
LINE
  5
23
100
AcDbEntity
  8
2D_PROFILE
100
AcDbLine
 10
35.500008
 20
25.100032
 30
0.0
 11
35.500008
 21
29.081412
 31
0.0
1001
ACAD
1000
R13OBJECT
1002
{
1005
135
1002
}
  0
ARC
  5
24
100
AcDbEntity
  8
2D_PROFILE
100
AcDbCircle
 10
34.500008
 20
29.081412
 30
0.0
 40
1.0
100
AcDbArc
 50
0.0
 51
123.247424
1001
ACAD
1000
R13OBJECT
1002
{
1005
135
1002
}
  0
ARC
  5
25
100
AcDbEntity
  8
2D_PROFILE
100
AcDbCircle
 10
48.953003
 20
8.141275
 30
0.0
 40
26.443358
100
AcDbArc
 50
124.561985
 51
141.561745
1001
ACAD
1000
R13OBJECT
1002
{
1005
135
1002
}
  0
ARC
  5
26
100
AcDbEntity
  8
2D_PROFILE
100
AcDbCircle
 10
31.450008
 20
22.193088
 30
0.0
 40
4.0
100
AcDbArc
 50
143.35799
 51
180.0
1001
ACAD
1000
R13OBJECT
1002
{
1005
135
1002
}
  0
LINE
  5
27
100
AcDbEntity
  8
2D_PROFILE
100
AcDbLine
 10
27.450008
 20
22.193088
 30
0.0
 11
27.450008
 21
17.806976
 31
0.0
1001
ACAD
1000
R13OBJECT
1002
{
1005
135
1002
}
  0
ARC
  5
28
100
AcDbEntity
  8
2D_PROFILE
100
AcDbCircle
 10
31.450008
 20
17.806976
 30
0.0
 40
4.0
100
AcDbArc
 50
180.0
 51
216.64201
1001
ACAD
1000
R13OBJECT
1002
{
1005
135
1002
}
  0
ARC
  5
29
100
AcDbEntity
  8
2D_PROFILE
100
AcDbCircle
 10
48.953003
 20
31.858789
 30
0.0
 40
26.443358
100
AcDbArc
 50
218.438255
 51
235.438015
1001
ACAD
1000
R13OBJECT
1002
{
1005
135
1002
}
  0
ARC
  5
2A
100
AcDbEntity
  8
2D_PROFILE
100
AcDbCircle
 10
34.500008
 20
10.918652
 30
0.0
 40
1.0
100
AcDbArc
 50
236.752576
 51
360.0
1001
ACAD
1000
R13OBJECT
1002
{
1005
135
1002
}
  0
LINE
  5
2B
100
AcDbEntity
  8
2D_PROFILE
100
AcDbLine
 10
35.500008
 20
10.918652
 30
0.0
 11
35.500008
 21
14.900032
 31
0.0
1001
ACAD
1000
R13OBJECT
1002
{
1005
135
1002
}
  0
ARC
  5
2C
100
AcDbEntity
  8
2D_PROFILE
100
AcDbCircle
 10
36.500008
 20
14.900032
 30
0.0
 40
1.0
100
AcDbArc
 50
90.0
 51
180.0
1001
ACAD
1000
R13OBJECT
1002
{
1005
135
1002
}
  0
LINE
  5
2D
100
AcDbEntity
  8
2D_PROFILE
100
AcDbLine
 10
36.500008
 20
15.900032
 30
0.0
 11
38.500008
 21
15.900032
 31
0.0
1001
ACAD
1000
R13OBJECT
1002
{
1005
135
1002
}
  0
ARC
  5
2E
100
AcDbEntity
  8
2D_PROFILE
100
AcDbCircle
 10
38.500008
 20
14.400032
 30
0.0
 40
1.5
100
AcDbArc
 50
0.0
 51
90.0
1001
ACAD
1000
R13OBJECT
1002
{
1005
135
1002
}
  0
LINE
  5
2F
100
AcDbEntity
  8
2D_PROFILE
100
AcDbLine
 10
40.000008
 20
14.400032
 30
0.0
 11
40.000008
 21
-14.399968
 31
0.0
1001
ACAD
1000
R13OBJECT
1002
{
1005
135
1002
}
  0
ARC
  5
30
100
AcDbEntity
  8
2D_PROFILE
100
AcDbCircle
 10
38.500008
 20
-14.399968
 30
0.0
 40
1.5
100
AcDbArc
 50
270.0
 51
360.0
1001
ACAD
1000
R13OBJECT
1002
{
1005
135
1002
}
  0
LINE
  5
31
100
AcDbEntity
  8
2D_PROFILE
100
AcDbLine
 10
38.500008
 20
-15.899968
 30
0.0
 11
36.500008
 21
-15.899968
 31
0.0
1001
ACAD
1000
R13OBJECT
1002
{
1005
135
1002
}
  0
ARC
  5
32
100
AcDbEntity
  8
2D_PROFILE
100
AcDbCircle
 10
36.500008
 20
-14.899968
 30
0.0
 40
1.0
100
AcDbArc
 50
180.0
 51
270.0
1001
ACAD
1000
R13OBJECT
1002
{
1005
135
1002
}
  0
LINE
  5
33
100
AcDbEntity
  8
2D_PROFILE
100
AcDbLine
 10
35.500008
 20
-14.899968
 30
0.0
 11
35.500008
 21
-10.918588
 31
0.0
1001
ACAD
1000
R13OBJECT
1002
{
1005
135
1002
}
  0
ARC
  5
34
100
AcDbEntity
  8
2D_PROFILE
100
AcDbCircle
 10
34.500008
 20
-10.918588
 30
0.0
 40
1.0
100
AcDbArc
 50
0.0
 51
123.247424
1001
ACAD
1000
R13OBJECT
1002
{
1005
135
1002
}
  0
ARC
  5
35
100
AcDbEntity
  8
2D_PROFILE
100
AcDbCircle
 10
48.953003
 20
-31.858725
 30
0.0
 40
26.443358
100
AcDbArc
 50
124.561985
 51
141.561745
1001
ACAD
1000
R13OBJECT
1002
{
1005
135
1002
}
  0
ARC
  5
36
100
AcDbEntity
  8
2D_PROFILE
100
AcDbCircle
 10
31.450008
 20
-17.806912
 30
0.0
 40
4.0
100
AcDbArc
 50
143.35799
 51
180.0
1001
ACAD
1000
R13OBJECT
1002
{
1005
135
1002
}
  0
LINE
  5
37
100
AcDbEntity
  8
2D_PROFILE
100
AcDbLine
 10
27.450008
 20
-17.806912
 30
0.0
 11
27.450008
 21
-22.193024
 31
0.0
1001
ACAD
1000
R13OBJECT
1002
{
1005
135
1002
}
  0
ARC
  5
38
100
AcDbEntity
  8
2D_PROFILE
100
AcDbCircle
 10
31.450008
 20
-22.193024
 30
0.0
 40
4.0
100
AcDbArc
 50
180.0
 51
216.64201
1001
ACAD
1000
R13OBJECT
1002
{
1005
135
1002
}
  0
ARC
  5
39
100
AcDbEntity
  8
2D_PROFILE
100
AcDbCircle
 10
48.953003
 20
-8.141211
 30
0.0
 40
26.443358
100
AcDbArc
 50
218.438255
 51
235.438015
1001
ACAD
1000
R13OBJECT
1002
{
1005
135
1002
}
  0
ARC
  5
3A
100
AcDbEntity
  8
2D_PROFILE
100
AcDbCircle
 10
34.500008
 20
-29.081348
 30
0.0
 40
1.0
100
AcDbArc
 50
236.752576
 51
0.0
1001
ACAD
1000
R13OBJECT
1002
{
1005
135
1002
}
  0
LINE
  5
3B
100
AcDbEntity
  8
2D_PROFILE
100
AcDbLine
 10
35.500008
 20
-29.081348
 30
0.0
 11
35.500008
 21
-25.099968
 31
0.0
1001
ACAD
1000
R13OBJECT
1002
{
1005
135
1002
}
  0
ARC
  5
3C
100
AcDbEntity
  8
2D_PROFILE
100
AcDbCircle
 10
36.500008
 20
-25.099968
 30
0.0
 40
1.0
100
AcDbArc
 50
90.0
 51
180.0
1001
ACAD
1000
R13OBJECT
1002
{
1005
135
1002
}
  0
LINE
  5
3D
100
AcDbEntity
  8
2D_PROFILE
100
AcDbLine
 10
36.500008
 20
-24.099968
 30
0.0
 11
38.500008
 21
-24.099968
 31
0.0
1001
ACAD
1000
R13OBJECT
1002
{
1005
135
1002
}
  0
ARC
  5
3E
100
AcDbEntity
  8
2D_PROFILE
100
AcDbCircle
 10
38.500008
 20
-25.599968
 30
0.0
 40
1.5
100
AcDbArc
 50
0.0
 51
90.0
1001
ACAD
1000
R13OBJECT
1002
{
1005
135
1002
}
  0
LINE
  5
3F
100
AcDbEntity
  8
2D_PROFILE
100
AcDbLine
 10
40.000008
 20
-25.599968
 30
0.0
 11
40.000008
 21
-54.399968
 31
0.0
1001
ACAD
1000
R13OBJECT
1002
{
1005
135
1002
}
  0
ARC
  5
40
100
AcDbEntity
  8
2D_PROFILE
100
AcDbCircle
 10
38.500008
 20
-54.399968
 30
0.0
 40
1.5
100
AcDbArc
 50
270.0
 51
360.0
1001
ACAD
1000
R13OBJECT
1002
{
1005
135
1002
}
  0
LINE
  5
41
100
AcDbEntity
  8
2D_PROFILE
100
AcDbLine
 10
38.500008
 20
-55.899968
 30
0.0
 11
36.500008
 21
-55.899968
 31
0.0
1001
ACAD
1000
R13OBJECT
1002
{
1005
135
1002
}
  0
ARC
  5
42
100
AcDbEntity
  8
2D_PROFILE
100
AcDbCircle
 10
36.500008
 20
-54.899968
 30
0.0
 40
1.0
100
AcDbArc
 50
180.0
 51
270.0
1001
ACAD
1000
R13OBJECT
1002
{
1005
135
1002
}
  0
LINE
  5
43
100
AcDbEntity
  8
2D_PROFILE
100
AcDbLine
 10
35.500008
 20
-54.899968
 30
0.0
 11
35.500008
 21
-50.918588
 31
0.0
1001
ACAD
1000
R13OBJECT
1002
{
1005
135
1002
}
  0
ARC
  5
44
100
AcDbEntity
  8
2D_PROFILE
100
AcDbCircle
 10
34.500008
 20
-50.918588
 30
0.0
 40
1.0
100
AcDbArc
 50
0.0
 51
123.247424
1001
ACAD
1000
R13OBJECT
1002
{
1005
135
1002
}
  0
ARC
  5
45
100
AcDbEntity
  8
2D_PROFILE
100
AcDbCircle
 10
48.953003
 20
-71.858725
 30
0.0
 40
26.443358
100
AcDbArc
 50
124.561985
 51
141.561745
1001
ACAD
1000
R13OBJECT
1002
{
1005
135
1002
}
  0
ARC
  5
46
100
AcDbEntity
  8
2D_PROFILE
100
AcDbCircle
 10
31.450008
 20
-57.806912
 30
0.0
 40
4.0
100
AcDbArc
 50
143.35799
 51
180.0
1001
ACAD
1000
R13OBJECT
1002
{
1005
135
1002
}
  0
LINE
  5
47
100
AcDbEntity
  8
2D_PROFILE
100
AcDbLine
 10
27.450008
 20
-57.806912
 30
0.0
 11
27.450008
 21
-62.193024
 31
0.0
1001
ACAD
1000
R13OBJECT
1002
{
1005
135
1002
}
  0
ARC
  5
48
100
AcDbEntity
  8
2D_PROFILE
100
AcDbCircle
 10
31.450008
 20
-62.193024
 30
0.0
 40
4.0
100
AcDbArc
 50
180.0
 51
216.64201
1001
ACAD
1000
R13OBJECT
1002
{
1005
135
1002
}
  0
ARC
  5
49
100
AcDbEntity
  8
2D_PROFILE
100
AcDbCircle
 10
48.953003
 20
-48.141211
 30
0.0
 40
26.443358
100
AcDbArc
 50
218.438255
 51
235.438015
1001
ACAD
1000
R13OBJECT
1002
{
1005
135
1002
}
  0
ARC
  5
4A
100
AcDbEntity
  8
2D_PROFILE
100
AcDbCircle
 10
34.500008
 20
-69.081348
 30
0.0
 40
1.0
100
AcDbArc
 50
236.752576
 51
360.0
1001
ACAD
1000
R13OBJECT
1002
{
1005
135
1002
}
  0
LINE
  5
4B
100
AcDbEntity
  8
2D_PROFILE
100
AcDbLine
 10
35.500008
 20
-69.081348
 30
0.0
 11
35.500008
 21
-65.099968
 31
0.0
1001
ACAD
1000
R13OBJECT
1002
{
1005
135
1002
}
  0
ARC
  5
4C
100
AcDbEntity
  8
2D_PROFILE
100
AcDbCircle
 10
36.500008
 20
-65.099968
 30
0.0
 40
1.0
100
AcDbArc
 50
90.0
 51
180.0
1001
ACAD
1000
R13OBJECT
1002
{
1005
135
1002
}
  0
LINE
  5
4D
100
AcDbEntity
  8
2D_PROFILE
100
AcDbLine
 10
36.500008
 20
-64.099968
 30
0.0
 11
38.500008
 21
-64.099968
 31
0.0
1001
ACAD
1000
R13OBJECT
1002
{
1005
135
1002
}
  0
ARC
  5
4E
100
AcDbEntity
  8
2D_PROFILE
100
AcDbCircle
 10
38.500008
 20
-65.599968
 30
0.0
 40
1.5
100
AcDbArc
 50
0.0
 51
90.0
1001
ACAD
1000
R13OBJECT
1002
{
1005
135
1002
}
  0
LINE
  5
4F
100
AcDbEntity
  8
2D_PROFILE
100
AcDbLine
 10
40.000008
 20
-65.599968
 30
0.0
 11
40.000008
 21
-75.999968
 31
0.0
1001
ACAD
1000
R13OBJECT
1002
{
1005
135
1002
}
  0
ARC
  5
50
100
AcDbEntity
  8
2D_PROFILE
100
AcDbCircle
 10
36.000008
 20
-75.999968
 30
0.0
 40
4.0
100
AcDbArc
 50
270.0
 51
0.0
1001
ACAD
1000
R13OBJECT
1002
{
1005
135
1002
}
  0
LINE
  5
51
100
AcDbEntity
  8
2D_PROFILE
100
AcDbLine
 10
36.000008
 20
-79.999968
 30
0.0
 11
25.600008
 21
-79.999968
 31
0.0
1001
ACAD
1000
R13OBJECT
1002
{
1005
135
1002
}
  0
ARC
  5
52
100
AcDbEntity
  8
2D_PROFILE
100
AcDbCircle
 10
25.600008
 20
-78.499968
 30
0.0
 40
1.5
100
AcDbArc
 50
180.0
 51
270.0
1001
ACAD
1000
R13OBJECT
1002
{
1005
135
1002
}
  0
LINE
  5
53
100
AcDbEntity
  8
2D_PROFILE
100
AcDbLine
 10
24.100008
 20
-78.499968
 30
0.0
 11
24.100008
 21
-76.499968
 31
0.0
1001
ACAD
1000
R13OBJECT
1002
{
1005
135
1002
}
  0
ARC
  5
54
100
AcDbEntity
  8
2D_PROFILE
100
AcDbCircle
 10
25.100008
 20
-76.499968
 30
0.0
 40
1.0
100
AcDbArc
 50
90.0
 51
180.0
1001
ACAD
1000
R13OBJECT
1002
{
1005
135
1002
}
  0
LINE
  5
55
100
AcDbEntity
  8
2D_PROFILE
100
AcDbLine
 10
25.100008
 20
-75.499968
 30
0.0
 11
29.081388
 21
-75.499968
 31
0.0
1001
ACAD
1000
R13OBJECT
1002
{
1005
135
1002
}
  0
ARC
  5
56
100
AcDbEntity
  8
2D_PROFILE
100
AcDbCircle
 10
29.081388
 20
-74.499968
 30
0.0
 40
1.0
100
AcDbArc
 50
270.0
 51
33.247424
1001
ACAD
1000
R13OBJECT
1002
{
1005
135
1002
}
  0
ARC
  5
57
100
AcDbEntity
  8
2D_PROFILE
100
AcDbCircle
 10
8.141251
 20
-88.952963
 30
0.0
 40
26.443358
100
AcDbArc
 50
34.561985
 51
51.561745
1001
ACAD
1000
R13OBJECT
1002
{
1005
135
1002
}
  0
ARC
  5
58
100
AcDbEntity
  8
2D_PROFILE
100
AcDbCircle
 10
22.193064
 20
-71.449968
 30
0.0
 40
4.0
100
AcDbArc
 50
53.35799
 51
90.0
1001
ACAD
1000
R13OBJECT
1002
{
1005
135
1002
}
  0
LINE
  5
59
100
AcDbEntity
  8
2D_PROFILE
100
AcDbLine
 10
22.193064
 20
-67.449968
 30
0.0
 11
17.806952
 21
-67.449968
 31
0.0
1001
ACAD
1000
R13OBJECT
1002
{
1005
135
1002
}
  0
ARC
  5
5A
100
AcDbEntity
  8
2D_PROFILE
100
AcDbCircle
 10
17.806952
 20
-71.449968
 30
0.0
 40
4.0
100
AcDbArc
 50
90.0
 51
126.64201
1001
ACAD
1000
R13OBJECT
1002
{
1005
135
1002
}
  0
ARC
  5
5B
100
AcDbEntity
  8
2D_PROFILE
100
AcDbCircle
 10
31.858765
 20
-88.952963
 30
0.0
 40
26.443358
100
AcDbArc
 50
128.438255
 51
145.438015
1001
ACAD
1000
R13OBJECT
1002
{
1005
135
1002
}
  0
ARC
  5
5C
100
AcDbEntity
  8
2D_PROFILE
100
AcDbCircle
 10
10.918628
 20
-74.499968
 30
0.0
 40
1.0
100
AcDbArc
 50
146.752576
 51
270.0
1001
ACAD
1000
R13OBJECT
1002
{
1005
135
1002
}
  0
LINE
  5
5D
100
AcDbEntity
  8
2D_PROFILE
100
AcDbLine
 10
10.918628
 20
-75.499968
 30
0.0
 11
14.900008
 21
-75.499968
 31
0.0
1001
ACAD
1000
R13OBJECT
1002
{
1005
135
1002
}
  0
ARC
  5
5E
100
AcDbEntity
  8
2D_PROFILE
100
AcDbCircle
 10
14.900008
 20
-76.499968
 30
0.0
 40
1.0
100
AcDbArc
 50
0.0
 51
90.0
1001
ACAD
1000
R13OBJECT
1002
{
1005
135
1002
}
  0
LINE
  5
5F
100
AcDbEntity
  8
2D_PROFILE
100
AcDbLine
 10
15.900008
 20
-76.499968
 30
0.0
 11
15.900008
 21
-78.499968
 31
0.0
1001
ACAD
1000
R13OBJECT
1002
{
1005
135
1002
}
  0
ARC
  5
60
100
AcDbEntity
  8
2D_PROFILE
100
AcDbCircle
 10
14.400008
 20
-78.499968
 30
0.0
 40
1.5
100
AcDbArc
 50
270.0
 51
0.0
1001
ACAD
1000
R13OBJECT
1002
{
1005
135
1002
}
  0
LINE
  5
61
100
AcDbEntity
  8
2D_PROFILE
100
AcDbLine
 10
14.400008
 20
-79.999968
 30
0.0
 11
-14.399992
 21
-79.999968
 31
0.0
1001
ACAD
1000
R13OBJECT
1002
{
1005
135
1002
}
  0
ARC
  5
62
100
AcDbEntity
  8
2D_PROFILE
100
AcDbCircle
 10
-14.399992
 20
-78.499968
 30
0.0
 40
1.5
100
AcDbArc
 50
180.0
 51
270.0
1001
ACAD
1000
R13OBJECT
1002
{
1005
135
1002
}
  0
LINE
  5
63
100
AcDbEntity
  8
2D_PROFILE
100
AcDbLine
 10
-15.899992
 20
-78.499968
 30
0.0
 11
-15.899992
 21
-76.499968
 31
0.0
1001
ACAD
1000
R13OBJECT
1002
{
1005
135
1002
}
  0
ARC
  5
64
100
AcDbEntity
  8
2D_PROFILE
100
AcDbCircle
 10
-14.899992
 20
-76.499968
 30
0.0
 40
1.0
100
AcDbArc
 50
90.0
 51
180.0
1001
ACAD
1000
R13OBJECT
1002
{
1005
135
1002
}
  0
LINE
  5
65
100
AcDbEntity
  8
2D_PROFILE
100
AcDbLine
 10
-14.899992
 20
-75.499968
 30
0.0
 11
-10.918612
 21
-75.499968
 31
0.0
1001
ACAD
1000
R13OBJECT
1002
{
1005
135
1002
}
  0
ARC
  5
66
100
AcDbEntity
  8
2D_PROFILE
100
AcDbCircle
 10
-10.918612
 20
-74.499968
 30
0.0
 40
1.0
100
AcDbArc
 50
270.0
 51
33.247424
1001
ACAD
1000
R13OBJECT
1002
{
1005
135
1002
}
  0
ARC
  5
67
100
AcDbEntity
  8
2D_PROFILE
100
AcDbCircle
 10
-31.858749
 20
-88.952963
 30
0.0
 40
26.443358
100
AcDbArc
 50
34.561985
 51
51.561745
1001
ACAD
1000
R13OBJECT
1002
{
1005
135
1002
}
  0
ARC
  5
68
100
AcDbEntity
  8
2D_PROFILE
100
AcDbCircle
 10
-17.806936
 20
-71.449968
 30
0.0
 40
4.0
100
AcDbArc
 50
53.35799
 51
90.0
1001
ACAD
1000
R13OBJECT
1002
{
1005
135
1002
}
  0
LINE
  5
69
100
AcDbEntity
  8
2D_PROFILE
100
AcDbLine
 10
-17.806936
 20
-67.449968
 30
0.0
 11
-22.193048
 21
-67.449968
 31
0.0
1001
ACAD
1000
R13OBJECT
1002
{
1005
135
1002
}
  0
ARC
  5
6A
100
AcDbEntity
  8
2D_PROFILE
100
AcDbCircle
 10
-22.193048
 20
-71.449968
 30
0.0
 40
4.0
100
AcDbArc
 50
90.0
 51
126.64201
1001
ACAD
1000
R13OBJECT
1002
{
1005
135
1002
}
  0
ARC
  5
6B
100
AcDbEntity
  8
2D_PROFILE
100
AcDbCircle
 10
-8.141235
 20
-88.952963
 30
0.0
 40
26.443358
100
AcDbArc
 50
128.438255
 51
145.438015
1001
ACAD
1000
R13OBJECT
1002
{
1005
135
1002
}
  0
ARC
  5
6C
100
AcDbEntity
  8
2D_PROFILE
100
AcDbCircle
 10
-29.081372
 20
-74.499968
 30
0.0
 40
1.0
100
AcDbArc
 50
146.752576
 51
270.0
1001
ACAD
1000
R13OBJECT
1002
{
1005
135
1002
}
  0
LINE
  5
6D
100
AcDbEntity
  8
2D_PROFILE
100
AcDbLine
 10
-29.081372
 20
-75.499968
 30
0.0
 11
-25.099992
 21
-75.499968
 31
0.0
1001
ACAD
1000
R13OBJECT
1002
{
1005
135
1002
}
  0
ARC
  5
6E
100
AcDbEntity
  8
2D_PROFILE
100
AcDbCircle
 10
-25.099992
 20
-76.499968
 30
0.0
 40
1.0
100
AcDbArc
 50
0.0
 51
90.0
1001
ACAD
1000
R13OBJECT
1002
{
1005
135
1002
}
  0
LINE
  5
6F
100
AcDbEntity
  8
2D_PROFILE
100
AcDbLine
 10
-24.099992
 20
-76.499968
 30
0.0
 11
-24.099992
 21
-78.499968
 31
0.0
1001
ACAD
1000
R13OBJECT
1002
{
1005
135
1002
}
  0
ARC
  5
70
100
AcDbEntity
  8
2D_PROFILE
100
AcDbCircle
 10
-25.599992
 20
-78.499968
 30
0.0
 40
1.5
100
AcDbArc
 50
270.0
 51
0.0
1001
ACAD
1000
R13OBJECT
1002
{
1005
135
1002
}
  0
LINE
  5
71
100
AcDbEntity
  8
2D_PROFILE
100
AcDbLine
 10
-25.599992
 20
-79.999968
 30
0.0
 11
-35.999992
 21
-79.999968
 31
0.0
1001
ACAD
1000
R13OBJECT
1002
{
1005
135
1002
}
  0
ARC
  5
72
100
AcDbEntity
  8
2D_PROFILE
100
AcDbCircle
 10
-35.999992
 20
-75.999968
 30
0.0
 40
4.0
100
AcDbArc
 50
180.0
 51
270.0
1001
ACAD
1000
R13OBJECT
1002
{
1005
135
1002
}
  0
LINE
  5
73
100
AcDbEntity
  8
2D_PROFILE
100
AcDbLine
 10
-39.999992
 20
-75.999968
 30
0.0
 11
-39.999992
 21
-65.599968
 31
0.0
1001
ACAD
1000
R13OBJECT
1002
{
1005
135
1002
}
  0
ARC
  5
74
100
AcDbEntity
  8
2D_PROFILE
100
AcDbCircle
 10
-38.499992
 20
-65.599968
 30
0.0
 40
1.5
100
AcDbArc
 50
90.0
 51
180.0
1001
ACAD
1000
R13OBJECT
1002
{
1005
135
1002
}
  0
LINE
  5
75
100
AcDbEntity
  8
2D_PROFILE
100
AcDbLine
 10
-38.499992
 20
-64.099968
 30
0.0
 11
-36.499992
 21
-64.099968
 31
0.0
1001
ACAD
1000
R13OBJECT
1002
{
1005
135
1002
}
  0
ARC
  5
76
100
AcDbEntity
  8
2D_PROFILE
100
AcDbCircle
 10
-36.499992
 20
-65.099968
 30
0.0
 40
1.0
100
AcDbArc
 50
0.0
 51
90.0
1001
ACAD
1000
R13OBJECT
1002
{
1005
135
1002
}
  0
LINE
  5
77
100
AcDbEntity
  8
2D_PROFILE
100
AcDbLine
 10
-35.499992
 20
-65.099968
 30
0.0
 11
-35.499992
 21
-69.081348
 31
0.0
1001
ACAD
1000
R13OBJECT
1002
{
1005
135
1002
}
  0
ARC
  5
78
100
AcDbEntity
  8
2D_PROFILE
100
AcDbCircle
 10
-34.499992
 20
-69.081348
 30
0.0
 40
1.0
100
AcDbArc
 50
180.0
 51
303.247424
1001
ACAD
1000
R13OBJECT
1002
{
1005
135
1002
}
  0
ARC
  5
79
100
AcDbEntity
  8
2D_PROFILE
100
AcDbCircle
 10
-48.952987
 20
-48.141211
 30
0.0
 40
26.443358
100
AcDbArc
 50
304.561985
 51
321.561745
1001
ACAD
1000
R13OBJECT
1002
{
1005
135
1002
}
  0
ARC
  5
7A
100
AcDbEntity
  8
2D_PROFILE
100
AcDbCircle
 10
-31.449992
 20
-62.193024
 30
0.0
 40
4.0
100
AcDbArc
 50
323.35799
 51
0.0
1001
ACAD
1000
R13OBJECT
1002
{
1005
135
1002
}
  0
LINE
  5
7B
100
AcDbEntity
  8
2D_PROFILE
100
AcDbLine
 10
-27.449992
 20
-62.193024
 30
0.0
 11
-27.449992
 21
-57.806912
 31
0.0
1001
ACAD
1000
R13OBJECT
1002
{
1005
135
1002
}
  0
ARC
  5
7C
100
AcDbEntity
  8
2D_PROFILE
100
AcDbCircle
 10
-31.449992
 20
-57.806912
 30
0.0
 40
4.0
100
AcDbArc
 50
360.0
 51
36.64201
1001
ACAD
1000
R13OBJECT
1002
{
1005
135
1002
}
  0
ARC
  5
7D
100
AcDbEntity
  8
2D_PROFILE
100
AcDbCircle
 10
-48.952987
 20
-71.858725
 30
0.0
 40
26.443358
100
AcDbArc
 50
38.438255
 51
55.438015
1001
ACAD
1000
R13OBJECT
1002
{
1005
135
1002
}
  0
ARC
  5
7E
100
AcDbEntity
  8
2D_PROFILE
100
AcDbCircle
 10
-34.499992
 20
-50.918588
 30
0.0
 40
1.0
100
AcDbArc
 50
56.752576
 51
180.0
1001
ACAD
1000
R13OBJECT
1002
{
1005
135
1002
}
  0
LINE
  5
7F
100
AcDbEntity
  8
2D_PROFILE
100
AcDbLine
 10
-35.499992
 20
-50.918588
 30
0.0
 11
-35.499992
 21
-54.899968
 31
0.0
1001
ACAD
1000
R13OBJECT
1002
{
1005
135
1002
}
  0
ARC
  5
80
100
AcDbEntity
  8
2D_PROFILE
100
AcDbCircle
 10
-36.499992
 20
-54.899968
 30
0.0
 40
1.0
100
AcDbArc
 50
270.0
 51
360.0
1001
ACAD
1000
R13OBJECT
1002
{
1005
135
1002
}
  0
LINE
  5
81
100
AcDbEntity
  8
2D_PROFILE
100
AcDbLine
 10
-36.499992
 20
-55.899968
 30
0.0
 11
-38.499992
 21
-55.899968
 31
0.0
1001
ACAD
1000
R13OBJECT
1002
{
1005
135
1002
}
  0
ARC
  5
82
100
AcDbEntity
  8
2D_PROFILE
100
AcDbCircle
 10
-38.499992
 20
-54.399968
 30
0.0
 40
1.5
100
AcDbArc
 50
180.0
 51
270.0
1001
ACAD
1000
R13OBJECT
1002
{
1005
135
1002
}
  0
LINE
  5
83
100
AcDbEntity
  8
2D_PROFILE
100
AcDbLine
 10
-39.999992
 20
-54.399968
 30
0.0
 11
-39.999992
 21
-25.599968
 31
0.0
1001
ACAD
1000
R13OBJECT
1002
{
1005
135
1002
}
  0
ARC
  5
84
100
AcDbEntity
  8
2D_PROFILE
100
AcDbCircle
 10
-38.499992
 20
-25.599968
 30
0.0
 40
1.5
100
AcDbArc
 50
90.0
 51
180.0
1001
ACAD
1000
R13OBJECT
1002
{
1005
135
1002
}
  0
LINE
  5
85
100
AcDbEntity
  8
2D_PROFILE
100
AcDbLine
 10
-38.499992
 20
-24.099968
 30
0.0
 11
-36.499992
 21
-24.099968
 31
0.0
1001
ACAD
1000
R13OBJECT
1002
{
1005
135
1002
}
  0
ARC
  5
86
100
AcDbEntity
  8
2D_PROFILE
100
AcDbCircle
 10
-36.499992
 20
-25.099968
 30
0.0
 40
1.0
100
AcDbArc
 50
0.0
 51
90.0
1001
ACAD
1000
R13OBJECT
1002
{
1005
135
1002
}
  0
LINE
  5
87
100
AcDbEntity
  8
2D_PROFILE
100
AcDbLine
 10
-35.499992
 20
-25.099968
 30
0.0
 11
-35.499992
 21
-29.081348
 31
0.0
1001
ACAD
1000
R13OBJECT
1002
{
1005
135
1002
}
  0
ARC
  5
88
100
AcDbEntity
  8
2D_PROFILE
100
AcDbCircle
 10
-34.499992
 20
-29.081348
 30
0.0
 40
1.0
100
AcDbArc
 50
180.0
 51
303.247424
1001
ACAD
1000
R13OBJECT
1002
{
1005
135
1002
}
  0
ARC
  5
89
100
AcDbEntity
  8
2D_PROFILE
100
AcDbCircle
 10
-48.952987
 20
-8.141211
 30
0.0
 40
26.443358
100
AcDbArc
 50
304.561985
 51
321.561745
1001
ACAD
1000
R13OBJECT
1002
{
1005
135
1002
}
  0
ARC
  5
8A
100
AcDbEntity
  8
2D_PROFILE
100
AcDbCircle
 10
-31.449992
 20
-22.193024
 30
0.0
 40
4.0
100
AcDbArc
 50
323.35799
 51
0.0
1001
ACAD
1000
R13OBJECT
1002
{
1005
135
1002
}
  0
LINE
  5
8B
100
AcDbEntity
  8
2D_PROFILE
100
AcDbLine
 10
-27.449992
 20
-22.193024
 30
0.0
 11
-27.449992
 21
-17.806912
 31
0.0
1001
ACAD
1000
R13OBJECT
1002
{
1005
135
1002
}
  0
ARC
  5
8C
100
AcDbEntity
  8
2D_PROFILE
100
AcDbCircle
 10
-31.449992
 20
-17.806912
 30
0.0
 40
4.0
100
AcDbArc
 50
0.0
 51
36.64201
1001
ACAD
1000
R13OBJECT
1002
{
1005
135
1002
}
  0
ARC
  5
8D
100
AcDbEntity
  8
2D_PROFILE
100
AcDbCircle
 10
-48.952987
 20
-31.858725
 30
0.0
 40
26.443358
100
AcDbArc
 50
38.438255
 51
55.438015
1001
ACAD
1000
R13OBJECT
1002
{
1005
135
1002
}
  0
ARC
  5
8E
100
AcDbEntity
  8
2D_PROFILE
100
AcDbCircle
 10
-34.499992
 20
-10.918588
 30
0.0
 40
1.0
100
AcDbArc
 50
56.752576
 51
180.0
1001
ACAD
1000
R13OBJECT
1002
{
1005
135
1002
}
  0
LINE
  5
8F
100
AcDbEntity
  8
2D_PROFILE
100
AcDbLine
 10
-35.499992
 20
-10.918588
 30
0.0
 11
-35.499992
 21
-14.899968
 31
0.0
1001
ACAD
1000
R13OBJECT
1002
{
1005
135
1002
}
  0
ARC
  5
90
100
AcDbEntity
  8
2D_PROFILE
100
AcDbCircle
 10
-36.499992
 20
-14.899968
 30
0.0
 40
1.0
100
AcDbArc
 50
270.0
 51
0.0
1001
ACAD
1000
R13OBJECT
1002
{
1005
135
1002
}
  0
LINE
  5
91
100
AcDbEntity
  8
2D_PROFILE
100
AcDbLine
 10
-36.499992
 20
-15.899968
 30
0.0
 11
-38.499992
 21
-15.899968
 31
0.0
1001
ACAD
1000
R13OBJECT
1002
{
1005
135
1002
}
  0
ARC
  5
92
100
AcDbEntity
  8
2D_PROFILE
100
AcDbCircle
 10
-38.499992
 20
-14.399968
 30
0.0
 40
1.5
100
AcDbArc
 50
180.0
 51
270.0
1001
ACAD
1000
R13OBJECT
1002
{
1005
135
1002
}
  0
LINE
  5
93
100
AcDbEntity
  8
2D_PROFILE
100
AcDbLine
 10
-39.999992
 20
-14.399968
 30
0.0
 11
-39.999992
 21
14.400032
 31
0.0
1001
ACAD
1000
R13OBJECT
1002
{
1005
135
1002
}
  0
ARC
  5
94
100
AcDbEntity
  8
2D_PROFILE
100
AcDbCircle
 10
-38.499992
 20
14.400032
 30
0.0
 40
1.5
100
AcDbArc
 50
90.0
 51
180.0
1001
ACAD
1000
R13OBJECT
1002
{
1005
135
1002
}
  0
LINE
  5
95
100
AcDbEntity
  8
2D_PROFILE
100
AcDbLine
 10
-38.499992
 20
15.900032
 30
0.0
 11
-36.499992
 21
15.900032
 31
0.0
1001
ACAD
1000
R13OBJECT
1002
{
1005
135
1002
}
  0
ARC
  5
96
100
AcDbEntity
  8
2D_PROFILE
100
AcDbCircle
 10
-36.499992
 20
14.900032
 30
0.0
 40
1.0
100
AcDbArc
 50
0.0
 51
90.0
1001
ACAD
1000
R13OBJECT
1002
{
1005
135
1002
}
  0
LINE
  5
97
100
AcDbEntity
  8
2D_PROFILE
100
AcDbLine
 10
-35.499992
 20
14.900032
 30
0.0
 11
-35.499992
 21
10.918652
 31
0.0
1001
ACAD
1000
R13OBJECT
1002
{
1005
135
1002
}
  0
ARC
  5
98
100
AcDbEntity
  8
2D_PROFILE
100
AcDbCircle
 10
-34.499992
 20
10.918652
 30
0.0
 40
1.0
100
AcDbArc
 50
180.0
 51
303.247424
1001
ACAD
1000
R13OBJECT
1002
{
1005
135
1002
}
  0
ARC
  5
99
100
AcDbEntity
  8
2D_PROFILE
100
AcDbCircle
 10
-48.952987
 20
31.858789
 30
0.0
 40
26.443358
100
AcDbArc
 50
304.561985
 51
321.561745
1001
ACAD
1000
R13OBJECT
1002
{
1005
135
1002
}
  0
ARC
  5
9A
100
AcDbEntity
  8
2D_PROFILE
100
AcDbCircle
 10
-31.449992
 20
17.806976
 30
0.0
 40
4.0
100
AcDbArc
 50
323.35799
 51
0.0
1001
ACAD
1000
R13OBJECT
1002
{
1005
135
1002
}
  0
LINE
  5
9B
100
AcDbEntity
  8
2D_PROFILE
100
AcDbLine
 10
-27.449992
 20
17.806976
 30
0.0
 11
-27.449992
 21
22.193088
 31
0.0
1001
ACAD
1000
R13OBJECT
1002
{
1005
135
1002
}
  0
ARC
  5
9C
100
AcDbEntity
  8
2D_PROFILE
100
AcDbCircle
 10
-31.449992
 20
22.193088
 30
0.0
 40
4.0
100
AcDbArc
 50
0.0
 51
36.64201
1001
ACAD
1000
R13OBJECT
1002
{
1005
135
1002
}
  0
ARC
  5
9D
100
AcDbEntity
  8
2D_PROFILE
100
AcDbCircle
 10
-48.952987
 20
8.141275
 30
0.0
 40
26.443358
100
AcDbArc
 50
38.438255
 51
55.438015
1001
ACAD
1000
R13OBJECT
1002
{
1005
135
1002
}
  0
ARC
  5
9E
100
AcDbEntity
  8
2D_PROFILE
100
AcDbCircle
 10
-34.499992
 20
29.081412
 30
0.0
 40
1.0
100
AcDbArc
 50
56.752576
 51
180.0
1001
ACAD
1000
R13OBJECT
1002
{
1005
135
1002
}
  0
LINE
  5
9F
100
AcDbEntity
  8
2D_PROFILE
100
AcDbLine
 10
-35.499992
 20
29.081412
 30
0.0
 11
-35.499992
 21
25.100032
 31
0.0
1001
ACAD
1000
R13OBJECT
1002
{
1005
135
1002
}
  0
ARC
  5
A0
100
AcDbEntity
  8
2D_PROFILE
100
AcDbCircle
 10
-36.499992
 20
25.100032
 30
0.0
 40
1.0
100
AcDbArc
 50
270.0
 51
360.0
1001
ACAD
1000
R13OBJECT
1002
{
1005
135
1002
}
  0
LINE
  5
A1
100
AcDbEntity
  8
2D_PROFILE
100
AcDbLine
 10
-36.499992
 20
24.100032
 30
0.0
 11
-38.499992
 21
24.100032
 31
0.0
1001
ACAD
1000
R13OBJECT
1002
{
1005
135
1002
}
  0
ARC
  5
A2
100
AcDbEntity
  8
2D_PROFILE
100
AcDbCircle
 10
-38.499992
 20
25.600032
 30
0.0
 40
1.5
100
AcDbArc
 50
180.0
 51
270.0
1001
ACAD
1000
R13OBJECT
1002
{
1005
135
1002
}
  0
LINE
  5
A3
100
AcDbEntity
  8
2D_PROFILE
100
AcDbLine
 10
-39.999992
 20
25.600032
 30
0.0
 11
-39.999992
 21
54.400032
 31
0.0
1001
ACAD
1000
R13OBJECT
1002
{
1005
135
1002
}
  0
ARC
  5
A4
100
AcDbEntity
  8
2D_PROFILE
100
AcDbCircle
 10
-38.499992
 20
54.400032
 30
0.0
 40
1.5
100
AcDbArc
 50
90.0
 51
180.0
1001
ACAD
1000
R13OBJECT
1002
{
1005
135
1002
}
  0
LINE
  5
A5
100
AcDbEntity
  8
2D_PROFILE
100
AcDbLine
 10
-38.499992
 20
55.900032
 30
0.0
 11
-36.499992
 21
55.900032
 31
0.0
1001
ACAD
1000
R13OBJECT
1002
{
1005
135
1002
}
  0
ARC
  5
A6
100
AcDbEntity
  8
2D_PROFILE
100
AcDbCircle
 10
-36.499992
 20
54.900032
 30
0.0
 40
1.0
100
AcDbArc
 50
0.0
 51
90.0
1001
ACAD
1000
R13OBJECT
1002
{
1005
135
1002
}
  0
LINE
  5
A7
100
AcDbEntity
  8
2D_PROFILE
100
AcDbLine
 10
-35.499992
 20
54.900032
 30
0.0
 11
-35.499992
 21
50.918652
 31
0.0
1001
ACAD
1000
R13OBJECT
1002
{
1005
135
1002
}
  0
ARC
  5
A8
100
AcDbEntity
  8
2D_PROFILE
100
AcDbCircle
 10
-34.499992
 20
50.918652
 30
0.0
 40
1.0
100
AcDbArc
 50
180.0
 51
303.247424
1001
ACAD
1000
R13OBJECT
1002
{
1005
135
1002
}
  0
ARC
  5
A9
100
AcDbEntity
  8
2D_PROFILE
100
AcDbCircle
 10
-48.952987
 20
71.858789
 30
0.0
 40
26.443358
100
AcDbArc
 50
304.561985
 51
321.561745
1001
ACAD
1000
R13OBJECT
1002
{
1005
135
1002
}
  0
ARC
  5
AA
100
AcDbEntity
  8
2D_PROFILE
100
AcDbCircle
 10
-31.449992
 20
57.806976
 30
0.0
 40
4.0
100
AcDbArc
 50
323.35799
 51
0.0
1001
ACAD
1000
R13OBJECT
1002
{
1005
135
1002
}
  0
LINE
  5
AB
100
AcDbEntity
  8
2D_PROFILE
100
AcDbLine
 10
-27.449992
 20
57.806976
 30
0.0
 11
-27.449992
 21
62.193088
 31
0.0
1001
ACAD
1000
R13OBJECT
1002
{
1005
135
1002
}
  0
ARC
  5
AC
100
AcDbEntity
  8
2D_PROFILE
100
AcDbCircle
 10
-31.449992
 20
62.193088
 30
0.0
 40
4.0
100
AcDbArc
 50
360.0
 51
36.64201
1001
ACAD
1000
R13OBJECT
1002
{
1005
135
1002
}
  0
ARC
  5
AD
100
AcDbEntity
  8
2D_PROFILE
100
AcDbCircle
 10
-48.952987
 20
48.141275
 30
0.0
 40
26.443358
100
AcDbArc
 50
38.438255
 51
55.438015
1001
ACAD
1000
R13OBJECT
1002
{
1005
135
1002
}
  0
ARC
  5
AE
100
AcDbEntity
  8
2D_PROFILE
100
AcDbCircle
 10
-34.499992
 20
69.081412
 30
0.0
 40
1.0
100
AcDbArc
 50
56.752576
 51
180.0
1001
ACAD
1000
R13OBJECT
1002
{
1005
135
1002
}
  0
LINE
  5
AF
100
AcDbEntity
  8
2D_PROFILE
100
AcDbLine
 10
-35.499992
 20
69.081412
 30
0.0
 11
-35.499992
 21
65.100032
 31
0.0
1001
ACAD
1000
R13OBJECT
1002
{
1005
135
1002
}
  0
ARC
  5
B0
100
AcDbEntity
  8
2D_PROFILE
100
AcDbCircle
 10
-36.499992
 20
65.100032
 30
0.0
 40
1.0
100
AcDbArc
 50
270.0
 51
360.0
1001
ACAD
1000
R13OBJECT
1002
{
1005
135
1002
}
  0
LINE
  5
B1
100
AcDbEntity
  8
2D_PROFILE
100
AcDbLine
 10
-36.499992
 20
64.100032
 30
0.0
 11
-38.499992
 21
64.100032
 31
0.0
1001
ACAD
1000
R13OBJECT
1002
{
1005
135
1002
}
  0
ARC
  5
B2
100
AcDbEntity
  8
2D_PROFILE
100
AcDbCircle
 10
-38.499992
 20
65.600032
 30
0.0
 40
1.5
100
AcDbArc
 50
180.0
 51
270.0
1001
ACAD
1000
R13OBJECT
1002
{
1005
135
1002
}
  0
LINE
  5
B3
100
AcDbEntity
  8
2D_PROFILE
100
AcDbLine
 10
-39.999992
 20
65.600032
 30
0.0
 11
-39.999992
 21
76.000032
 31
0.0
1001
ACAD
1000
R13OBJECT
1002
{
1005
135
1002
}
  0
ARC
  5
B4
100
AcDbEntity
  8
2D_PROFILE
100
AcDbCircle
 10
-35.999992
 20
76.000032
 30
0.0
 40
4.0
100
AcDbArc
 50
90.0
 51
180.0
1001
ACAD
1000
R13OBJECT
1002
{
1005
135
1002
}
  0
LINE
  5
B5
100
AcDbEntity
  8
2D_PROFILE
100
AcDbLine
 10
-35.999992
 20
80.000032
 30
0.0
 11
-25.599992
 21
80.000032
 31
0.0
1001
ACAD
1000
R13OBJECT
1002
{
1005
135
1002
}
  0
ARC
  5
B6
100
AcDbEntity
  8
2D_PROFILE
100
AcDbCircle
 10
-25.599992
 20
78.500032
 30
0.0
 40
1.5
100
AcDbArc
 50
360.0
 51
90.0
1001
ACAD
1000
R13OBJECT
1002
{
1005
135
1002
}
  0
LINE
  5
B7
100
AcDbEntity
  8
2D_PROFILE
100
AcDbLine
 10
-24.099992
 20
78.500032
 30
0.0
 11
-24.099992
 21
76.500032
 31
0.0
1001
ACAD
1000
R13OBJECT
1002
{
1005
135
1002
}
  0
ARC
  5
B8
100
AcDbEntity
  8
2D_PROFILE
100
AcDbCircle
 10
-25.099992
 20
76.500032
 30
0.0
 40
1.0
100
AcDbArc
 50
270.0
 51
0.0
1001
ACAD
1000
R13OBJECT
1002
{
1005
135
1002
}
  0
LINE
  5
B9
100
AcDbEntity
  8
2D_PROFILE
100
AcDbLine
 10
-25.099992
 20
75.500032
 30
0.0
 11
-29.081372
 21
75.500032
 31
0.0
1001
ACAD
1000
R13OBJECT
1002
{
1005
135
1002
}
  0
ARC
  5
BA
100
AcDbEntity
  8
2D_PROFILE
100
AcDbCircle
 10
-29.081372
 20
74.500032
 30
0.0
 40
1.0
100
AcDbArc
 50
90.0
 51
213.247424
1001
ACAD
1000
R13OBJECT
1002
{
1005
135
1002
}
  0
ARC
  5
BB
100
AcDbEntity
  8
2D_PROFILE
100
AcDbCircle
 10
-8.141235
 20
88.953027
 30
0.0
 40
26.443358
100
AcDbArc
 50
214.561985
 51
231.561745
1001
ACAD
1000
R13OBJECT
1002
{
1005
135
1002
}
  0
ARC
  5
BC
100
AcDbEntity
  8
2D_PROFILE
100
AcDbCircle
 10
-22.193048
 20
71.450032
 30
0.0
 40
4.0
100
AcDbArc
 50
233.35799
 51
270.0
1001
ACAD
1000
R13OBJECT
1002
{
1005
135
1002
}
  0
LINE
  5
BD
100
AcDbEntity
  8
2D_PROFILE
100
AcDbLine
 10
-22.193048
 20
67.450032
 30
0.0
 11
-17.806936
 21
67.450032
 31
0.0
1001
ACAD
1000
R13OBJECT
1002
{
1005
135
1002
}
  0
ARC
  5
BE
100
AcDbEntity
  8
2D_PROFILE
100
AcDbCircle
 10
-17.806936
 20
71.450032
 30
0.0
 40
4.0
100
AcDbArc
 50
270.0
 51
306.64201
1001
ACAD
1000
R13OBJECT
1002
{
1005
135
1002
}
  0
ARC
  5
BF
100
AcDbEntity
  8
2D_PROFILE
100
AcDbCircle
 10
-31.858749
 20
88.953027
 30
0.0
 40
26.443358
100
AcDbArc
 50
308.438255
 51
325.438015
1001
ACAD
1000
R13OBJECT
1002
{
1005
135
1002
}
  0
ARC
  5
C0
100
AcDbEntity
  8
2D_PROFILE
100
AcDbCircle
 10
-10.918612
 20
74.500032
 30
0.0
 40
1.0
100
AcDbArc
 50
326.752576
 51
90.0
1001
ACAD
1000
R13OBJECT
1002
{
1005
135
1002
}
  0
LINE
  5
C1
100
AcDbEntity
  8
2D_PROFILE
100
AcDbLine
 10
-10.918612
 20
75.500032
 30
0.0
 11
-14.899992
 21
75.500032
 31
0.0
1001
ACAD
1000
R13OBJECT
1002
{
1005
135
1002
}
  0
ARC
  5
C2
100
AcDbEntity
  8
2D_PROFILE
100
AcDbCircle
 10
-14.899992
 20
76.500032
 30
0.0
 40
1.0
100
AcDbArc
 50
180.0
 51
270.0
1001
ACAD
1000
R13OBJECT
1002
{
1005
135
1002
}
  0
LINE
  5
C3
100
AcDbEntity
  8
2D_PROFILE
100
AcDbLine
 10
-15.899992
 20
76.500032
 30
0.0
 11
-15.899992
 21
78.500032
 31
0.0
1001
ACAD
1000
R13OBJECT
1002
{
1005
135
1002
}
  0
ARC
  5
C4
100
AcDbEntity
  8
2D_PROFILE
100
AcDbCircle
 10
-14.399992
 20
78.500032
 30
0.0
 40
1.5
100
AcDbArc
 50
90.0
 51
180.0
1001
ACAD
1000
R13OBJECT
1002
{
1005
135
1002
}
  0
LINE
  5
C5
100
AcDbEntity
  8
2D_PROFILE
100
AcDbLine
 10
-14.399992
 20
80.000032
 30
0.0
 11
14.400008
 21
80.000032
 31
0.0
1001
ACAD
1000
R13OBJECT
1002
{
1005
135
1002
}
  0
ARC
  5
C6
100
AcDbEntity
  8
2D_PROFILE
100
AcDbCircle
 10
14.400008
 20
78.500032
 30
0.0
 40
1.5
100
AcDbArc
 50
360.0
 51
90.0
1001
ACAD
1000
R13OBJECT
1002
{
1005
135
1002
}
  0
LINE
  5
C7
100
AcDbEntity
  8
2D_PROFILE
100
AcDbLine
 10
15.900008
 20
78.500032
 30
0.0
 11
15.900008
 21
76.500032
 31
0.0
1001
ACAD
1000
R13OBJECT
1002
{
1005
135
1002
}
  0
ARC
  5
C8
100
AcDbEntity
  8
2D_PROFILE
100
AcDbCircle
 10
14.900008
 20
76.500032
 30
0.0
 40
1.0
100
AcDbArc
 50
270.0
 51
0.0
1001
ACAD
1000
R13OBJECT
1002
{
1005
135
1002
}
  0
LINE
  5
C9
100
AcDbEntity
  8
2D_PROFILE
100
AcDbLine
 10
14.900008
 20
75.500032
 30
0.0
 11
10.918628
 21
75.500032
 31
0.0
1001
ACAD
1000
R13OBJECT
1002
{
1005
135
1002
}
  0
ARC
  5
CA
100
AcDbEntity
  8
2D_PROFILE
100
AcDbCircle
 10
10.918628
 20
74.500032
 30
0.0
 40
1.0
100
AcDbArc
 50
90.0
 51
213.247424
1001
ACAD
1000
R13OBJECT
1002
{
1005
135
1002
}
  0
ARC
  5
CB
100
AcDbEntity
  8
2D_PROFILE
100
AcDbCircle
 10
31.858765
 20
88.953027
 30
0.0
 40
26.443358
100
AcDbArc
 50
214.561985
 51
231.561745
1001
ACAD
1000
R13OBJECT
1002
{
1005
135
1002
}
  0
ARC
  5
CC
100
AcDbEntity
  8
2D_PROFILE
100
AcDbCircle
 10
17.806952
 20
71.450032
 30
0.0
 40
4.0
100
AcDbArc
 50
233.35799
 51
270.0
1001
ACAD
1000
R13OBJECT
1002
{
1005
135
1002
}
  0
LINE
  5
CD
100
AcDbEntity
  8
2D_PROFILE
100
AcDbLine
 10
17.806952
 20
67.450032
 30
0.0
 11
22.193064
 21
67.450032
 31
0.0
1001
ACAD
1000
R13OBJECT
1002
{
1005
135
1002
}
  0
ARC
  5
CE
100
AcDbEntity
  8
2D_PROFILE
100
AcDbCircle
 10
22.193064
 20
71.450032
 30
0.0
 40
4.0
100
AcDbArc
 50
270.0
 51
306.64201
1001
ACAD
1000
R13OBJECT
1002
{
1005
135
1002
}
  0
ARC
  5
CF
100
AcDbEntity
  8
2D_PROFILE
100
AcDbCircle
 10
8.141251
 20
88.953027
 30
0.0
 40
26.443358
100
AcDbArc
 50
308.438255
 51
325.438015
1001
ACAD
1000
R13OBJECT
1002
{
1005
135
1002
}
  0
ARC
  5
D0
100
AcDbEntity
  8
2D_PROFILE
100
AcDbCircle
 10
29.081388
 20
74.500032
 30
0.0
 40
1.0
100
AcDbArc
 50
326.752576
 51
90.0
1001
ACAD
1000
R13OBJECT
1002
{
1005
135
1002
}
  0
LINE
  5
D1
100
AcDbEntity
  8
2D_PROFILE
100
AcDbLine
 10
29.081388
 20
75.500032
 30
0.0
 11
25.100008
 21
75.500032
 31
0.0
1001
ACAD
1000
R13OBJECT
1002
{
1005
135
1002
}
  0
ARC
  5
D2
100
AcDbEntity
  8
2D_PROFILE
100
AcDbCircle
 10
25.100008
 20
76.500032
 30
0.0
 40
1.0
100
AcDbArc
 50
180.0
 51
270.0
1001
ACAD
1000
R13OBJECT
1002
{
1005
135
1002
}
  0
LINE
  5
D3
100
AcDbEntity
  8
2D_PROFILE
100
AcDbLine
 10
24.100008
 20
76.500032
 30
0.0
 11
24.100008
 21
78.500032
 31
0.0
1001
ACAD
1000
R13OBJECT
1002
{
1005
135
1002
}
  0
ARC
  5
D4
100
AcDbEntity
  8
2D_PROFILE
100
AcDbCircle
 10
25.600008
 20
78.500032
 30
0.0
 40
1.5
100
AcDbArc
 50
90.0
 51
180.0
1001
ACAD
1000
R13OBJECT
1002
{
1005
135
1002
}
  0
LINE
  5
D5
100
AcDbEntity
  8
2D_PROFILE
100
AcDbLine
 10
25.600008
 20
80.000032
 30
0.0
 11
36.000008
 21
80.000032
 31
0.0
1001
ACAD
1000
R13OBJECT
1002
{
1005
135
1002
}
  0
ARC
  5
D6
100
AcDbEntity
  8
2D_PROFILE
100
AcDbCircle
 10
36.000008
 20
76.000032
 30
0.0
 40
4.0
100
AcDbArc
 50
360.0
 51
90.0
1001
ACAD
1000
R13OBJECT
1002
{
1005
135
1002
}
  0
LINE
  5
D7
100
AcDbEntity
  8
2D_PROFILE
100
AcDbLine
 10
40.000008
 20
76.000032
 30
0.0
 11
40.000008
 21
65.600032
 31
0.0
1001
ACAD
1000
R13OBJECT
1002
{
1005
135
1002
}
  0
ARC
  5
D8
100
AcDbEntity
  8
2D_PROFILE
100
AcDbCircle
 10
38.500008
 20
65.600032
 30
0.0
 40
1.5
100
AcDbArc
 50
270.0
 51
360.0
1001
ACAD
1000
R13OBJECT
1002
{
1005
135
1002
}
  0
LINE
  5
D9
100
AcDbEntity
  8
2D_PROFILE
100
AcDbLine
 10
38.500008
 20
64.100032
 30
0.0
 11
36.500008
 21
64.100032
 31
0.0
1001
ACAD
1000
R13OBJECT
1002
{
1005
135
1002
}
  0
ARC
  5
DA
100
AcDbEntity
  8
2D_PROFILE
100
AcDbCircle
 10
36.500008
 20
65.100032
 30
0.0
 40
1.0
100
AcDbArc
 50
180.0
 51
270.0
1001
ACAD
1000
R13OBJECT
1002
{
1005
135
1002
}
  0
LINE
  5
DB
100
AcDbEntity
  8
2D_PROFILE
100
AcDbLine
 10
35.500008
 20
65.100032
 30
0.0
 11
35.500008
 21
69.081412
 31
0.0
1001
ACAD
1000
R13OBJECT
1002
{
1005
135
1002
}
  0
ARC
  5
DC
100
AcDbEntity
  8
2D_PROFILE
100
AcDbCircle
 10
34.500008
 20
69.081412
 30
0.0
 40
1.0
100
AcDbArc
 50
0.0
 51
123.247424
1001
ACAD
1000
R13OBJECT
1002
{
1005
135
1002
}
  0
ARC
  5
DD
100
AcDbEntity
  8
2D_PROFILE
100
AcDbCircle
 10
48.953003
 20
48.141275
 30
0.0
 40
26.443358
100
AcDbArc
 50
124.561985
 51
141.561745
1001
ACAD
1000
R13OBJECT
1002
{
1005
135
1002
}
  0
ARC
  5
DE
100
AcDbEntity
  8
2D_PROFILE
100
AcDbCircle
 10
31.450008
 20
62.193088
 30
0.0
 40
4.0
100
AcDbArc
 50
143.35799
 51
180.0
1001
ACAD
1000
R13OBJECT
1002
{
1005
135
1002
}
  0
LINE
  5
DF
100
AcDbEntity
  8
2D_PROFILE
100
AcDbLine
 10
27.450008
 20
62.193088
 30
0.0
 11
27.450008
 21
57.806976
 31
0.0
1001
ACAD
1000
R13OBJECT
1002
{
1005
135
1002
}
  0
ARC
  5
E0
100
AcDbEntity
  8
2D_PROFILE
100
AcDbCircle
 10
31.450008
 20
57.806976
 30
0.0
 40
4.0
100
AcDbArc
 50
180.0
 51
216.64201
1001
ACAD
1000
R13OBJECT
1002
{
1005
135
1002
}
  0
ARC
  5
E1
100
AcDbEntity
  8
2D_PROFILE
100
AcDbCircle
 10
48.953003
 20
71.858789
 30
0.0
 40
26.443358
100
AcDbArc
 50
218.438255
 51
235.438015
1001
ACAD
1000
R13OBJECT
1002
{
1005
135
1002
}
  0
ARC
  5
E2
100
AcDbEntity
  8
2D_PROFILE
100
AcDbCircle
 10
34.500008
 20
50.918652
 30
0.0
 40
1.0
100
AcDbArc
 50
236.752576
 51
360.0
1001
ACAD
1000
R13OBJECT
1002
{
1005
135
1002
}
  0
LINE
  5
E3
100
AcDbEntity
  8
2D_PROFILE
100
AcDbLine
 10
35.500008
 20
50.918652
 30
0.0
 11
35.500008
 21
54.900032
 31
0.0
1001
ACAD
1000
R13OBJECT
1002
{
1005
135
1002
}
  0
ARC
  5
E4
100
AcDbEntity
  8
2D_PROFILE
100
AcDbCircle
 10
36.500008
 20
54.900032
 30
0.0
 40
1.0
100
AcDbArc
 50
90.0
 51
180.0
1001
ACAD
1000
R13OBJECT
1002
{
1005
135
1002
}
  0
LINE
  5
E5
100
AcDbEntity
  8
2D_PROFILE
100
AcDbLine
 10
36.500008
 20
55.900032
 30
0.0
 11
38.500008
 21
55.900032
 31
0.0
1001
ACAD
1000
R13OBJECT
1002
{
1005
135
1002
}
  0
CIRCLE
  5
E6
100
AcDbEntity
  8
2D_PROFILE
100
AcDbCircle
 10
-20.000008
 20
-19.999968
 30
0.0
 40
3.4
210
0.0
220
0.0
230
-1.0
1001
ACAD
1000
R13OBJECT
1002
{
1005
135
1002
}
  0
CIRCLE
  5
E7
100
AcDbEntity
  8
2D_PROFILE
100
AcDbCircle
 10
-35.000008
 20
-74.999968
 30
0.0
 40
2.0
210
0.0
220
0.0
230
-1.0
1001
ACAD
1000
R13OBJECT
1002
{
1005
135
1002
}
  0
CIRCLE
  5
E8
100
AcDbEntity
  8
2D_PROFILE
100
AcDbCircle
 10
-20.000008
 20
-59.999968
 30
0.0
 40
3.4
210
0.0
220
0.0
230
-1.0
1001
ACAD
1000
R13OBJECT
1002
{
1005
135
1002
}
  0
CIRCLE
  5
E9
100
AcDbEntity
  8
2D_PROFILE
100
AcDbCircle
 10
34.999992
 20
-74.999968
 30
0.0
 40
2.0
210
0.0
220
0.0
230
-1.0
1001
ACAD
1000
R13OBJECT
1002
{
1005
135
1002
}
  0
CIRCLE
  5
EA
100
AcDbEntity
  8
2D_PROFILE
100
AcDbCircle
 10
19.999992
 20
-59.999968
 30
0.0
 40
3.4
210
0.0
220
0.0
230
-1.0
1001
ACAD
1000
R13OBJECT
1002
{
1005
135
1002
}
  0
LINE
  5
EB
100
AcDbEntity
  8
2D_PROFILE
100
AcDbLine
 10
-23.925558
 20
-52.118382
 30
0.0
 11
-31.700183
 21
-46.473623
 31
0.0
1001
ACAD
1000
R13OBJECT
1002
{
1005
135
1002
}
  0
ARC
  5
EC
100
AcDbEntity
  8
2D_PROFILE
100
AcDbCircle
 10
22.75051
 20
-50.499968
 30
0.0
 40
2.0
210
0.0
220
0.0
230
-1.0
100
AcDbArc
 50
270.0
 51
305.981488
1001
ACAD
1000
R13OBJECT
1002
{
1005
135
1002
}
  0
LINE
  5
ED
100
AcDbEntity
  8
2D_PROFILE
100
AcDbLine
 10
-19.499992
 20
-52.499968
 30
0.0
 11
-22.75051
 21
-52.499968
 31
0.0
1001
ACAD
1000
R13OBJECT
1002
{
1005
135
1002
}
  0
ARC
  5
EE
100
AcDbEntity
  8
2D_PROFILE
100
AcDbCircle
 10
-19.499992
 20
-59.499968
 30
0.0
 40
7.0
100
AcDbArc
 50
0.0
 51
90.0
1001
ACAD
1000
R13OBJECT
1002
{
1005
135
1002
}
  0
LINE
  5
EF
100
AcDbEntity
  8
2D_PROFILE
100
AcDbLine
 10
-12.499992
 20
-62.750486
 30
0.0
 11
-12.499992
 21
-59.499968
 31
0.0
1001
ACAD
1000
R13OBJECT
1002
{
1005
135
1002
}
  0
ARC
  5
F0
100
AcDbEntity
  8
2D_PROFILE
100
AcDbCircle
 10
10.499992
 20
-62.750486
 30
0.0
 40
2.0
210
0.0
220
0.0
230
-1.0
100
AcDbArc
 50
324.018512
 51
0.0
1001
ACAD
1000
R13OBJECT
1002
{
1005
135
1002
}
  0
LINE
  5
F1
100
AcDbEntity
  8
2D_PROFILE
100
AcDbLine
 10
-6.473647
 20
-71.700159
 30
0.0
 11
-12.118406
 21
-63.925534
 31
0.0
1001
ACAD
1000
R13OBJECT
1002
{
1005
135
1002
}
  0
ARC
  5
F2
100
AcDbEntity
  8
2D_PROFILE
100
AcDbCircle
 10
-0.000008
 20
-66.999968
 30
0.0
 40
8.0
210
0.0
220
0.0
230
-1.0
100
AcDbArc
 50
215.981488
 51
324.018512
1001
ACAD
1000
R13OBJECT
1002
{
1005
135
1002
}
  0
LINE
  5
F3
100
AcDbEntity
  8
2D_PROFILE
100
AcDbLine
 10
12.118422
 20
-63.925534
 30
0.0
 11
6.473663
 21
-71.700159
 31
0.0
1001
ACAD
1000
R13OBJECT
1002
{
1005
135
1002
}
  0
ARC
  5
F4
100
AcDbEntity
  8
2D_PROFILE
100
AcDbCircle
 10
-10.500008
 20
-62.750486
 30
0.0
 40
2.0
210
0.0
220
0.0
230
-1.0
100
AcDbArc
 50
180.0
 51
215.981488
1001
ACAD
1000
R13OBJECT
1002
{
1005
135
1002
}
  0
LINE
  5
F5
100
AcDbEntity
  8
2D_PROFILE
100
AcDbLine
 10
12.500008
 20
-59.499968
 30
0.0
 11
12.500008
 21
-62.750486
 31
0.0
1001
ACAD
1000
R13OBJECT
1002
{
1005
135
1002
}
  0
ARC
  5
F6
100
AcDbEntity
  8
2D_PROFILE
100
AcDbCircle
 10
19.500008
 20
-59.499968
 30
0.0
 40
7.0
100
AcDbArc
 50
90.0
 51
180.0
1001
ACAD
1000
R13OBJECT
1002
{
1005
135
1002
}
  0
LINE
  5
F7
100
AcDbEntity
  8
2D_PROFILE
100
AcDbLine
 10
22.750526
 20
-52.499968
 30
0.0
 11
19.500008
 21
-52.499968
 31
0.0
1001
ACAD
1000
R13OBJECT
1002
{
1005
135
1002
}
  0
ARC
  5
F8
100
AcDbEntity
  8
2D_PROFILE
100
AcDbCircle
 10
-22.750526
 20
-50.499968
 30
0.0
 40
2.0
210
0.0
220
0.0
230
-1.0
100
AcDbArc
 50
234.018512
 51
270.0
1001
ACAD
1000
R13OBJECT
1002
{
1005
135
1002
}
  0
LINE
  5
F9
100
AcDbEntity
  8
2D_PROFILE
100
AcDbLine
 10
31.700199
 20
-46.473623
 30
0.0
 11
23.925573
 21
-52.118382
 31
0.0
1001
ACAD
1000
R13OBJECT
1002
{
1005
135
1002
}
  0
ARC
  5
FA
100
AcDbEntity
  8
2D_PROFILE
100
AcDbCircle
 10
-27.000008
 20
-39.999968
 30
0.0
 40
8.0
210
0.0
220
0.0
230
-1.0
100
AcDbArc
 50
125.981488
 51
234.018512
1001
ACAD
1000
R13OBJECT
1002
{
1005
135
1002
}
  0
LINE
  5
FB
100
AcDbEntity
  8
2D_PROFILE
100
AcDbLine
 10
23.925573
 20
-27.881554
 30
0.0
 11
31.700199
 21
-33.526313
 31
0.0
1001
ACAD
1000
R13OBJECT
1002
{
1005
135
1002
}
  0
ARC
  5
FC
100
AcDbEntity
  8
2D_PROFILE
100
AcDbCircle
 10
-22.750526
 20
-29.499968
 30
0.0
 40
2.0
210
0.0
220
0.0
230
-1.0
100
AcDbArc
 50
90.0
 51
125.981488
1001
ACAD
1000
R13OBJECT
1002
{
1005
135
1002
}
  0
LINE
  5
FD
100
AcDbEntity
  8
2D_PROFILE
100
AcDbLine
 10
19.500008
 20
-27.499968
 30
0.0
 11
22.750526
 21
-27.499968
 31
0.0
1001
ACAD
1000
R13OBJECT
1002
{
1005
135
1002
}
  0
ARC
  5
FE
100
AcDbEntity
  8
2D_PROFILE
100
AcDbCircle
 10
19.500008
 20
-20.499968
 30
0.0
 40
7.0
100
AcDbArc
 50
180.0
 51
270.0
1001
ACAD
1000
R13OBJECT
1002
{
1005
135
1002
}
  0
LINE
  5
FF
100
AcDbEntity
  8
2D_PROFILE
100
AcDbLine
 10
12.500008
 20
-12.499968
 30
0.0
 11
12.500008
 21
-20.499968
 31
0.0
1001
ACAD
1000
R13OBJECT
1002
{
1005
135
1002
}
  0
ARC
  5
100
100
AcDbEntity
  8
2D_PROFILE
100
AcDbCircle
 10
-11.500008
 20
-12.499968
 30
0.0
 40
1.0
210
0.0
220
0.0
230
-1.0
100
AcDbArc
 50
90.0
 51
180.0
1001
ACAD
1000
R13OBJECT
1002
{
1005
135
1002
}
  0
LINE
  5
101
100
AcDbEntity
  8
2D_PROFILE
100
AcDbLine
 10
-11.499992
 20
-11.499968
 30
0.0
 11
11.500008
 21
-11.499968
 31
0.0
1001
ACAD
1000
R13OBJECT
1002
{
1005
135
1002
}
  0
ARC
  5
102
100
AcDbEntity
  8
2D_PROFILE
100
AcDbCircle
 10
11.499992
 20
-12.499968
 30
0.0
 40
1.0
210
0.0
220
0.0
230
-1.0
100
AcDbArc
 50
360.0
 51
90.0
1001
ACAD
1000
R13OBJECT
1002
{
1005
135
1002
}
  0
LINE
  5
103
100
AcDbEntity
  8
2D_PROFILE
100
AcDbLine
 10
-12.499992
 20
-20.499968
 30
0.0
 11
-12.499992
 21
-12.499968
 31
0.0
1001
ACAD
1000
R13OBJECT
1002
{
1005
135
1002
}
  0
ARC
  5
104
100
AcDbEntity
  8
2D_PROFILE
100
AcDbCircle
 10
-19.499992
 20
-20.499968
 30
0.0
 40
7.0
100
AcDbArc
 50
270.0
 51
0.0
1001
ACAD
1000
R13OBJECT
1002
{
1005
135
1002
}
  0
LINE
  5
105
100
AcDbEntity
  8
2D_PROFILE
100
AcDbLine
 10
-22.75051
 20
-27.499968
 30
0.0
 11
-19.499992
 21
-27.499968
 31
0.0
1001
ACAD
1000
R13OBJECT
1002
{
1005
135
1002
}
  0
ARC
  5
106
100
AcDbEntity
  8
2D_PROFILE
100
AcDbCircle
 10
22.75051
 20
-29.499968
 30
0.0
 40
2.0
210
0.0
220
0.0
230
-1.0
100
AcDbArc
 50
54.018512
 51
90.0
1001
ACAD
1000
R13OBJECT
1002
{
1005
135
1002
}
  0
LINE
  5
107
100
AcDbEntity
  8
2D_PROFILE
100
AcDbLine
 10
-31.700183
 20
-33.526313
 30
0.0
 11
-23.925558
 21
-27.881554
 31
0.0
1001
ACAD
1000
R13OBJECT
1002
{
1005
135
1002
}
  0
ARC
  5
108
100
AcDbEntity
  8
2D_PROFILE
100
AcDbCircle
 10
26.999992
 20
-39.999968
 30
0.0
 40
8.0
210
0.0
220
0.0
230
-1.0
100
AcDbArc
 50
305.981488
 51
54.018512
1001
ACAD
1000
R13OBJECT
1002
{
1005
135
1002
}
  0
CIRCLE
  5
109
100
AcDbEntity
  8
2D_PROFILE
100
AcDbCircle
 10
19.999992
 20
-19.999968
 30
0.0
 40
3.4
210
0.0
220
0.0
230
-1.0
1001
ACAD
1000
R13OBJECT
1002
{
1005
135
1002
}
  0
LINE
  5
10A
100
AcDbEntity
  8
2D_PROFILE
100
AcDbLine
 10
-23.399992
 20
-8.999968
 30
0.0
 11
-29.832765
 21
-5.147445
 31
0.0
1001
ACAD
1000
R13OBJECT
1002
{
1005
135
1002
}
  0
LINE
  5
10B
100
AcDbEntity
  8
2D_PROFILE
100
AcDbLine
 10
23.400008
 20
-8.999968
 30
0.0
 11
-23.399992
 21
-8.999968
 31
0.0
1001
ACAD
1000
R13OBJECT
1002
{
1005
135
1002
}
  0
LINE
  5
10C
100
AcDbEntity
  8
2D_PROFILE
100
AcDbLine
 10
29.83278
 20
-5.147445
 30
0.0
 11
23.400008
 21
-8.999968
 31
0.0
1001
ACAD
1000
R13OBJECT
1002
{
1005
135
1002
}
  0
ARC
  5
10D
100
AcDbEntity
  8
2D_PROFILE
100
AcDbCircle
 10
-26.750008
 20
0.000032
 30
0.0
 40
6.0
210
0.0
220
0.0
230
-1.0
100
AcDbArc
 50
120.916973
 51
239.083027
1001
ACAD
1000
R13OBJECT
1002
{
1005
135
1002
}
  0
LINE
  5
10E
100
AcDbEntity
  8
2D_PROFILE
100
AcDbLine
 10
23.400008
 20
9.000032
 30
0.0
 11
29.83278
 21
5.147508
 31
0.0
1001
ACAD
1000
R13OBJECT
1002
{
1005
135
1002
}
  0
LINE
  5
10F
100
AcDbEntity
  8
2D_PROFILE
100
AcDbLine
 10
-23.399992
 20
9.000032
 30
0.0
 11
23.400008
 21
9.000032
 31
0.0
1001
ACAD
1000
R13OBJECT
1002
{
1005
135
1002
}
  0
LINE
  5
110
100
AcDbEntity
  8
2D_PROFILE
100
AcDbLine
 10
-29.832765
 20
5.147508
 30
0.0
 11
-23.399992
 21
9.000032
 31
0.0
1001
ACAD
1000
R13OBJECT
1002
{
1005
135
1002
}
  0
ARC
  5
111
100
AcDbEntity
  8
2D_PROFILE
100
AcDbCircle
 10
26.749992
 20
0.000032
 30
0.0
 40
6.0
210
0.0
220
0.0
230
-1.0
100
AcDbArc
 50
300.916973
 51
59.083027
1001
ACAD
1000
R13OBJECT
1002
{
1005
135
1002
}
  0
CIRCLE
  5
112
100
AcDbEntity
  8
2D_PROFILE
100
AcDbCircle
 10
-20.000008
 20
20.000032
 30
0.0
 40
3.4
210
0.0
220
0.0
230
-1.0
1001
ACAD
1000
R13OBJECT
1002
{
1005
135
1002
}
  0
CIRCLE
  5
113
100
AcDbEntity
  8
2D_PROFILE
100
AcDbCircle
 10
19.999992
 20
20.000032
 30
0.0
 40
3.4
210
0.0
220
0.0
230
-1.0
1001
ACAD
1000
R13OBJECT
1002
{
1005
135
1002
}
  0
ARC
  5
114
100
AcDbEntity
  8
2D_PROFILE
100
AcDbCircle
 10
22.75051
 20
29.500032
 30
0.0
 40
2.0
210
0.0
220
0.0
230
-1.0
100
AcDbArc
 50
270.0
 51
305.981488
1001
ACAD
1000
R13OBJECT
1002
{
1005
135
1002
}
  0
LINE
  5
115
100
AcDbEntity
  8
2D_PROFILE
100
AcDbLine
 10
-19.499992
 20
27.500032
 30
0.0
 11
-22.75051
 21
27.500032
 31
0.0
1001
ACAD
1000
R13OBJECT
1002
{
1005
135
1002
}
  0
ARC
  5
116
100
AcDbEntity
  8
2D_PROFILE
100
AcDbCircle
 10
-19.499992
 20
20.500032
 30
0.0
 40
7.0
100
AcDbArc
 50
0.0
 51
90.0
1001
ACAD
1000
R13OBJECT
1002
{
1005
135
1002
}
  0
LINE
  5
117
100
AcDbEntity
  8
2D_PROFILE
100
AcDbLine
 10
-12.499992
 20
12.500032
 30
0.0
 11
-12.499992
 21
20.500032
 31
0.0
1001
ACAD
1000
R13OBJECT
1002
{
1005
135
1002
}
  0
ARC
  5
118
100
AcDbEntity
  8
2D_PROFILE
100
AcDbCircle
 10
11.499992
 20
12.500032
 30
0.0
 40
1.0
210
0.0
220
0.0
230
-1.0
100
AcDbArc
 50
270.0
 51
0.0
1001
ACAD
1000
R13OBJECT
1002
{
1005
135
1002
}
  0
LINE
  5
119
100
AcDbEntity
  8
2D_PROFILE
100
AcDbLine
 10
11.500008
 20
11.500032
 30
0.0
 11
-11.499992
 21
11.500032
 31
0.0
1001
ACAD
1000
R13OBJECT
1002
{
1005
135
1002
}
  0
ARC
  5
11A
100
AcDbEntity
  8
2D_PROFILE
100
AcDbCircle
 10
-11.500008
 20
12.500032
 30
0.0
 40
1.0
210
0.0
220
0.0
230
-1.0
100
AcDbArc
 50
180.0
 51
270.0
1001
ACAD
1000
R13OBJECT
1002
{
1005
135
1002
}
  0
LINE
  5
11B
100
AcDbEntity
  8
2D_PROFILE
100
AcDbLine
 10
12.500008
 20
20.500032
 30
0.0
 11
12.500008
 21
12.500032
 31
0.0
1001
ACAD
1000
R13OBJECT
1002
{
1005
135
1002
}
  0
ARC
  5
11C
100
AcDbEntity
  8
2D_PROFILE
100
AcDbCircle
 10
19.500008
 20
20.500032
 30
0.0
 40
7.0
100
AcDbArc
 50
90.0
 51
180.0
1001
ACAD
1000
R13OBJECT
1002
{
1005
135
1002
}
  0
LINE
  5
11D
100
AcDbEntity
  8
2D_PROFILE
100
AcDbLine
 10
22.750526
 20
27.500032
 30
0.0
 11
19.500008
 21
27.500032
 31
0.0
1001
ACAD
1000
R13OBJECT
1002
{
1005
135
1002
}
  0
ARC
  5
11E
100
AcDbEntity
  8
2D_PROFILE
100
AcDbCircle
 10
-22.750526
 20
29.500032
 30
0.0
 40
2.0
210
0.0
220
0.0
230
-1.0
100
AcDbArc
 50
234.018512
 51
270.0
1001
ACAD
1000
R13OBJECT
1002
{
1005
135
1002
}
  0
LINE
  5
11F
100
AcDbEntity
  8
2D_PROFILE
100
AcDbLine
 10
31.700199
 20
33.526377
 30
0.0
 11
23.925573
 21
27.881618
 31
0.0
1001
ACAD
1000
R13OBJECT
1002
{
1005
135
1002
}
  0
ARC
  5
120
100
AcDbEntity
  8
2D_PROFILE
100
AcDbCircle
 10
-27.000008
 20
40.000032
 30
0.0
 40
8.0
210
0.0
220
0.0
230
-1.0
100
AcDbArc
 50
125.981488
 51
234.018512
1001
ACAD
1000
R13OBJECT
1002
{
1005
135
1002
}
  0
LINE
  5
121
100
AcDbEntity
  8
2D_PROFILE
100
AcDbLine
 10
23.925573
 20
52.118446
 30
0.0
 11
31.700199
 21
46.473687
 31
0.0
1001
ACAD
1000
R13OBJECT
1002
{
1005
135
1002
}
  0
ARC
  5
122
100
AcDbEntity
  8
2D_PROFILE
100
AcDbCircle
 10
-22.750526
 20
50.500032
 30
0.0
 40
2.0
210
0.0
220
0.0
230
-1.0
100
AcDbArc
 50
90.0
 51
125.981488
1001
ACAD
1000
R13OBJECT
1002
{
1005
135
1002
}
  0
LINE
  5
123
100
AcDbEntity
  8
2D_PROFILE
100
AcDbLine
 10
19.500008
 20
52.500032
 30
0.0
 11
22.750526
 21
52.500032
 31
0.0
1001
ACAD
1000
R13OBJECT
1002
{
1005
135
1002
}
  0
ARC
  5
124
100
AcDbEntity
  8
2D_PROFILE
100
AcDbCircle
 10
19.500008
 20
59.500032
 30
0.0
 40
7.0
100
AcDbArc
 50
180.0
 51
270.0
1001
ACAD
1000
R13OBJECT
1002
{
1005
135
1002
}
  0
LINE
  5
125
100
AcDbEntity
  8
2D_PROFILE
100
AcDbLine
 10
12.500008
 20
62.75055
 30
0.0
 11
12.500008
 21
59.500032
 31
0.0
1001
ACAD
1000
R13OBJECT
1002
{
1005
135
1002
}
  0
ARC
  5
126
100
AcDbEntity
  8
2D_PROFILE
100
AcDbCircle
 10
-10.500008
 20
62.75055
 30
0.0
 40
2.0
210
0.0
220
0.0
230
-1.0
100
AcDbArc
 50
144.018512
 51
180.0
1001
ACAD
1000
R13OBJECT
1002
{
1005
135
1002
}
  0
LINE
  5
127
100
AcDbEntity
  8
2D_PROFILE
100
AcDbLine
 10
6.473663
 20
71.700223
 30
0.0
 11
12.118422
 21
63.925597
 31
0.0
1001
ACAD
1000
R13OBJECT
1002
{
1005
135
1002
}
  0
ARC
  5
128
100
AcDbEntity
  8
2D_PROFILE
100
AcDbCircle
 10
-0.000008
 20
67.000032
 30
0.0
 40
8.0
210
0.0
220
0.0
230
-1.0
100
AcDbArc
 50
35.981488
 51
144.018512
1001
ACAD
1000
R13OBJECT
1002
{
1005
135
1002
}
  0
LINE
  5
129
100
AcDbEntity
  8
2D_PROFILE
100
AcDbLine
 10
-12.118406
 20
63.925597
 30
0.0
 11
-6.473647
 21
71.700223
 31
0.0
1001
ACAD
1000
R13OBJECT
1002
{
1005
135
1002
}
  0
ARC
  5
12A
100
AcDbEntity
  8
2D_PROFILE
100
AcDbCircle
 10
10.499992
 20
62.75055
 30
0.0
 40
2.0
210
0.0
220
0.0
230
-1.0
100
AcDbArc
 50
0.0
 51
35.981488
1001
ACAD
1000
R13OBJECT
1002
{
1005
135
1002
}
  0
LINE
  5
12B
100
AcDbEntity
  8
2D_PROFILE
100
AcDbLine
 10
-12.499992
 20
59.500032
 30
0.0
 11
-12.499992
 21
62.75055
 31
0.0
1001
ACAD
1000
R13OBJECT
1002
{
1005
135
1002
}
  0
ARC
  5
12C
100
AcDbEntity
  8
2D_PROFILE
100
AcDbCircle
 10
-19.499992
 20
59.500032
 30
0.0
 40
7.0
100
AcDbArc
 50
270.0
 51
0.0
1001
ACAD
1000
R13OBJECT
1002
{
1005
135
1002
}
  0
LINE
  5
12D
100
AcDbEntity
  8
2D_PROFILE
100
AcDbLine
 10
-22.75051
 20
52.500032
 30
0.0
 11
-19.499992
 21
52.500032
 31
0.0
1001
ACAD
1000
R13OBJECT
1002
{
1005
135
1002
}
  0
ARC
  5
12E
100
AcDbEntity
  8
2D_PROFILE
100
AcDbCircle
 10
22.75051
 20
50.500032
 30
0.0
 40
2.0
210
0.0
220
0.0
230
-1.0
100
AcDbArc
 50
54.018512
 51
90.0
1001
ACAD
1000
R13OBJECT
1002
{
1005
135
1002
}
  0
LINE
  5
12F
100
AcDbEntity
  8
2D_PROFILE
100
AcDbLine
 10
-31.700183
 20
46.473687
 30
0.0
 11
-23.925558
 21
52.118446
 31
0.0
1001
ACAD
1000
R13OBJECT
1002
{
1005
135
1002
}
  0
ARC
  5
130
100
AcDbEntity
  8
2D_PROFILE
100
AcDbCircle
 10
26.999992
 20
40.000032
 30
0.0
 40
8.0
210
0.0
220
0.0
230
-1.0
100
AcDbArc
 50
305.981488
 51
54.018512
1001
ACAD
1000
R13OBJECT
1002
{
1005
135
1002
}
  0
LINE
  5
131
100
AcDbEntity
  8
2D_PROFILE
100
AcDbLine
 10
-23.925558
 20
27.881618
 30
0.0
 11
-31.700183
 21
33.526377
 31
0.0
1001
ACAD
1000
R13OBJECT
1002
{
1005
135
1002
}
  0
CIRCLE
  5
132
100
AcDbEntity
  8
2D_PROFILE
100
AcDbCircle
 10
19.999992
 20
60.000032
 30
0.0
 40
3.4
210
0.0
220
0.0
230
-1.0
1001
ACAD
1000
R13OBJECT
1002
{
1005
135
1002
}
  0
CIRCLE
  5
133
100
AcDbEntity
  8
2D_PROFILE
100
AcDbCircle
 10
34.999992
 20
75.000032
 30
0.0
 40
2.0
210
0.0
220
0.0
230
-1.0
1001
ACAD
1000
R13OBJECT
1002
{
1005
135
1002
}
  0
CIRCLE
  5
134
100
AcDbEntity
  8
2D_PROFILE
100
AcDbCircle
 10
-20.000008
 20
60.000032
 30
0.0
 40
3.4
210
0.0
220
0.0
230
-1.0
1001
ACAD
1000
R13OBJECT
1002
{
1005
135
1002
}
  0
CIRCLE
  5
135
100
AcDbEntity
  8
2D_PROFILE
100
AcDbCircle
 10
-35.000008
 20
75.000032
 30
0.0
 40
2.0
210
0.0
220
0.0
230
-1.0
  0
ENDSEC
  0
SECTION
  2
OBJECTS
  0
DICTIONARY
  5
1A
100
AcDbDictionary
  3
ACAD_GROUP
350
18
  3
ACAD_MLINESTYLE
350
19
  0
DICTIONARY
  5
18
102
{ACAD_REACTORS
330
1A
102
}
100
AcDbDictionary
  0
DICTIONARY
  5
19
102
{ACAD_REACTORS
330
1A
102
}
100
AcDbDictionary
  3
STANDARD
350
1C
  0
MLINESTYLE
  5
1C
102
{ACAD_REACTORS
330
19
102
}
100
AcDbMlineStyle
  2
STANDARD
 70
     0
  3

 62
   256
 51
90.0
 52
90.0
 71
     2
 49
0.5
 62
   256
  6
BYLAYER
 49
-0.5
 62
   256
  6
BYLAYER
  0
ENDSEC
  0
EOF
