ISO-10303-21;
HEADER;
/****************************************************************
 * Generated by software with PDE/Lib inside                    *
 * PDElib Version v51a, created Tue 12/06/2005                  *
 * International Technegroup Inc. (www.iti-oh.com)              *
 ****************************************************************/
FILE_DESCRIPTION((''),'2;1');
FILE_NAME('U:\\Paletti Norm\\Paletti Artikel f. Palkat\\STEP\\SL8250N.ipt.step','2007-09-10T15:14:30',(''),(''),'Autodesk Inventor 11','Autodesk Inventor 11','');
FILE_SCHEMA(('AUTOMOTIVE_DESIGN { 1 0 10303 214 1 1 1 1 }'));
ENDSEC;
DATA;
#5=APPLICATION_CONTEXT('automotive design');
#6=APPLICATION_PROTOCOL_DEFINITION('International Standard','automotive_design',2001,#5);
#7=PRODUCT_CONTEXT('',#5,'mechanical');
#8=PRODUCT('SL8250N','SL8250N',$,(#7));
#9=PRODUCT_RELATED_PRODUCT_CATEGORY('part',$,(#8));
#10=PRODUCT_DEFINITION_FORMATION('',$,#8);
#11=PRODUCT_DEFINITION_CONTEXT('part definition',#5,'design');
#12=PRODUCT_DEFINITION('',$,#10,#11);
#18=(NAMED_UNIT(*)PLANE_ANGLE_UNIT()SI_UNIT($,.RADIAN.));
#19=DIMENSIONAL_EXPONENTS(0.0,0.0,0.0,0.0,0.0,0.0,0.0);
#20=PLANE_ANGLE_MEASURE_WITH_UNIT(PLANE_ANGLE_MEASURE(0.017453292500000),#18);
#24=(CONVERSION_BASED_UNIT('DEGREE',#20)NAMED_UNIT(#19)PLANE_ANGLE_UNIT());
#28=(NAMED_UNIT(*)SI_UNIT($,.STERADIAN.)SOLID_ANGLE_UNIT());
#32=(LENGTH_UNIT()NAMED_UNIT(*)SI_UNIT(.MILLI.,.METRE.));
#34=UNCERTAINTY_MEASURE_WITH_UNIT(LENGTH_MEASURE(0.010000000000000),#32,'DISTANCE_ACCURACY_VALUE','');
#36=(GEOMETRIC_REPRESENTATION_CONTEXT(3)GLOBAL_UNCERTAINTY_ASSIGNED_CONTEXT((#34))GLOBAL_UNIT_ASSIGNED_CONTEXT((#24,#28,#32))REPRESENTATION_CONTEXT('None','None'));
#37=AXIS2_PLACEMENT_3D('',#38,#39,#40);
#38=CARTESIAN_POINT('',(0.0,0.0,0.0));
#39=DIRECTION('',(0.0,0.0,1.0));
#40=DIRECTION('',(1.0,0.0,0.0));
#41=SHAPE_REPRESENTATION('',(#37),#36);
#42=PRODUCT_DEFINITION_SHAPE('','',#12);
#43=SHAPE_DEFINITION_REPRESENTATION(#42,#41);
#44=CARTESIAN_POINT('',(0.0,30.0,0.0));
#45=DIRECTION('',(0.0,-1.0,0.0));
#46=DIRECTION('',(0.0,0.0,-1.0));
#47=AXIS2_PLACEMENT_3D('',#44,#45,#46);
#48=PLANE('',#47);
#49=CARTESIAN_POINT('',(20.0,30.0,-2.449213E-015));
#50=VERTEX_POINT('',#49);
#51=CARTESIAN_POINT('',(0.0,30.0,0.0));
#52=DIRECTION('',(0.0,-1.0,0.0));
#53=DIRECTION('',(-1.0,0.0,0.0));
#54=AXIS2_PLACEMENT_3D('',#51,#52,#53);
#55=CIRCLE('',#54,20.0);
#56=EDGE_CURVE('',#50,#50,#55,.T.);
#57=ORIENTED_EDGE('',*,*,#56,.T.);
#58=EDGE_LOOP('',(#57));
#59=FACE_OUTER_BOUND('',#58,.T.);
#60=CARTESIAN_POINT('',(-10.0,30.0,1.224606E-015));
#61=VERTEX_POINT('',#60);
#62=CARTESIAN_POINT('',(0.0,30.0,0.0));
#63=DIRECTION('',(0.0,-1.0,0.0));
#64=DIRECTION('',(1.0,0.0,0.0));
#65=AXIS2_PLACEMENT_3D('',#62,#63,#64);
#66=CIRCLE('',#65,10.0);
#67=EDGE_CURVE('',#61,#61,#66,.T.);
#68=ORIENTED_EDGE('',*,*,#67,.F.);
#69=EDGE_LOOP('',(#68));
#70=FACE_BOUND('',#69,.T.);
#71=ADVANCED_FACE('',(#59,#70),#48,.T.);
#72=CARTESIAN_POINT('',(0.0,30.0,0.0));
#73=DIRECTION('',(0.0,1.0,0.0));
#74=DIRECTION('',(-1.0,0.0,0.0));
#75=AXIS2_PLACEMENT_3D('',#72,#73,#74);
#76=CYLINDRICAL_SURFACE('',#75,20.0);
#77=CARTESIAN_POINT('',(20.0,137.0,-2.449213E-015));
#78=VERTEX_POINT('',#77);
#79=CARTESIAN_POINT('',(0.0,137.0,0.0));
#80=DIRECTION('',(0.0,-1.0,0.0));
#81=DIRECTION('',(-1.0,0.0,0.0));
#82=AXIS2_PLACEMENT_3D('',#79,#80,#81);
#83=CIRCLE('',#82,20.0);
#84=EDGE_CURVE('',#78,#78,#83,.T.);
#85=ORIENTED_EDGE('',*,*,#84,.T.);
#86=EDGE_LOOP('',(#85));
#87=FACE_OUTER_BOUND('',#86,.T.);
#88=ORIENTED_EDGE('',*,*,#56,.F.);
#89=EDGE_LOOP('',(#88));
#90=FACE_BOUND('',#89,.T.);
#91=ADVANCED_FACE('',(#87,#90),#76,.T.);
#92=CARTESIAN_POINT('',(0.0,137.0,0.0));
#93=DIRECTION('',(0.0,-1.0,0.0));
#94=DIRECTION('',(0.0,0.0,-1.0));
#95=AXIS2_PLACEMENT_3D('',#92,#93,#94);
#96=PLANE('',#95);
#97=ORIENTED_EDGE('',*,*,#84,.F.);
#98=EDGE_LOOP('',(#97));
#99=FACE_OUTER_BOUND('',#98,.T.);
#100=ADVANCED_FACE('',(#99),#96,.F.);
#101=CARTESIAN_POINT('',(0.0,0.0,0.0));
#102=DIRECTION('',(0.0,1.0,0.0));
#103=DIRECTION('',(1.0,0.0,0.0));
#104=AXIS2_PLACEMENT_3D('',#101,#102,#103);
#105=CYLINDRICAL_SURFACE('',#104,10.0);
#106=ORIENTED_EDGE('',*,*,#67,.T.);
#107=EDGE_LOOP('',(#106));
#108=FACE_OUTER_BOUND('',#107,.T.);
#109=CARTESIAN_POINT('',(-10.0,0.0,1.224606E-015));
#110=VERTEX_POINT('',#109);
#111=CARTESIAN_POINT('',(0.0,0.0,0.0));
#112=DIRECTION('',(0.0,-1.0,0.0));
#113=DIRECTION('',(1.0,0.0,0.0));
#114=AXIS2_PLACEMENT_3D('',#111,#112,#113);
#115=CIRCLE('',#114,10.0);
#116=EDGE_CURVE('',#110,#110,#115,.T.);
#117=ORIENTED_EDGE('',*,*,#116,.F.);
#118=EDGE_LOOP('',(#117));
#119=FACE_BOUND('',#118,.T.);
#120=ADVANCED_FACE('',(#108,#119),#105,.T.);
#121=CARTESIAN_POINT('',(0.0,0.0,0.0));
#122=DIRECTION('',(0.0,-1.0,0.0));
#123=DIRECTION('',(0.0,0.0,-1.0));
#124=AXIS2_PLACEMENT_3D('',#121,#122,#123);
#125=PLANE('',#124);
#126=ORIENTED_EDGE('',*,*,#116,.T.);
#127=EDGE_LOOP('',(#126));
#128=FACE_OUTER_BOUND('',#127,.T.);
#129=ADVANCED_FACE('',(#128),#125,.T.);
#130=CLOSED_SHELL('',(#71,#91,#100,#120,#129));
#131=MANIFOLD_SOLID_BREP('',#130);
#132=COLOUR_RGB('Aluminium (gleichmig)',0.847058832645416,0.839215695858002,0.839215695858002);
#133=FILL_AREA_STYLE_COLOUR('Aluminium (gleichmig)',#132);
#134=FILL_AREA_STYLE('Aluminium (gleichmig)',(#133));
#135=SURFACE_STYLE_FILL_AREA(#134);
#136=SURFACE_SIDE_STYLE('Aluminium (gleichmig)',(#135));
#137=SURFACE_STYLE_USAGE(.BOTH.,#136);
#138=PRESENTATION_STYLE_ASSIGNMENT((#137));
#139=STYLED_ITEM('',(#138),#131);
#140=MECHANICAL_DESIGN_GEOMETRIC_PRESENTATION_REPRESENTATION('',(#139),#36);
#141=ADVANCED_BREP_SHAPE_REPRESENTATION('ABSR',(#131),#36);
#142=SHAPE_REPRESENTATION_RELATIONSHIP('SRR','None',#141,#41);
ENDSEC;
END-ISO-10303-21;
