                                                                        S      1
,,26HDruckplatte 100 x 100 x 10,9HSZ0310S-A,22HAutodesk Inventor 2015,7HG      1
unknown,32,38,7,99,15,,1.,2,2HMM,1,0.08,15H20151123.120329,0.01,10000., G      2
8HDeerberg,,11,0,;                                                      G      3
     186       1                                                00000000D      1
     186            -111       1       0                               0D      2
     514       2                                                00010000D      3
     514                       1       1                               0D      4
     510       3                                                00010000D      5
     510            -111       1       1                               0D      6
     510       4                                                00010000D      7
     510            -111       1       1                               0D      8
     510       5                                                00010000D      9
     510            -111       1       1                               0D     10
     510       6                                                00010000D     11
     510            -111       1       1                               0D     12
     510       7                                                00010000D     13
     510            -111       1       1                               0D     14
     510       8                                                00010000D     15
     510            -111       1       1                               0D     16
     510       9                                                00010000D     17
     510            -111       1       1                               0D     18
     510      10                                                00010000D     19
     510            -111       1       1                               0D     20
     510      11                                                00010000D     21
     510            -111       1       1                               0D     22
     508      12                                                00010000D     23
     508                       1       1                               0D     24
     508      13                                                00010000D     25
     508                       1       1                               0D     26
     508      14                                                00010000D     27
     508                       2       1                               0D     28
     508      16                                                00010000D     29
     508                       1       1                               0D     30
     508      17                                                00010000D     31
     508                       1       1                               0D     32
     508      18                                                00010000D     33
     508                       1       1                               0D     34
     508      19                                                00010000D     35
     508                       1       1                               0D     36
     508      20                                                00010000D     37
     508                       1       1                               0D     38
     508      21                                                00010000D     39
     508                       1       1                               0D     40
     508      22                                                00010000D     41
     508                       1       1                               0D     42
     508      23                                                00010000D     43
     508                       1       1                               0D     44
     508      24                                                00010000D     45
     508                       1       1                               0D     46
     126      25                                                00010000D     47
     126       0               5       0                               0D     48
     126      30                                                00010000D     49
     126       0               7       0                               0D     50
     126      37                                                00010000D     51
     126       0              11       0                               0D     52
     126      48                                                00010000D     53
     126       0               5       0                               0D     54
     126      53                                                00010000D     55
     126       0               7       0                               0D     56
     126      60                                                00010000D     57
     126       0               3       0                               0D     58
     126      63                                                00010000D     59
     126       0               4       0                               0D     60
     126      67                                                00010000D     61
     126       0              10       0                               0D     62
     126      77                                                00010000D     63
     126       0               2       0                               0D     64
     126      79                                                00010000D     65
     126       0               2       0                               0D     66
     126      81                                                00010000D     67
     126       0               2       0                               0D     68
     126      83                                                00010000D     69
     126       0               2       0                               0D     70
     126      85                                                00010000D     71
     126       0               2       0                               0D     72
     126      87                                                00010000D     73
     126       0               2       0                               0D     74
     126      89                                                00010000D     75
     126       0               2       0                               0D     76
     126      91                                                00010000D     77
     126       0               2       0                               0D     78
     126      93                                                00010000D     79
     126       0               2       0                               0D     80
     126      95                                                00010000D     81
     126       0               2       0                               0D     82
     126      97                                                00010000D     83
     126       0               2       0                               0D     84
     126      99                                                00010000D     85
     126       0               2       0                               0D     86
     128     101                                                00010000D     87
     128       0    -111       3       0                               0D     88
     128     104                                                00010000D     89
     128       0    -111      13       0                               0D     90
     128     117                                                00010000D     91
     128       0    -111      15       0                               0D     92
     128     132                                                00010000D     93
     128       0    -111       3       0                               0D     94
     128     135                                                00010000D     95
     128       0    -111       3       0                               0D     96
     128     138                                                00010000D     97
     128       0    -111       3       0                               0D     98
     128     141                                                00010000D     99
     128       0    -111       3       0                               0D    100
     128     144                                                00010000D    101
     128       0    -111       3       0                               0D    102
     128     147                                                00010000D    103
     128       0    -111       2       0                               0D    104
     502     149                                                00010000D    105
     502                       5       1                               0D    106
     504     154                                                00010001D    107
     504                       6       1                               0D    108
     406     160                                                00000000D    109
     406                       1      15                               0D    110
     314     161                                                00000200D    111
     314                       1       0                               0D    112
186,3,1,0,0,1,109;                                                     1P      1
514,9,5,1,7,1,9,1,11,1,13,1,15,1,17,1,19,1,21,1;                       3P      2
510,87,2,1,23,25;                                                      5P      3
510,89,1,1,27;                                                         7P      4
510,91,1,1,29;                                                         9P      5
510,93,2,1,31,33;                                                     11P      6
510,95,1,1,35;                                                        13P      7
510,97,1,1,37;                                                        15P      8
510,99,1,1,39;                                                        17P      9
510,101,1,1,41;                                                       19P     10
510,103,2,1,43,45;                                                    21P     11
508,2,0,107,1,1,0,0,107,2,1,0;                                        23P     12
508,1,0,107,3,0,0;                                                    25P     13
508,6,0,107,4,0,0,0,107,5,0,0,0,107,6,1,0,0,107,1,0,0,0,107,2,0,      27P     14
0,0,107,6,0,0;                                                        27P     15
508,4,0,107,3,1,0,0,107,7,1,0,0,107,8,0,0,0,107,7,0,0;                29P     16
508,4,0,107,9,0,0,0,107,10,0,0,0,107,11,0,0,0,107,12,0,0;             31P     17
508,1,0,107,8,1,0;                                                    33P     18
508,4,0,107,13,1,0,0,107,14,1,0,0,107,11,1,0,0,107,15,0,0;            35P     19
508,4,0,107,16,1,0,0,107,17,1,0,0,107,12,1,0,0,107,14,0,0;            37P     20
508,4,0,107,18,1,0,0,107,19,0,0,0,107,9,1,0,0,107,17,0,0;             39P     21
508,4,0,107,20,1,0,0,107,15,1,0,0,107,10,1,0,0,107,19,1,0;            41P     22
508,4,0,107,13,0,0,0,107,20,0,0,0,107,18,0,0,0,107,16,0,0;            43P     23
508,2,0,107,4,1,0,0,107,5,1,0;                                        45P     24
126,4,2,0,0,0,0,0.,0.,0.,1.5707963267949,1.5707963267949,             47P     25
3.14159265358979,3.14159265358979,3.14159265358979,1.,                47P     26
0.707106781186548,1.,0.707106781186548,1.,16.5,0.,2.,16.5,16.5,       47P     27
2.,1.01033360929657D-15,16.5,2.,-16.5,16.5,2.,-16.5,                  47P     28
2.02066721859313D-15,2.,0.,3.14159265358979,0.,0.,0.;                 47P     29
126,4,2,0,0,0,0,3.14159265358979,3.14159265358979,                    49P     30
3.14159265358979,4.71238898038469,4.71238898038469,                   49P     31
6.28318530717959,6.28318530717959,6.28318530717959,1.,                49P     32
0.707106781186548,1.,0.707106781186548,1.,-16.5,                      49P     33
2.02066721859313D-15,2.,-16.5,-16.5,2.,-3.0310008278897D-15,          49P     34
-16.5,2.,16.5,-16.5,2.,16.5,-4.04133443718627D-15,2.,                 49P     35
3.14159265358979,6.28318530717959,0.,0.,0.;                           49P     36
126,8,2,0,1,0,0,-3.14159265358979,-3.14159265358979,                  51P     37
-3.14159265358979,-1.5707963267949,-1.5707963267949,0.,0.,            51P     38
1.5707963267949,1.5707963267949,3.14159265358979,                     51P     39
3.14159265358979,3.14159265358979,1.,0.707106781186548,1.,            51P     40
0.707106781186547,1.,0.707106781186547,1.,0.707106781186548,1.,       51P     41
-10.,-1.22464679914735D-15,1.99999999999999,-10.,-10.,                51P     42
1.99999999999999,6.12323399573677D-16,-10.,1.99999999999999,10.,      51P     43
-10.,1.99999999999999,10.,0.,1.99999999999999,10.,10.,                51P     44
1.99999999999999,6.12323399573677D-16,10.,1.99999999999999,-10.,      51P     45
10.,1.99999999999999,-10.,1.22464679914735D-15,1.99999999999999,      51P     46
-3.14159265358979,3.14159265358979,0.,0.,0.;                          51P     47
126,4,2,0,0,0,0,0.,0.,0.,1.5707963267949,1.5707963267949,             53P     48
3.14159265358979,3.14159265358979,3.14159265358979,1.,                53P     49
0.707106781186548,1.,0.707106781186548,1.,16.5,0.,5.,16.5,-16.5,      53P     50
5.,1.01033360929657D-15,-16.5,5.,-16.5,-16.5,5.,-16.5,                53P     51
-2.02066721859313D-15,5.,0.,3.14159265358979,0.,0.,0.;                53P     52
126,4,2,0,0,0,0,3.14159265358979,3.14159265358979,                    55P     53
3.14159265358979,4.71238898038469,4.71238898038469,                   55P     54
6.28318530717959,6.28318530717959,6.28318530717959,1.,                55P     55
0.707106781186548,1.,0.707106781186548,1.,-16.5,                      55P     56
-2.02066721859313D-15,5.,-16.5,16.5,5.,-3.0310008278897D-15,          55P     57
16.5,5.,16.5,16.5,5.,16.5,4.04133443718627D-15,5.,                    55P     58
3.14159265358979,6.28318530717959,0.,0.,0.;                           55P     59
126,1,1,0,0,1,0,-0.0909090909090909,-0.0909090909090909,              57P     60
0.0909090909090909,0.0909090909090909,1.,1.,-16.5,0.,5.,-16.5,        57P     61
0.,2.,-0.0909090909090909,0.0909090909090909,0.,0.,0.;                57P     62
126,1,1,0,0,1,0,-13.8774468787578,-13.8774468787578,                  59P     63
-13.1774468787578,-13.1774468787578,1.,1.,-10.,0.,                    59P     64
1.99999999999999,-10.,0.,-5.,-13.8774468787578,                       59P     65
-13.1774468787578,0.,0.,0.;                                           59P     66
126,8,2,0,1,0,0,-3.14159265358979,-3.14159265358979,                  61P     67
-3.14159265358979,-1.5707963267949,-1.5707963267949,0.,0.,            61P     68
1.5707963267949,1.5707963267949,3.14159265358979,                     61P     69
3.14159265358979,3.14159265358979,1.,0.707106781186548,1.,            61P     70
0.707106781186547,1.,0.707106781186547,1.,0.707106781186548,1.,       61P     71
-10.,-1.22464679914735D-15,-5.,-10.,-10.,-5.,                         61P     72
6.12323399573677D-16,-10.,-5.,10.,-10.,-5.,10.,0.,-5.,10.,10.,        61P     73
-5.,6.12323399573677D-16,10.,-5.,-10.,10.,-5.,-10.,                   61P     74
1.22464679914735D-15,-5.,-3.14159265358979,3.14159265358979,0.,       61P     75
0.,0.;                                                                61P     76
126,1,1,0,0,1,0,-10.,-10.,0.,0.,1.,1.,-50.,50.,-5.,-50.,-50.,         63P     77
-5.,-10.,0.,0.,0.,0.;                                                 63P     78
126,1,1,0,0,1,0,-10.,-10.,0.,0.,1.,1.,50.,50.,-5.,-50.,50.,-5.,       65P     79
-10.,0.,0.,0.,0.;                                                     65P     80
126,1,1,0,0,1,0,-10.,-10.,0.,0.,1.,1.,50.,-50.,-5.,50.,50.,-5.,       67P     81
-10.,0.,0.,0.,0.;                                                     67P     82
126,1,1,0,0,1,0,-10.,-10.,0.,0.,1.,1.,-50.,-50.,-5.,50.,-50.,         69P     83
-5.,-10.,0.,0.,0.,0.;                                                 69P     84
126,1,1,0,0,1,0,0.,0.,10.,10.,1.,1.,50.,50.,5.,50.,-50.,5.,0.,        71P     85
10.,0.,0.,0.;                                                         71P     86
126,1,1,0,0,1,0,-0.5,-0.5,0.5,0.5,1.,1.,50.,-50.,5.,50.,-50.,         73P     87
-5.,-0.5,0.5,0.,0.,0.;                                                73P     88
126,1,1,0,0,1,0,-0.5,-0.5,0.5,0.5,1.,1.,50.,50.,5.,50.,50.,-5.,       75P     89
-0.5,0.5,0.,0.,0.;                                                    75P     90
126,1,1,0,0,1,0,0.,0.,10.,10.,1.,1.,50.,-50.,5.,-50.,-50.,5.,0.,      77P     91
10.,0.,0.,0.;                                                         77P     92
126,1,1,0,0,1,0,-0.5,-0.5,0.5,0.5,1.,1.,-50.,-50.,5.,-50.,-50.,       79P     93
-5.,-0.5,0.5,0.,0.,0.;                                                79P     94
126,1,1,0,0,1,0,0.,0.,10.,10.,1.,1.,-50.,-50.,5.,-50.,50.,5.,0.,      81P     95
10.,0.,0.,0.;                                                         81P     96
126,1,1,0,0,1,0,-0.5,-0.5,0.5,0.5,1.,1.,-50.,50.,-5.,-50.,50.,        83P     97
5.,-0.5,0.5,0.,0.,0.;                                                 83P     98
126,1,1,0,0,1,0,0.,0.,10.,10.,1.,1.,-50.,50.,5.,50.,50.,5.,0.,        85P     99
10.,0.,0.,0.;                                                         85P    100
128,1,1,1,1,0,0,1,0,0,-1.65,-1.65,1.65,1.65,-1.65,-1.65,1.65,         87P    101
1.65,1.,1.,1.,1.,-16.5,-16.5,2.,16.5,-16.5,2.,-16.5,16.5,2.,          87P    102
16.5,16.5,2.,-1.65,1.65,-1.65,1.65;                                   87P    103
128,1,8,1,2,0,1,0,0,0,-0.0909090909090909,-0.0909090909090909,        89P    104
0.0909090909090909,0.0909090909090909,-3.14159265358979,              89P    105
-3.14159265358979,-3.14159265358979,-1.5707963267949,                 89P    106
-1.5707963267949,0.,0.,1.5707963267949,1.5707963267949,               89P    107
3.14159265358979,3.14159265358979,3.14159265358979,1.,1.,             89P    108
0.707106781186548,0.707106781186548,1.,1.,0.707106781186548,          89P    109
0.707106781186548,1.,1.,0.707106781186548,0.707106781186548,1.,       89P    110
1.,0.707106781186548,0.707106781186548,1.,1.,-16.5,0.,2.,-16.5,       89P    111
0.,5.,-16.5,-16.5,2.,-16.5,-16.5,5.,0.,-16.5,2.,0.,-16.5,5.,          89P    112
16.5,-16.5,2.,16.5,-16.5,5.,16.5,0.,2.,16.5,0.,5.,16.5,16.5,2.,       89P    113
16.5,16.5,5.,0.,16.5,2.,0.,16.5,5.,-16.5,16.5,2.,-16.5,16.5,5.,       89P    114
-16.5,0.,2.,-16.5,0.,5.,-0.0909090909090909,0.0909090909090909,       89P    115
-3.14159265358979,3.14159265358979;                                   89P    116
128,1,8,1,2,0,1,0,0,0,-13.8774468787578,-13.8774468787578,            91P    117
-13.1774468787578,-13.1774468787578,-3.14159265358979,                91P    118
-3.14159265358979,-3.14159265358979,-1.5707963267949,                 91P    119
-1.5707963267949,0.,0.,1.5707963267949,1.5707963267949,               91P    120
3.14159265358979,3.14159265358979,3.14159265358979,1.,1.,             91P    121
0.707106781186548,0.707106781186548,1.,1.,0.707106781186548,          91P    122
0.707106781186548,1.,1.,0.707106781186548,0.707106781186548,1.,       91P    123
1.,0.707106781186548,0.707106781186548,1.,1.,-10.,0.,-5.,-10.,        91P    124
0.,1.99999999999999,-10.,-10.,-5.,-10.,-10.,1.99999999999999,0.,      91P    125
-10.,-5.,0.,-10.,1.99999999999999,10.,-10.,-5.,10.,-10.,              91P    126
1.99999999999999,10.,0.,-5.,10.,0.,1.99999999999999,10.,10.,-5.,      91P    127
10.,10.,1.99999999999999,0.,10.,-5.,0.,10.,1.99999999999999,          91P    128
-10.,10.,-5.,-10.,10.,1.99999999999999,-10.,0.,-5.,-10.,0.,           91P    129
1.99999999999999,-13.8774468787578,-13.1774468787578,                 91P    130
-3.14159265358979,3.14159265358979;                                   91P    131
128,1,1,1,1,0,0,1,0,0,-5.,-5.,5.,5.,-5.,-5.,5.,5.,1.,1.,1.,1.,        93P    132
50.,-50.,-5.,-50.,-50.,-5.,50.,50.,-5.,-50.,50.,-5.,-5.,5.,-5.,       93P    133
5.;                                                                   93P    134
128,1,1,1,1,0,0,1,0,0,-0.5,-0.5,0.5,0.5,-10.,-10.,0.,0.,1.,1.,        95P    135
1.,1.,50.,-50.,5.,50.,-50.,-5.,50.,50.,5.,50.,50.,-5.,-0.5,0.5,       95P    136
-10.,0.;                                                              95P    137
128,1,1,1,1,0,0,1,0,0,-0.5,-0.5,0.5,0.5,-10.,-10.,0.,0.,1.,1.,        97P    138
1.,1.,-50.,-50.,5.,-50.,-50.,-5.,50.,-50.,5.,50.,-50.,-5.,-0.5,       97P    139
0.5,-10.,0.;                                                          97P    140
128,1,1,1,1,0,0,1,0,0,-0.5,-0.5,0.5,0.5,0.,0.,10.,10.,1.,1.,1.,       99P    141
1.,-50.,-50.,-5.,-50.,-50.,5.,-50.,50.,-5.,-50.,50.,5.,-0.5,0.5,      99P    142
0.,10.;                                                               99P    143
128,1,1,1,1,0,0,1,0,0,-0.5,-0.5,0.5,0.5,0.,0.,10.,10.,1.,1.,1.,      101P    144
1.,-50.,50.,-5.,-50.,50.,5.,50.,50.,-5.,50.,50.,5.,-0.5,0.5,0.,      101P    145
10.;                                                                 101P    146
128,1,1,1,1,0,0,1,0,0,-5.,-5.,5.,5.,-5.,-5.,5.,5.,1.,1.,1.,1.,       103P    147
-50.,-50.,5.,50.,-50.,5.,-50.,50.,5.,50.,50.,5.,-5.,5.,-5.,5.;       103P    148
502,14,16.5,0.,2.,-16.5,0.,2.,-10.,-1.22460635382238D-15,            105P    149
1.99999999999999,16.5,0.,5.,-16.5,0.,5.,-10.,                        105P    150
-1.22460635382238D-15,-5.,-50.,50.,-5.,-50.,-50.,-5.,50.,50.,        105P    151
-5.,50.,-50.,-5.,50.,50.,5.,50.,-50.,5.,-50.,-50.,5.,-50.,50.,       105P    152
5.;                                                                  105P    153
504,20,47,105,1,105,2,49,105,2,105,1,51,105,3,105,3,53,105,4,        107P    154
105,5,55,105,5,105,4,57,105,5,105,2,59,105,3,105,6,61,105,6,105,     107P    155
6,63,105,7,105,8,65,105,9,105,7,67,105,10,105,9,69,105,8,105,10,     107P    156
71,105,11,105,12,73,105,12,105,10,75,105,11,105,9,77,105,12,105,     107P    157
13,79,105,13,105,8,81,105,13,105,14,83,105,7,105,14,85,105,14,       107P    158
105,11;                                                              107P    159
406,1,15HVolumenkörper1;                                            109P    160
314,32.156862745098,32.156862745098,32.156862745098,;                111P    161
S      1G      3D    112P    161                                        T      1
